  0
SECTION
  2
HEADER
  9
$ACADVER
  1
AC1015
  9
$ACADMAINTVER
 70
    20
  9
$DWGCODEPAGE
  3
ANSI_1252
  9
$INSBASE
 10
267.5068505439835
 20
0.0
 30
0.0
  9
$EXTMIN
 10
-0.1317747407974821
 20
-0.1176317629024197
 30
-0.0015258207003583
  9
$EXTMAX
 10
4317.131714032242
 20
3854.969353865499
 30
0.0000000349246037
  9
$LIMMIN
 10
0.0
 20
0.0
  9
$LIMMAX
 10
420.0
 20
297.0
  9
$ORTHOMODE
 70
     1
  9
$REGENMODE
 70
     1
  9
$FILLMODE
 70
     1
  9
$QTEXTMODE
 70
     0
  9
$MIRRTEXT
 70
     1
  9
$LTSCALE
 40
0.5
  9
$ATTMODE
 70
     1
  9
$TEXTSIZE
 40
5.86670481121007
  9
$TRACEWID
 40
1.0
  9
$TEXTSTYLE
  7
Standard
  9
$CLAYER
  8
0
  9
$CELTYPE
  6
ByLayer
  9
$CECOLOR
 62
   256
  9
$CELTSCALE
 40
1.0
  9
$DISPSILH
 70
     0
  9
$DIMSCALE
 40
1.0
  9
$DIMASZ
 40
2.5
  9
$DIMEXO
 40
0.0
  9
$DIMDLI
 40
3.75
  9
$DIMRND
 40
0.0
  9
$DIMDLE
 40
0.0
  9
$DIMEXE
 40
1.25
  9
$DIMTP
 40
0.0
  9
$DIMTM
 40
0.0
  9
$DIMTXT
 40
2.5
  9
$DIMCEN
 40
2.5
  9
$DIMTSZ
 40
0.0
  9
$DIMTOL
 70
     0
  9
$DIMLIM
 70
     0
  9
$DIMTIH
 70
     0
  9
$DIMTOH
 70
     0
  9
$DIMSE1
 70
     0
  9
$DIMSE2
 70
     0
  9
$DIMTAD
 70
     1
  9
$DIMZIN
 70
     8
  9
$DIMBLK
  1

  9
$DIMASO
 70
     1
  9
$DIMSHO
 70
     1
  9
$DIMPOST
  1

  9
$DIMAPOST
  1

  9
$DIMALT
 70
     0
  9
$DIMALTD
 70
     3
  9
$DIMALTF
 40
0.03937007874016
  9
$DIMLFAC
 40
1.0
  9
$DIMTOFL
 70
     1
  9
$DIMTVP
 40
0.0
  9
$DIMTIX
 70
     0
  9
$DIMSOXD
 70
     0
  9
$DIMSAH
 70
     0
  9
$DIMBLK1
  1

  9
$DIMBLK2
  1

  9
$DIMSTYLE
  2
ISO-25
  9
$DIMCLRD
 70
     3
  9
$DIMCLRE
 70
     3
  9
$DIMCLRT
 70
     0
  9
$DIMTFAC
 40
0.8
  9
$DIMGAP
 40
0.625
  9
$DIMJUST
 70
     0
  9
$DIMSD1
 70
     0
  9
$DIMSD2
 70
     0
  9
$DIMTOLJ
 70
     0
  9
$DIMTZIN
 70
     8
  9
$DIMALTZ
 70
     0
  9
$DIMALTTZ
 70
     0
  9
$DIMUPT
 70
     0
  9
$DIMDEC
 70
     2
  9
$DIMTDEC
 70
     2
  9
$DIMALTU
 70
     2
  9
$DIMALTTD
 70
     3
  9
$DIMTXSTY
  7
Standard
  9
$DIMAUNIT
 70
     0
  9
$DIMADEC
 70
     2
  9
$DIMALTRND
 40
0.0
  9
$DIMAZIN
 70
     2
  9
$DIMDSEP
 70
    44
  9
$DIMATFIT
 70
     3
  9
$DIMFRAC
 70
     0
  9
$DIMLDRBLK
  1

  9
$DIMLUNIT
 70
     2
  9
$DIMLWD
 70
    -2
  9
$DIMLWE
 70
    -2
  9
$DIMTMOVE
 70
     0
  9
$LUNITS
 70
     2
  9
$LUPREC
 70
     4
  9
$SKETCHINC
 40
1.0
  9
$FILLETRAD
 40
5.0
  9
$AUNITS
 70
     0
  9
$AUPREC
 70
     0
  9
$MENU
  1
.
  9
$ELEVATION
 40
0.0
  9
$PELEVATION
 40
0.0
  9
$THICKNESS
 40
0.0
  9
$LIMCHECK
 70
     0
  9
$CHAMFERA
 40
0.0
  9
$CHAMFERB
 40
0.0
  9
$CHAMFERC
 40
20.0
  9
$CHAMFERD
 40
0.0
  9
$SKPOLY
 70
     0
  9
$TDCREATE
 40
2455315.376366447
  9
$TDUCREATE
 40
2455315.293033113
  9
$TDUPDATE
 40
2455315.377298611
  9
$TDUUPDATE
 40
2455315.293965278
  9
$TDINDWG
 40
0.0009326968
  9
$TDUSRTIMER
 40
0.0009326968
  9
$USRTIMER
 70
     1
  9
$ANGBASE
 50
0.0
  9
$ANGDIR
 70
     0
  9
$PDMODE
 70
     0
  9
$PDSIZE
 40
0.0
  9
$PLINEWID
 40
0.0
  9
$SPLFRAME
 70
     0
  9
$SPLINETYPE
 70
     6
  9
$SPLINESEGS
 70
     8
  9
$HANDSEED
  5
107B
  9
$SURFTAB1
 70
     6
  9
$SURFTAB2
 70
     6
  9
$SURFTYPE
 70
     6
  9
$SURFU
 70
     6
  9
$SURFV
 70
     6
  9
$UCSBASE
  2

  9
$UCSNAME
  2

  9
$UCSORG
 10
0.0
 20
0.0
 30
0.0
  9
$UCSXDIR
 10
1.0
 20
0.0
 30
0.0
  9
$UCSYDIR
 10
0.0
 20
1.0
 30
0.0
  9
$UCSORTHOREF
  2

  9
$UCSORTHOVIEW
 70
     0
  9
$UCSORGTOP
 10
0.0
 20
0.0
 30
0.0
  9
$UCSORGBOTTOM
 10
0.0
 20
0.0
 30
0.0
  9
$UCSORGLEFT
 10
0.0
 20
0.0
 30
0.0
  9
$UCSORGRIGHT
 10
0.0
 20
0.0
 30
0.0
  9
$UCSORGFRONT
 10
0.0
 20
0.0
 30
0.0
  9
$UCSORGBACK
 10
0.0
 20
0.0
 30
0.0
  9
$PUCSBASE
  2

  9
$PUCSNAME
  2

  9
$PUCSORG
 10
0.0
 20
0.0
 30
0.0
  9
$PUCSXDIR
 10
1.0
 20
0.0
 30
0.0
  9
$PUCSYDIR
 10
0.0
 20
1.0
 30
0.0
  9
$PUCSORTHOREF
  2

  9
$PUCSORTHOVIEW
 70
     0
  9
$PUCSORGTOP
 10
0.0
 20
0.0
 30
0.0
  9
$PUCSORGBOTTOM
 10
0.0
 20
0.0
 30
0.0
  9
$PUCSORGLEFT
 10
0.0
 20
0.0
 30
0.0
  9
$PUCSORGRIGHT
 10
0.0
 20
0.0
 30
0.0
  9
$PUCSORGFRONT
 10
0.0
 20
0.0
 30
0.0
  9
$PUCSORGBACK
 10
0.0
 20
0.0
 30
0.0
  9
$USERI1
 70
     0
  9
$USERI2
 70
     0
  9
$USERI3
 70
     0
  9
$USERI4
 70
     0
  9
$USERI5
 70
     0
  9
$USERR1
 40
0.0
  9
$USERR2
 40
0.0
  9
$USERR3
 40
0.0
  9
$USERR4
 40
0.0
  9
$USERR5
 40
0.0
  9
$WORLDVIEW
 70
     1
  9
$SHADEDGE
 70
     3
  9
$SHADEDIF
 70
    70
  9
$TILEMODE
 70
     1
  9
$MAXACTVP
 70
    64
  9
$PINSBASE
 10
0.0
 20
0.0
 30
0.0
  9
$PLIMCHECK
 70
     0
  9
$PEXTMIN
 10
1.000000000000000E+20
 20
1.000000000000000E+20
 30
1.000000000000000E+20
  9
$PEXTMAX
 10
-1.000000000000000E+20
 20
-1.000000000000000E+20
 30
-1.000000000000000E+20
  9
$PLIMMIN
 10
0.0
 20
0.0
  9
$PLIMMAX
 10
420.0
 20
297.0
  9
$UNITMODE
 70
     0
  9
$VISRETAIN
 70
     1
  9
$PLINEGEN
 70
     0
  9
$PSLTSCALE
 70
     1
  9
$TREEDEPTH
 70
  3020
  9
$CMLSTYLE
  2
Standard
  9
$CMLJUST
 70
     0
  9
$CMLSCALE
 40
20.0
  9
$PROXYGRAPHICS
 70
     1
  9
$MEASUREMENT
 70
     1
  9
$CELWEIGHT
370
    -1
  9
$ENDCAPS
280
     0
  9
$JOINSTYLE
280
     0
  9
$LWDISPLAY
290
     0
  9
$INSUNITS
 70
     4
  9
$HYPERLINKBASE
  1

  9
$STYLESHEET
  1
monochrome.ctb
  9
$XEDIT
290
     1
  9
$CEPSNTYPE
380
     0
  9
$PSTYLEMODE
290
     1
  9
$FINGERPRINTGUID
  2
{83C03B0A-85EF-4B9B-82D5-6503D40209BE}
  9
$VERSIONGUID
  2
{EF34C3E8-5E15-4591-B582-886CFEA8BFA5}
  9
$EXTNAMES
290
     1
  9
$PSVPSCALE
 40
0.0
  9
$OLESTARTUP
290
     0
  0
ENDSEC
  0
SECTION
  2
CLASSES
  0
CLASS
  1
ACDBDICTIONARYWDFLT
  2
AcDbDictionaryWithDefault
  3
ObjectDBX Classes
 90
        0
280
     0
281
     0
  0
CLASS
  1
ACDBPLACEHOLDER
  2
AcDbPlaceHolder
  3
ObjectDBX Classes
 90
        0
280
     0
281
     0
  0
CLASS
  1
LAYOUT
  2
AcDbLayout
  3
ObjectDBX Classes
 90
        0
280
     0
281
     0
  0
CLASS
  1
DICTIONARYVAR
  2
AcDbDictionaryVar
  3
ObjectDBX Classes
 90
        0
280
     0
281
     0
  0
CLASS
  1
MATERIAL
  2
AcDbMaterial
  3
ObjectDBX Classes
 90
     1153
280
     0
281
     0
  0
CLASS
  1
VISUALSTYLE
  2
AcDbVisualStyle
  3
ObjectDBX Classes
 90
     4095
280
     0
281
     0
  0
CLASS
  1
TABLESTYLE
  2
AcDbTableStyle
  3
ObjectDBX Classes
 90
     4095
280
     0
281
     0
  0
CLASS
  1
SCALE
  2
AcDbScale
  3
ObjectDBX Classes
 90
     1153
280
     0
281
     0
  0
CLASS
  1
MLEADERSTYLE
  2
AcDbMLeaderStyle
  3
ACDB_MLEADERSTYLE_CLASS
 90
     4095
280
     0
281
     0
  0
CLASS
  1
CELLSTYLEMAP
  2
AcDbCellStyleMap
  3
ObjectDBX Classes
 90
     1152
280
     0
281
     0
  0
CLASS
  1
SORTENTSTABLE
  2
AcDbSortentsTable
  3
ObjectDBX Classes
 90
        0
280
     0
281
     0
  0
ENDSEC
  0
SECTION
  2
TABLES
  0
TABLE
  2
VPORT
  5
19
330
0
100
AcDbSymbolTable
 70
     1
  0
VPORT
  5
630
330
19
100
AcDbSymbolTableRecord
100
AcDbViewportTableRecord
  2
*Active
 70
     0
 10
0.0
 20
0.0
 11
1.0
 21
1.0
 12
2080.751934368346
 22
1863.428790764166
 13
0.0
 23
0.0
 14
10.0
 24
10.0
 15
10.0
 25
10.0
 16
0.0
 26
0.0
 36
1.0
 17
0.0
 27
0.0
 37
0.0
 40
4361.693029831991
 41
1.611330698287219
 42
50.0
 43
0.0
 44
0.0
 50
0.0
 51
0.0
 71
     0
 72
   100
 73
     1
 74
     2
 75
     0
 76
     0
 77
     0
 78
     0
281
     0
 65
     1
110
0.0
120
0.0
130
0.0
111
1.0
121
0.0
131
0.0
112
0.0
122
1.0
132
0.0
 79
     0
146
0.0
  0
ENDTAB
  0
TABLE
  2
LTYPE
  5
14
330
0
100
AcDbSymbolTable
 70
     6
  0
LTYPE
  5
15
330
14
100
AcDbSymbolTableRecord
100
AcDbLinetypeTableRecord
  2
ByBlock
 70
     0
  3

 72
    65
 73
     0
 40
0.0
  0
LTYPE
  5
16
330
14
100
AcDbSymbolTableRecord
100
AcDbLinetypeTableRecord
  2
ByLayer
 70
     0
  3

 72
    65
 73
     0
 40
0.0
  0
LTYPE
  5
8
330
14
100
AcDbSymbolTableRecord
100
AcDbLinetypeTableRecord
  2
Continuous
 70
     0
  3
Solid line
 72
    65
 73
     0
 40
0.0
  0
ENDTAB
  0
TABLE
  2
LAYER
  5
10
330
0
100
AcDbSymbolTable
 70
     9
  0
LAYER
  5
4
102
{ACAD_XDICTIONARY
360
68A
102
}
330
10
100
AcDbSymbolTableRecord
100
AcDbLayerTableRecord
  2
0
 70
     0
 62
     7
  6
Continuous
370
    -3
390
5
  0
LAYER
  5
34
330
10
100
AcDbSymbolTableRecord
100
AcDbLayerTableRecord
  2
Defpoints
 70
     0
 62
     7
  6
Continuous
290
     0
370
    -3
390
5
  0
ENDTAB
  0
TABLE
  2
STYLE
  5
11
330
0
100
AcDbSymbolTable
 70
     6
  0
STYLE
  5
12
330
11
100
AcDbSymbolTableRecord
100
AcDbTextStyleTableRecord
  2
Standard
 70
     0
 40
0.0
 41
0.9
 50
0.0
 71
     0
 42
5.86670481121007
  3
simplex.shx
  4

  0
ENDTAB
  0
TABLE
  2
VIEW
  5
17
330
0
100
AcDbSymbolTable
 70
     0
  0
ENDTAB
  0
TABLE
  2
UCS
  5
18
330
0
100
AcDbSymbolTable
 70
     0
  0
ENDTAB
  0
TABLE
  2
APPID
  5
1B
330
0
100
AcDbSymbolTable
 70
     4
  0
APPID
  5
1C
330
1B
100
AcDbSymbolTableRecord
100
AcDbRegAppTableRecord
  2
ACAD
 70
     0
  0
APPID
  5
683
330
1B
100
AcDbSymbolTableRecord
100
AcDbRegAppTableRecord
  2
ACAD_MLEADERVER
 70
     0
  0
APPID
  5
69C
330
1B
100
AcDbSymbolTableRecord
100
AcDbRegAppTableRecord
  2
DCO15
 70
     0
  0
APPID
  5
105B
330
1B
100
AcDbSymbolTableRecord
100
AcDbRegAppTableRecord
  2
ACAD_EXEMPT_FROM_CAD_STANDARDS
 70
     0
  0
ENDTAB
  0
TABLE
  2
DIMSTYLE
  5
1D
330
0
100
AcDbSymbolTable
 70
     3
100
AcDbDimStyleTable
 71
     1
340
1E
  0
DIMSTYLE
105
1E
330
1D
100
AcDbSymbolTableRecord
100
AcDbDimStyleTableRecord
  2
ISO-25
 70
     0
 41
2.5
 42
0.0
 43
3.75
 44
1.25
 73
     0
 74
     0
 77
     1
 78
     8
140
2.5
141
2.5
143
0.03937007874016
147
0.625
171
     3
172
     1
176
     3
177
     3
271
     2
272
     2
274
     3
278
    44
283
     0
284
     8
340
12
  0
DIMSTYLE
105
B6C
330
1D
100
AcDbSymbolTableRecord
100
AcDbDimStyleTableRecord
  2
Standard
 70
     0
 41
1.25
 42
1.0
 44
0.75
 73
     0
 74
     0
 77
     1
140
2.5
146
0.8
147
1.25
176
     7
177
     7
178
     7
271
     2
340
12
  0
ENDTAB
  0
TABLE
  2
BLOCK_RECORD
  5
1
330
0
100
AcDbSymbolTable
 70
    38
  0
BLOCK_RECORD
  5
2
102
{ACAD_XDICTIONARY
360
B8D
102
}
330
1
100
AcDbSymbolTableRecord
100
AcDbBlockTableRecord
  2
*Model_Space
340
A
  0
BLOCK_RECORD
  5
C
330
1
100
AcDbSymbolTableRecord
100
AcDbBlockTableRecord
  2
*Paper_Space
340
F
  0
ENDTAB
  0
ENDSEC
  0
SECTION
  2
BLOCKS
  0
BLOCK
  5
3
330
2
100
AcDbEntity
  8
0
100
AcDbBlockBegin
  2
*Model_Space
 70
     0
 10
0.0
 20
0.0
 30
0.0
  3
*Model_Space
  1

  0
ENDBLK
  5
9
330
2
100
AcDbEntity
  8
0
100
AcDbBlockEnd
  0
BLOCK
  5
D
330
C
100
AcDbEntity
 67
     1
  8
0
100
AcDbBlockBegin
  2
*Paper_Space
 70
     0
 10
0.0
 20
0.0
 30
0.0
  3
*Paper_Space
  1

  0
ENDBLK
  5
E
330
C
100
AcDbEntity
 67
     1
  8
0
100
AcDbBlockEnd
  0
ENDSEC
  0
SECTION
  2
ENTITIES
  0
TEXT
  5
B8C
330
2
100
AcDbEntity
  8
0
 62
     7
100
AcDbText
 10
1819.210461096067
 20
3654.851704152045
 30
0.0
 40
200.0
  1
BZ07
 41
0.9
100
AcDbText
  0
ARC
  5
B8F
330
2
100
AcDbEntity
  8
0
  6
Continuous
 62
     7
100
AcDbCircle
 10
2741.499959594174
 20
35.40002186653692
 30
0.0
 40
2.499999999999945
100
AcDbArc
 50
77.14279432646384
 51
90.0
  0
ARC
  5
B90
330
2
100
AcDbEntity
  8
0
  6
Continuous
 62
     7
100
AcDbCircle
 10
2741.499959594174
 20
35.40002186653692
 30
0.0
 40
2.499999999999861
100
AcDbArc
 50
270.0
 51
282.8815957261718
  0
ARC
  5
B91
330
2
100
AcDbEntity
  8
0
  6
Continuous
 62
     7
100
AcDbCircle
 10
2741.499959594174
 20
35.40002186653692
 30
0.0
 40
2.499999999999945
100
AcDbArc
 50
257.144752246087
 51
270.0
  0
ARC
  5
B92
330
2
100
AcDbEntity
  8
0
  6
Continuous
 62
     7
100
AcDbCircle
 10
2711.499959594172
 20
35.40002186653692
 30
0.0
 40
2.499999999999945
100
AcDbArc
 50
77.14279432667575
 51
90.0
  0
ARC
  5
B93
330
2
100
AcDbEntity
  8
0
  6
Continuous
 62
     7
100
AcDbCircle
 10
2711.499959594172
 20
35.40002186653692
 30
0.0
 40
2.500000000000045
100
AcDbArc
 50
270.0
 51
282.881595725957
  0
ARC
  5
B94
330
2
100
AcDbEntity
  8
0
  6
Continuous
 62
     7
100
AcDbCircle
 10
2711.499959594172
 20
35.40002186653692
 30
0.0
 40
2.499999999999945
100
AcDbArc
 50
257.1447522462989
 51
270.0
  0
ARC
  5
B95
330
2
100
AcDbEntity
  8
0
  6
Continuous
 62
     7
100
AcDbCircle
 10
2642.466852603554
 20
35.40002186653487
 30
0.0
 40
2.499999999999945
100
AcDbArc
 50
267.3139378988291
 51
270.0
  0
ARC
  5
B96
330
2
100
AcDbEntity
  8
0
  6
Continuous
 62
     7
100
AcDbCircle
 10
2654.466852603554
 20
35.40002186653487
 30
0.0
 40
2.499999999999945
100
AcDbArc
 50
267.3139378988291
 51
270.0
  0
ARC
  5
B97
330
2
100
AcDbEntity
  8
0
  6
Continuous
 62
     9
100
AcDbCircle
 10
2730.499959594236
 20
52.00002186386178
 30
0.0
 40
2.500000000000389
100
AcDbArc
 50
0.0000000021365185
 51
270.0000000021887
  0
ARC
  5
B98
330
2
100
AcDbEntity
  8
0
  6
Continuous
 62
     9
100
AcDbCircle
 10
2711.500409824378
 20
35.39958383587691
 30
0.0
 40
3.000450262177133
100
AcDbArc
 50
91.58208839888677
 51
179.9916354858378
  0
LINE
  5
B99
330
2
100
AcDbEntity
  8
0
  6
Continuous
 62
     9
100
AcDbLine
 10
2711.417569964517
 20
38.3988903112836
 30
0.0
 11
2711.513244515819
 21
38.39999245153081
 31
0.0
  0
ARC
  5
B9A
330
2
100
AcDbEntity
  8
0
  6
Continuous
 62
     9
100
AcDbCircle
 10
2711.499652610099
 20
35.40002254624574
 30
0.0
 40
3.000000695419781
100
AcDbArc
 50
270.0058629625442
 51
89.74041289426805
  0
ARC
  5
B9B
330
2
100
AcDbEntity
  8
0
  6
Continuous
 62
     9
100
AcDbCircle
 10
2741.500409824377
 20
35.39958383587782
 30
0.0
 40
3.000450262177133
100
AcDbArc
 50
91.58208840086766
 51
179.9916354858508
  0
LINE
  5
B9C
330
2
100
AcDbEntity
  8
0
  6
Continuous
 62
     9
100
AcDbLine
 10
2741.417569964416
 20
38.39889031128087
 30
0.0
 11
2741.513244515836
 21
38.39999245153081
 31
0.0
  0
ARC
  5
B9D
330
2
100
AcDbEntity
  8
0
  6
Continuous
 62
     9
100
AcDbCircle
 10
2741.4996526101
 20
35.40002254624574
 30
0.0
 40
3.000000695419855
100
AcDbArc
 50
270.0058629625442
 51
89.7404128939554
  0
LINE
  5
B9E
330
2
100
AcDbEntity
  8
0
  6
Continuous
 62
     9
100
AcDbLine
 10
2639.466852602801
 20
35.40002186654374
 30
0.0
 11
2639.470504738214
 21
35.54800657651095
 31
0.0
  0
ARC
  5
B9F
330
2
100
AcDbEntity
  8
0
  6
Continuous
 62
     9
100
AcDbCircle
 10
2642.466823672696
 20
35.39999432997479
 30
0.0
 40
2.99997246358267
100
AcDbArc
 50
270.0005525294328
 51
177.1720002482456
  0
LINE
  5
BA0
330
2
100
AcDbEntity
  8
0
  6
Continuous
 62
     9
100
AcDbLine
 10
2651.466852602801
 20
35.40002186654374
 30
0.0
 11
2651.470504738215
 21
35.5480065765089
 31
0.0
  0
ARC
  5
BA1
330
2
100
AcDbEntity
  8
0
  6
Continuous
 62
     9
100
AcDbCircle
 10
2654.466823672695
 20
35.39999432997479
 30
0.0
 40
2.99997246358256
100
AcDbArc
 50
270.0005525294328
 51
177.1720002482847
  0
LINE
  5
BA2
330
2
100
AcDbEntity
  8
0
  6
Continuous
 62
     7
100
AcDbLine
 10
1558.299959594202
 20
27.4000218684489
 30
0.0
 11
1558.299959594165
 21
43.4000218684489
 31
0.0
  0
LINE
  5
BA3
330
2
100
AcDbEntity
  8
0
  6
Continuous
 62
     7
100
AcDbLine
 10
1558.099959594727
 20
27.40002186843481
 30
0.0
 11
1558.099959593639
 21
43.4000218684348
 31
0.0
  0
LINE
  5
BA4
330
2
100
AcDbEntity
  8
0
  6
Continuous
 62
     7
100
AcDbLine
 10
1558.299959594728
 20
27.4000218684489
 30
0.0
 11
1558.299959593638
 21
43.4000218684489
 31
0.0
  0
LINE
  5
BA5
330
2
100
AcDbEntity
  8
0
  6
Continuous
 62
     7
100
AcDbLine
 10
1558.499959595112
 20
28.40002186848574
 30
0.0
 11
1558.499959593266
 21
42.40002186848983
 31
0.0
  0
LINE
  5
BA6
330
2
100
AcDbEntity
  8
0
  6
Continuous
 62
     7
100
AcDbLine
 10
1558.499959593406
 20
47.40002157256163
 30
0.0
 11
1558.499959594959
 21
23.40002186805782
 31
0.0
  0
LINE
  5
BA7
330
2
100
AcDbEntity
  8
0
  6
Continuous
 62
     7
100
AcDbLine
 10
1552.099959595698
 20
23.90002186764377
 30
0.0
 11
1552.099959592666
 21
46.90002158446077
 31
0.0
  0
LINE
  5
BA8
330
2
100
AcDbEntity
  8
0
  6
Continuous
 62
     7
100
AcDbLine
 10
1553.099959592537
 20
47.90002155996762
 30
0.0
 11
1553.099959595833
 21
22.90002186777565
 31
0.0
  0
LINE
  5
BA9
330
2
100
AcDbEntity
  8
0
  6
Continuous
 62
     7
100
AcDbLine
 10
1558.099959592533
 20
47.900021560627
 30
0.0
 11
1558.099959595833
 21
22.90002186843481
 31
0.0
  0
LINE
  5
BAA
330
2
100
AcDbEntity
  8
0
  6
Continuous
 62
     7
100
AcDbLine
 10
1569.499959593702
 20
47.09759387655367
 30
0.0
 11
1569.499959595266
 21
23.40002186878178
 31
0.0
  0
LINE
  5
BAB
330
2
100
AcDbEntity
  8
0
  6
Continuous
 62
     7
100
AcDbLine
 10
1570.499959593681
 20
47.40002157335175
 30
0.0
 11
1570.499959593724
 21
46.78916417859068
 31
0.0
  0
LINE
  5
BAC
330
2
100
AcDbEntity
  8
0
  6
Continuous
 62
     7
100
AcDbLine
 10
1570.499959593751
 20
46.3378323807758
 30
0.0
 11
1570.499959595265
 21
23.40002186884772
 31
0.0
  0
LINE
  5
BAD
330
2
100
AcDbEntity
  8
0
  6
Continuous
 62
     7
100
AcDbLine
 10
1573.999959594472
 20
47.90002186884771
 30
0.0
 11
1573.999959594472
 21
46.70867001669876
 31
0.0
  0
LINE
  5
BAE
330
2
100
AcDbEntity
  8
0
  6
Continuous
 62
     7
100
AcDbLine
 10
1573.999959594472
 20
46.24433720778165
 30
0.0
 11
1573.999959594472
 21
22.90002186884771
 31
0.0
  0
LINE
  5
BAF
330
2
100
AcDbEntity
  8
0
  6
Continuous
 62
     7
100
AcDbLine
 10
1575.499959594472
 20
46.40002186884771
 30
0.0
 11
1575.499959594472
 21
24.40002186884772
 31
0.0
  0
LINE
  5
BB0
330
2
100
AcDbEntity
  8
0
  6
Continuous
 62
     9
100
AcDbLine
 10
1570.999959594472
 20
47.90002186884771
 30
0.0
 11
1570.999959594472
 21
46.5378907429108
 31
0.0
  0
LINE
  5
BB1
330
2
100
AcDbEntity
  8
0
  6
Continuous
 62
     9
100
AcDbLine
 10
1570.999959594472
 20
46.11499868958776
 30
0.0
 11
1570.999959594472
 21
22.90002186884771
 31
0.0
  0
LINE
  5
BB2
330
2
100
AcDbEntity
  8
0
  6
Continuous
 62
     7
100
AcDbLine
 10
1570.499959594475
 20
47.40002186884772
 30
0.0
 11
1570.499959594475
 21
46.78916417813479
 31
0.0
  0
LINE
  5
BB3
330
2
100
AcDbEntity
  8
0
  6
Continuous
 62
     7
100
AcDbLine
 10
1570.499959594475
 20
46.33783238039064
 30
0.0
 11
1570.499959594475
 21
23.40002186884772
 31
0.0
  0
LINE
  5
BB4
330
2
100
AcDbEntity
  8
0
  6
Continuous
 62
     7
100
AcDbLine
 10
1570.999959596849
 20
773.5000218671047
 30
0.0
 11
1570.999959596895
 21
744.5000218671047
 31
0.0
  0
LINE
  5
BB5
330
2
100
AcDbEntity
  8
0
  6
Continuous
 62
     9
100
AcDbLine
 10
1570.499959596849
 20
774.0000218671034
 30
0.0
 11
1570.499959596896
 21
744.0000218671025
 31
0.0
  0
LINE
  5
BB6
330
2
100
AcDbEntity
  8
0
  6
Continuous
 62
     7
100
AcDbLine
 10
1567.999959596849
 20
774.0000218670997
 30
0.0
 11
1567.999959596894
 21
744.0000218670998
 31
0.0
  0
LINE
  5
BB7
330
2
100
AcDbEntity
  8
0
  6
Continuous
 62
     7
100
AcDbLine
 10
1570.999959596223
 20
769.0000218670939
 30
0.0
 11
1587.49995959622
 21
769.0000218671197
 31
0.0
  0
LINE
  5
BB8
330
2
100
AcDbEntity
  8
0
  6
Continuous
 62
     7
100
AcDbLine
 10
1587.49995959622
 20
769.0000218671197
 30
0.0
 11
1587.499959596191
 21
790.0000218671197
 31
0.0
  0
LINE
  5
BB9
330
2
100
AcDbEntity
  8
0
  6
Continuous
 62
     7
100
AcDbLine
 10
1607.499959596189
 20
790.0000218671507
 30
0.0
 11
1607.499959596225
 21
767.5000218671507
 31
0.0
  0
LINE
  5
BBA
330
2
100
AcDbEntity
  8
0
  6
Continuous
 62
     7
100
AcDbLine
 10
1607.499959596225
 20
767.5000218671507
 30
0.0
 11
1588.999959596254
 21
749.0000218671216
 31
0.0
  0
LINE
  5
BBB
330
2
100
AcDbEntity
  8
0
  6
Continuous
 62
     7
100
AcDbLine
 10
1588.999959596254
 20
749.0000218671216
 30
0.0
 11
1570.999959596254
 21
749.0000218670939
 31
0.0
  0
LINE
  5
BBC
330
2
100
AcDbEntity
  8
0
  6
Continuous
 62
     7
100
AcDbLine
 10
1577.499959595174
 20
800.0000218670939
 30
0.0
 11
1577.499959595561
 21
790.0000218670939
 31
0.0
  0
LINE
  5
BBD
330
2
100
AcDbEntity
  8
0
  6
Continuous
 62
     7
100
AcDbLine
 10
1617.499959595176
 20
800.0000218686508
 30
0.0
 11
1577.499959595174
 21
800.0000218670939
 31
0.0
  0
LINE
  5
BBE
330
2
100
AcDbEntity
  8
0
  6
Continuous
 62
     7
100
AcDbLine
 10
1617.499959595565
 20
790.0000218686509
 30
0.0
 11
1577.499959595561
 21
790.0000218670939
 31
0.0
  0
LINE
  5
BBF
330
2
100
AcDbEntity
  8
0
  6
Continuous
 62
     7
100
AcDbLine
 10
1617.499959595176
 20
800.0000218686508
 30
0.0
 11
1617.499959595565
 21
790.0000218686509
 31
0.0
  0
LINE
  5
BC0
330
2
100
AcDbEntity
  8
0
  6
Continuous
 62
     9
100
AcDbLine
 10
2690.499959595058
 20
25.00002186267375
 30
0.0
 11
2706.499959594174
 21
25.00002186327061
 31
0.0
  0
LINE
  5
BC1
330
2
100
AcDbEntity
  8
0
  6
Continuous
 62
     7
100
AcDbLine
 10
2694.999959594337
 20
22.50002186284178
 30
0.0
 11
2720.499959595152
 21
22.50002186379379
 31
0.0
  0
CIRCLE
  5
BC2
330
2
100
AcDbEntity
  8
0
  6
Continuous
 62
     7
100
AcDbCircle
 10
2730.499959587958
 20
52.00002186389156
 30
0.0
 40
1.69999999999959
  0
LINE
  5
BC3
330
2
100
AcDbEntity
  8
0
  6
Continuous
 62
     7
100
AcDbLine
 10
2729.24995958795
 20
52.72170970036109
 30
0.0
 11
2730.49995958794
 21
53.44339753686586
 31
0.0
  0
LINE
  5
BC4
330
2
100
AcDbEntity
  8
0
  6
Continuous
 62
     7
100
AcDbLine
 10
2729.249959587968
 20
51.27833402738679
 30
0.0
 11
2729.24995958795
 21
52.72170970036109
 31
0.0
  0
LINE
  5
BC5
330
2
100
AcDbEntity
  8
0
  6
Continuous
 62
     7
100
AcDbLine
 10
2730.499959587978
 20
50.55664619091771
 30
0.0
 11
2729.249959587968
 21
51.27833402738679
 31
0.0
  0
LINE
  5
BC6
330
2
100
AcDbEntity
  8
0
  6
Continuous
 62
     7
100
AcDbLine
 10
2731.74995958797
 20
51.27833402742067
 30
0.0
 11
2730.499959587978
 21
50.55664619091771
 31
0.0
  0
LINE
  5
BC7
330
2
100
AcDbEntity
  8
0
  6
Continuous
 62
     7
100
AcDbLine
 10
2731.749959587949
 20
52.72170970039588
 30
0.0
 11
2731.74995958797
 21
51.27833402742067
 31
0.0
  0
LINE
  5
BC8
330
2
100
AcDbEntity
  8
0
  6
Continuous
 62
     7
100
AcDbLine
 10
2730.49995958794
 20
53.44339753686586
 30
0.0
 11
2731.749959587949
 21
52.72170970039588
 31
0.0
  0
LINE
  5
BC9
330
2
100
AcDbEntity
  8
0
  6
Continuous
 62
     7
100
AcDbLine
 10
2736.499959593862
 20
62.00002186408574
 30
0.0
 11
2713.999959593863
 21
62.00002186324468
 31
0.0
  0
CIRCLE
  5
BCA
330
2
100
AcDbEntity
  8
0
  6
Continuous
 62
     7
100
AcDbCircle
 10
2730.499959594236
 20
52.00002186386178
 30
0.0
 40
2.099999999999545
  0
LINE
  5
BCB
330
2
100
AcDbEntity
  8
0
  6
Continuous
 62
     7
100
AcDbLine
 10
2713.999959593863
 20
62.00002186324468
 30
0.0
 11
2697.399959597733
 21
45.4000218658748
 31
0.0
  0
LINE
  5
BCC
330
2
100
AcDbEntity
  8
0
  6
Continuous
 62
     7
100
AcDbLine
 10
2746.499959593676
 20
72.00002186378674
 30
0.0
 11
2736.499959593675
 21
72.00002186378674
 31
0.0
  0
LINE
  5
BCD
330
2
100
AcDbEntity
  8
0
  6
Continuous
 62
     7
100
AcDbLine
 10
2736.499959593675
 20
47.40002186614264
 30
0.0
 11
2736.499959593675
 21
72.00002186378674
 31
0.0
  0
LINE
  5
BCE
330
2
100
AcDbEntity
  8
0
  6
Continuous
 62
     7
100
AcDbLine
 10
2746.499959593676
 20
47.40002186614264
 30
0.0
 11
2746.499959593676
 21
72.00002186378674
 31
0.0
  0
CIRCLE
  5
BCF
330
2
100
AcDbEntity
  8
0
  6
Continuous
 62
     7
100
AcDbCircle
 10
2741.499959594174
 20
35.40002186654579
 30
0.0
 40
1.999999999999779
  0
LINE
  5
BD0
330
2
100
AcDbEntity
  8
0
  6
Continuous
 62
     7
100
AcDbLine
 10
2742.365984997958
 20
36.90002186654579
 30
0.0
 11
2743.232010401743
 21
35.40002186654579
 31
0.0
  0
LINE
  5
BD1
330
2
100
AcDbEntity
  8
0
  6
Continuous
 62
     7
100
AcDbLine
 10
2740.633934190389
 20
36.90002186654579
 30
0.0
 11
2742.365984997958
 21
36.90002186654579
 31
0.0
  0
LINE
  5
BD2
330
2
100
AcDbEntity
  8
0
  6
Continuous
 62
     7
100
AcDbLine
 10
2739.767908786604
 20
35.40002186654579
 30
0.0
 11
2740.633934190389
 21
36.90002186654579
 31
0.0
  0
LINE
  5
BD3
330
2
100
AcDbEntity
  8
0
  6
Continuous
 62
     7
100
AcDbLine
 10
2740.633934190389
 20
33.90002186654488
 30
0.0
 11
2739.767908786604
 21
35.40002186654579
 31
0.0
  0
LINE
  5
BD4
330
2
100
AcDbEntity
  8
0
  6
Continuous
 62
     7
100
AcDbLine
 10
2742.365984997958
 20
33.90002186654488
 30
0.0
 11
2740.633934190389
 21
33.90002186654488
 31
0.0
  0
LINE
  5
BD5
330
2
100
AcDbEntity
  8
0
  6
Continuous
 62
     7
100
AcDbLine
 10
2743.232010401743
 20
35.40002186654579
 30
0.0
 11
2742.365984997958
 21
33.90002186654488
 31
0.0
  0
CIRCLE
  5
BD6
330
2
100
AcDbEntity
  8
0
  6
Continuous
 62
     7
100
AcDbCircle
 10
2711.499959594172
 20
35.40002186654579
 30
0.0
 40
1.999999999999779
  0
LINE
  5
BD7
330
2
100
AcDbEntity
  8
0
  6
Continuous
 62
     7
100
AcDbLine
 10
2712.365984997956
 20
36.90002186654579
 30
0.0
 11
2713.232010401742
 21
35.40002186654579
 31
0.0
  0
LINE
  5
BD8
330
2
100
AcDbEntity
  8
0
  6
Continuous
 62
     7
100
AcDbLine
 10
2710.633934190389
 20
36.90002186654579
 30
0.0
 11
2712.365984997956
 21
36.90002186654579
 31
0.0
  0
LINE
  5
BD9
330
2
100
AcDbEntity
  8
0
  6
Continuous
 62
     7
100
AcDbLine
 10
2709.767908786604
 20
35.40002186654579
 30
0.0
 11
2710.633934190389
 21
36.90002186654579
 31
0.0
  0
LINE
  5
BDA
330
2
100
AcDbEntity
  8
0
  6
Continuous
 62
     7
100
AcDbLine
 10
2710.633934190389
 20
33.90002186654579
 30
0.0
 11
2709.767908786604
 21
35.40002186654579
 31
0.0
  0
LINE
  5
BDB
330
2
100
AcDbEntity
  8
0
  6
Continuous
 62
     7
100
AcDbLine
 10
2712.365984997956
 20
33.90002186654579
 30
0.0
 11
2710.633934190389
 21
33.90002186654579
 31
0.0
  0
LINE
  5
BDC
330
2
100
AcDbEntity
  8
0
  6
Continuous
 62
     7
100
AcDbLine
 10
2713.232010401742
 20
35.40002186654579
 30
0.0
 11
2712.365984997956
 21
33.90002186654579
 31
0.0
  0
LINE
  5
BDD
330
2
100
AcDbEntity
  8
0
  6
Continuous
 62
     7
100
AcDbLine
 10
2746.499959594174
 20
47.40002186614264
 30
0.0
 11
2706.499959594174
 21
47.40002186614264
 31
0.0
  0
LINE
  5
BDE
330
2
100
AcDbEntity
  8
0
  6
Continuous
 62
     7
100
AcDbLine
 10
2746.499959594174
 20
47.40002186614264
 30
0.0
 11
2746.499959594174
 21
23.40002186614379
 31
0.0
  0
LINE
  5
BDF
330
2
100
AcDbEntity
  8
0
  6
Continuous
 62
     7
100
AcDbLine
 10
2746.499959594174
 20
23.40002186614379
 30
0.0
 11
2706.499959594174
 21
23.40002186614379
 31
0.0
  0
LINE
  5
BE0
330
2
100
AcDbEntity
  8
0
  6
Continuous
 62
     7
100
AcDbLine
 10
2706.499959594174
 20
47.40002186614264
 30
0.0
 11
2706.499959594174
 21
23.40002186614379
 31
0.0
  0
LINE
  5
BE1
330
2
100
AcDbEntity
  8
0
  6
Continuous
 62
     7
100
AcDbLine
 10
2741.499959594174
 20
32.90002186653692
 30
0.0
 11
2740.943736559444
 21
32.96268398769576
 31
0.0
  0
ARC
  5
BE2
330
2
100
AcDbEntity
  8
0
  6
Continuous
 62
     7
100
AcDbCircle
 10
2741.500015851763
 20
35.40006715531104
 30
0.0
 40
2.500056670726023
100
AcDbArc
 50
180.5261817304956
 51
257.1436952422748
  0
ARC
  5
BE3
330
2
100
AcDbEntity
  8
0
  6
Continuous
 62
     7
100
AcDbCircle
 10
2741.499978276471
 20
35.40000322919991
 30
0.0
 40
2.500018510761647
100
AcDbArc
 50
89.6133273478018
 51
180.5247246329603
  0
LINE
  5
BE4
330
2
100
AcDbEntity
  8
0
  6
Continuous
 62
     7
100
AcDbLine
 10
2741.516850050592
 20
37.89996480838181
 30
0.0
 11
2742.056265981831
 21
37.83734072197058
 31
0.0
  0
ARC
  5
BE5
330
2
100
AcDbEntity
  8
0
  6
Continuous
 62
     7
100
AcDbCircle
 10
2741.499948625339
 20
35.40002186420179
 30
0.0
 40
2.500002443112502
100
AcDbArc
 50
282.8818807533581
 51
77.14251679945966
  0
LINE
  5
BE6
330
2
100
AcDbEntity
  8
0
  6
Continuous
 62
     7
100
AcDbLine
 10
2742.057303784694
 20
32.96294011713076
 30
0.0
 11
2741.499959594174
 21
32.90002186653692
 31
0.0
  0
LINE
  5
BE7
330
2
100
AcDbEntity
  8
0
  6
Continuous
 62
     7
100
AcDbLine
 10
2711.499959594172
 20
32.90002186653692
 30
0.0
 11
2710.943736559453
 21
32.96268398769303
 31
0.0
  0
ARC
  5
BE8
330
2
100
AcDbEntity
  8
0
  6
Continuous
 62
     7
100
AcDbCircle
 10
2711.500015851763
 20
35.40006715531104
 30
0.0
 40
2.500056670726015
100
AcDbArc
 50
180.5261817304695
 51
257.1436952424896
  0
ARC
  5
BE9
330
2
100
AcDbEntity
  8
0
  6
Continuous
 62
     7
100
AcDbCircle
 10
2711.499978276471
 20
35.40000322919991
 30
0.0
 40
2.500018510761634
100
AcDbArc
 50
89.6133273478018
 51
180.5247246329343
  0
LINE
  5
BEA
330
2
100
AcDbEntity
  8
0
  6
Continuous
 62
     7
100
AcDbLine
 10
2711.516850050591
 20
37.89996480838181
 30
0.0
 11
2712.056265981823
 21
37.83734072197172
 31
0.0
  0
ARC
  5
BEB
330
2
100
AcDbEntity
  8
0
  6
Continuous
 62
     7
100
AcDbCircle
 10
2711.499948625338
 20
35.40002186420179
 30
0.0
 40
2.50000244311289
100
AcDbArc
 50
282.8818807531463
 51
77.14251679967157
  0
LINE
  5
BEC
330
2
100
AcDbEntity
  8
0
  6
Continuous
 62
     7
100
AcDbLine
 10
2712.057303784684
 20
32.9629401171278
 30
0.0
 11
2711.499959594172
 21
32.90002186653692
 31
0.0
  0
CIRCLE
  5
BED
330
2
100
AcDbEntity
  8
0
  6
Continuous
 62
     7
100
AcDbCircle
 10
2642.466852603571
 20
35.40002186654374
 30
0.0
 40
2.000000000000667
  0
LINE
  5
BEE
330
2
100
AcDbEntity
  8
0
  6
Continuous
 62
     7
100
AcDbLine
 10
2641.600827199786
 20
33.90002186654488
 30
0.0
 11
2640.734801796
 21
35.40002186654374
 31
0.0
  0
LINE
  5
BEF
330
2
100
AcDbEntity
  8
0
  6
Continuous
 62
     7
100
AcDbLine
 10
2643.332878007355
 20
33.90002186654488
 30
0.0
 11
2641.600827199786
 21
33.90002186654488
 31
0.0
  0
LINE
  5
BF0
330
2
100
AcDbEntity
  8
0
  6
Continuous
 62
     7
100
AcDbLine
 10
2644.198903411139
 20
35.40002186654374
 30
0.0
 11
2643.332878007355
 21
33.90002186654488
 31
0.0
  0
LINE
  5
BF1
330
2
100
AcDbEntity
  8
0
  6
Continuous
 62
     7
100
AcDbLine
 10
2643.332878007355
 20
36.90002186654374
 30
0.0
 11
2644.198903411139
 21
35.40002186654374
 31
0.0
  0
LINE
  5
BF2
330
2
100
AcDbEntity
  8
0
  6
Continuous
 62
     7
100
AcDbLine
 10
2641.600827199786
 20
36.90002186654374
 30
0.0
 11
2643.332878007355
 21
36.90002186654374
 31
0.0
  0
LINE
  5
BF3
330
2
100
AcDbEntity
  8
0
  6
Continuous
 62
     7
100
AcDbLine
 10
2640.734801796
 20
35.40002186654374
 30
0.0
 11
2641.600827199786
 21
36.90002186654374
 31
0.0
  0
CIRCLE
  5
BF4
330
2
100
AcDbEntity
  8
0
  6
Continuous
 62
     7
100
AcDbCircle
 10
2654.466852603571
 20
35.40002186654374
 30
0.0
 40
1.999999999999779
  0
LINE
  5
BF5
330
2
100
AcDbEntity
  8
0
  6
Continuous
 62
     7
100
AcDbLine
 10
2653.600827199787
 20
33.90002186654488
 30
0.0
 11
2652.734801796003
 21
35.40002186654374
 31
0.0
  0
LINE
  5
BF6
330
2
100
AcDbEntity
  8
0
  6
Continuous
 62
     7
100
AcDbLine
 10
2655.332878007353
 20
33.90002186654488
 30
0.0
 11
2653.600827199787
 21
33.90002186654488
 31
0.0
  0
LINE
  5
BF7
330
2
100
AcDbEntity
  8
0
  6
Continuous
 62
     7
100
AcDbLine
 10
2656.198903411139
 20
35.40002186654374
 30
0.0
 11
2655.332878007353
 21
33.90002186654488
 31
0.0
  0
LINE
  5
BF8
330
2
100
AcDbEntity
  8
0
  6
Continuous
 62
     7
100
AcDbLine
 10
2655.332878007353
 20
36.90002186654374
 30
0.0
 11
2656.198903411139
 21
35.40002186654374
 31
0.0
  0
LINE
  5
BF9
330
2
100
AcDbEntity
  8
0
  6
Continuous
 62
     7
100
AcDbLine
 10
2653.600827199787
 20
36.90002186654374
 30
0.0
 11
2655.332878007353
 21
36.90002186654374
 31
0.0
  0
LINE
  5
BFA
330
2
100
AcDbEntity
  8
0
  6
Continuous
 62
     7
100
AcDbLine
 10
2652.734801796003
 20
35.40002186654374
 30
0.0
 11
2653.600827199787
 21
36.90002186654374
 31
0.0
  0
LINE
  5
BFB
330
2
100
AcDbEntity
  8
0
  6
Continuous
 62
     7
100
AcDbLine
 10
2658.466852602801
 20
47.40002186614264
 30
0.0
 11
2638.466852602801
 21
47.40002186614264
 31
0.0
  0
LINE
  5
BFC
330
2
100
AcDbEntity
  8
0
  6
Continuous
 62
     7
100
AcDbLine
 10
2658.466852602801
 20
47.40002186614264
 30
0.0
 11
2658.466852602801
 21
23.40002186614174
 31
0.0
  0
LINE
  5
BFD
330
2
100
AcDbEntity
  8
0
  6
Continuous
 62
     7
100
AcDbLine
 10
2658.466852602801
 20
23.40002186614174
 30
0.0
 11
2638.466852602801
 21
23.40002186614174
 31
0.0
  0
LINE
  5
BFE
330
2
100
AcDbEntity
  8
0
  6
Continuous
 62
     7
100
AcDbLine
 10
2638.466852602801
 20
47.40002186614264
 30
0.0
 11
2638.466852602801
 21
23.40002186614174
 31
0.0
  0
LINE
  5
BFF
330
2
100
AcDbEntity
  8
0
  6
Continuous
 62
     7
100
AcDbLine
 10
2654.466852602801
 20
32.90002186653487
 30
0.0
 11
2654.349688841231
 21
32.90276884511877
 31
0.0
  0
ARC
  5
C00
330
2
100
AcDbEntity
  8
0
  6
Continuous
 62
     7
100
AcDbCircle
 10
2654.466856178414
 20
35.40001814924472
 30
0.0
 40
2.499996454370104
100
AcDbArc
 50
0.4603839110311628
 51
267.3137346079173
  0
ARC
  5
C01
330
2
100
AcDbEntity
  8
0
  6
Continuous
 62
     7
100
AcDbCircle
 10
2654.466832160126
 20
35.40004214563578
 30
0.0
 40
2.500020279183501
100
AcDbArc
 50
270.0004685077673
 51
0.4598295535195543
  0
LINE
  5
C02
330
2
100
AcDbEntity
  8
0
  6
Continuous
 62
     7
100
AcDbLine
 10
2642.466852602801
 20
32.90002186653487
 30
0.0
 11
2642.349688841233
 21
32.90276884511877
 31
0.0
  0
ARC
  5
C03
330
2
100
AcDbEntity
  8
0
  6
Continuous
 62
     7
100
AcDbCircle
 10
2642.466856178413
 20
35.40001814924472
 30
0.0
 40
2.499996454370104
100
AcDbArc
 50
0.4603839110311628
 51
267.3137346079173
  0
ARC
  5
C04
330
2
100
AcDbEntity
  8
0
  6
Continuous
 62
     7
100
AcDbCircle
 10
2642.466832160126
 20
35.40004214563669
 30
0.0
 40
2.500020279185267
100
AcDbArc
 50
270.0004685078715
 51
0.4598295534935001
  0
LINE
  5
C05
330
2
100
AcDbEntity
  8
0
  6
Continuous
 62
     7
100
AcDbLine
 10
2669.999959594343
 20
7.300021865873759
 30
0.0
 11
2694.999959594338
 21
7.300021865873759
 31
0.0
  0
LINE
  5
C06
330
2
100
AcDbEntity
  8
0
  6
Continuous
 62
     7
100
AcDbLine
 10
2694.699959594338
 20
7.000021865874714
 30
0.0
 11
2670.299959594343
 21
7.000021865874714
 31
0.0
  0
LINE
  5
C07
330
2
100
AcDbEntity
  8
0
  6
Continuous
 62
     7
100
AcDbLine
 10
2669.999959594343
 20
13.0000218658738
 30
0.0
 11
2694.999959594338
 21
13.0000218658738
 31
0.0
  0
LINE
  5
C08
330
2
100
AcDbEntity
  8
0
  6
Continuous
 62
     7
100
AcDbLine
 10
2669.999959594343
 20
23.50002186587176
 30
0.0
 11
2694.999959594339
 21
23.50002186587381
 31
0.0
  0
LINE
  5
C09
330
2
100
AcDbEntity
  8
0
  6
Continuous
 62
     7
100
AcDbLine
 10
2675.49995959434
 20
25.00002186587176
 30
0.0
 11
2689.499917418817
 21
25.0000218658738
 31
0.0
  0
POLYLINE
  5
C0A
330
2
100
AcDbEntity
  8
0
  6
Continuous
 62
     7
100
AcDb2dPolyline
 66
     1
 10
0.0
 20
0.0
 30
0.0
 40
0.5
 41
0.5
  0
VERTEX
  5
C0B
330
C0A
100
AcDbEntity
  8
0
 62
     7
100
AcDbVertex
100
AcDb2dVertex
 10
2675.500001769867
 20
25.00002186587085
 30
0.0
 42
-0.2070583624665492
  0
VERTEX
  5
C0C
330
C0A
100
AcDbEntity
  8
0
 62
     7
100
AcDbVertex
100
AcDb2dVertex
 10
2683.782741197293
 20
27.7400380705858
 30
0.0
 42
-0.0988229719698612
  0
VERTEX
  5
C0D
330
C0A
100
AcDbEntity
  8
0
 62
     7
100
AcDbVertex
100
AcDb2dVertex
 10
2689.499917418815
 20
25.00002186587585
 30
0.0
  0
SEQEND
  5
C0E
330
C0A
100
AcDbEntity
  8
0
  0
LINE
  5
C0F
330
2
100
AcDbEntity
  8
0
  6
Continuous
 62
     7
100
AcDbLine
 10
2169.999959594195
 20
7.300021865873759
 30
0.0
 11
2194.999959594192
 21
7.300021865873759
 31
0.0
  0
LINE
  5
C10
330
2
100
AcDbEntity
  8
0
  6
Continuous
 62
     7
100
AcDbLine
 10
2194.699959594192
 20
7.000021865874714
 30
0.0
 11
2170.299959594195
 21
7.000021865874714
 31
0.0
  0
LINE
  5
C11
330
2
100
AcDbEntity
  8
0
  6
Continuous
 62
     7
100
AcDbLine
 10
2169.999959594195
 20
13.0000218658738
 30
0.0
 11
2194.999959594192
 21
13.0000218658738
 31
0.0
  0
LINE
  5
C12
330
2
100
AcDbEntity
  8
0
  6
Continuous
 62
     7
100
AcDbLine
 10
2169.999959594199
 20
23.50002186586971
 30
0.0
 11
2194.999959594195
 21
23.50002186587585
 31
0.0
  0
LINE
  5
C13
330
2
100
AcDbEntity
  8
0
  6
Continuous
 62
     7
100
AcDbLine
 10
2175.499959594197
 20
25.00002186587176
 30
0.0
 11
2189.499959163111
 21
25.00002186587471
 31
0.0
  0
POLYLINE
  5
C14
330
2
100
AcDbEntity
  8
0
  6
Continuous
 62
     7
100
AcDb2dPolyline
 66
     1
 10
0.0
 20
0.0
 30
0.0
 40
0.5
 41
0.5
  0
VERTEX
  5
C15
330
C14
100
AcDbEntity
  8
0
 62
     7
100
AcDbVertex
100
AcDb2dVertex
 10
2175.499960025281
 20
25.00002186587085
 30
0.0
 42
-0.2019913281150005
  0
VERTEX
  5
C16
330
C14
100
AcDbEntity
  8
0
 62
     7
100
AcDbVertex
100
AcDb2dVertex
 10
2183.80420770294
 20
27.7400380705858
 30
0.0
 42
-0.1001503401188294
  0
VERTEX
  5
C17
330
C14
100
AcDbEntity
  8
0
 62
     7
100
AcDbVertex
100
AcDb2dVertex
 10
2189.499959163113
 20
25.00002186587471
 30
0.0
  0
SEQEND
  5
C18
330
C14
100
AcDbEntity
  8
0
  0
LINE
  5
C19
330
2
100
AcDbEntity
  8
0
  6
Continuous
 62
     7
100
AcDbLine
 10
2078.99995959535
 20
47.00002186492588
 30
0.0
 11
2073.499959594454
 21
47.00002186492475
 31
0.0
  0
LINE
  5
C1A
330
2
100
AcDbEntity
  8
0
  6
Continuous
 62
     7
100
AcDbLine
 10
2065.499959594454
 20
47.00002186492383
 30
0.0
 11
2059.999959595351
 21
47.00002186492293
 31
0.0
  0
LINE
  5
C1B
330
2
100
AcDbEntity
  8
0
  6
Continuous
 62
     7
100
AcDbLine
 10
2059.499959595417
 20
47.00002186428991
 30
0.0
 11
2065.499959594454
 21
47.00002186467076
 31
0.0
  0
LINE
  5
C1C
330
2
100
AcDbEntity
  8
0
  6
Continuous
 62
     7
100
AcDbLine
 10
2073.499959594454
 20
47.00002186517759
 30
0.0
 11
2079.499959595416
 21
47.00002186555889
 31
0.0
  0
LINE
  5
C1D
330
2
100
AcDbEntity
  8
0
  6
Continuous
 62
     7
100
AcDbLine
 10
2055.499959594449
 20
57.00002186640699
 30
0.0
 11
2055.567653480821
 21
57.00002186640699
 31
0.0
  0
LINE
  5
C1E
330
2
100
AcDbEntity
  8
0
  6
Continuous
 62
     7
100
AcDbLine
 10
2055.567653480821
 20
57.00002186640699
 30
0.0
 11
2058.197500608789
 21
57.00002186640791
 31
0.0
  0
LINE
  5
C1F
330
2
100
AcDbEntity
  8
0
  6
Continuous
 62
     7
100
AcDbLine
 10
2058.197500608789
 20
57.00002186640791
 30
0.0
 11
2060.409659677816
 21
57.00002186640791
 31
0.0
  0
LINE
  5
C20
330
2
100
AcDbEntity
  8
0
  6
Continuous
 62
     7
100
AcDbLine
 10
2060.409659677816
 20
57.00002186640791
 30
0.0
 11
2061.246833777914
 21
57.00002186640791
 31
0.0
  0
LINE
  5
C21
330
2
100
AcDbEntity
  8
0
  6
Continuous
 62
     7
100
AcDbLine
 10
2061.246833777914
 20
57.00002186640791
 30
0.0
 11
2063.322598446286
 21
57.00002186640791
 31
0.0
  0
LINE
  5
C22
330
2
100
AcDbEntity
  8
0
  6
Continuous
 62
     7
100
AcDbLine
 10
2063.322598446286
 20
57.00002186640791
 30
0.0
 11
2064.2635202552
 21
57.00002186640791
 31
0.0
  0
LINE
  5
C23
330
2
100
AcDbEntity
  8
0
  6
Continuous
 62
     7
100
AcDbLine
 10
2064.2635202552
 20
57.00002186640791
 30
0.0
 11
2065.622746013701
 21
57.00002186640881
 31
0.0
  0
LINE
  5
C24
330
2
100
AcDbEntity
  8
0
  6
Continuous
 62
     7
100
AcDbLine
 10
2069.377173174664
 20
57.00002186640881
 30
0.0
 11
2071.364236651852
 21
57.00002186640972
 31
0.0
  0
LINE
  5
C25
330
2
100
AcDbEntity
  8
0
  6
Continuous
 62
     7
100
AcDbLine
 10
2071.364236651852
 20
57.00002186640972
 30
0.0
 11
2072.586516782159
 21
57.00002186640972
 31
0.0
  0
LINE
  5
C26
330
2
100
AcDbEntity
  8
0
  6
Continuous
 62
     7
100
AcDbLine
 10
2072.586516782159
 20
57.00002186640972
 30
0.0
 11
2074.035835090745
 21
57.00002186640972
 31
0.0
  0
LINE
  5
C27
330
2
100
AcDbEntity
  8
0
  6
Continuous
 62
     7
100
AcDbLine
 10
2074.035835090745
 20
57.00002186640972
 30
0.0
 11
2075.370407828214
 21
57.00002186640972
 31
0.0
  0
LINE
  5
C28
330
2
100
AcDbEntity
  8
0
  6
Continuous
 62
     7
100
AcDbLine
 10
2075.370407828214
 20
57.00002186640972
 30
0.0
 11
2076.802418684889
 21
57.00002186640972
 31
0.0
  0
LINE
  5
C29
330
2
100
AcDbEntity
  8
0
  6
Continuous
 62
     7
100
AcDbLine
 10
2076.802418684889
 20
57.00002186640972
 30
0.0
 11
2078.467254972066
 21
57.00002186641086
 31
0.0
  0
LINE
  5
C2A
330
2
100
AcDbEntity
  8
0
  6
Continuous
 62
     7
100
AcDbLine
 10
2078.467254972066
 20
57.00002186641086
 30
0.0
 11
2079.49995959445
 21
57.00002186641086
 31
0.0
  0
LINE
  5
C2B
330
2
100
AcDbEntity
  8
0
  6
Continuous
 62
     7
100
AcDbLine
 10
2058.999959594457
 20
25.00002186641086
 30
0.0
 11
2079.999959594457
 21
25.00002186641268
 31
0.0
  0
LINE
  5
C2C
330
2
100
AcDbEntity
  8
0
  6
Continuous
 62
     7
100
AcDbLine
 10
2056.999959594456
 20
25.53592025127182
 30
0.0
 11
2081.999959594457
 21
25.53592025127568
 31
0.0
  0
LINE
  5
C2D
330
2
100
AcDbEntity
  8
0
  6
Continuous
 62
     7
100
AcDbLine
 10
2056.999959594456
 20
26.50002186640973
 30
0.0
 11
2081.999959594457
 21
26.50002186641359
 31
0.0
  0
LINE
  5
C2E
330
2
100
AcDbEntity
  8
0
  6
Continuous
 62
     7
100
AcDbLine
 10
2079.999959594452
 20
57.00002186641086
 30
0.0
 11
2054.999959594453
 21
57.00002186640699
 31
0.0
  0
LINE
  5
C2F
330
2
100
AcDbEntity
  8
0
  6
Continuous
 62
     7
100
AcDbLine
 10
2079.999959594452
 20
62.7000218664109
 30
0.0
 11
2054.999959594453
 21
62.70002186640704
 31
0.0
  0
LINE
  5
C30
330
2
100
AcDbEntity
  8
0
  6
Continuous
 62
     7
100
AcDbLine
 10
2055.299959594453
 20
63.000021866407
 30
0.0
 11
2079.699959594453
 21
63.00002186641086
 31
0.0
  0
LINE
  5
C31
330
2
100
AcDbEntity
  8
0
  6
Continuous
 62
     9
100
AcDbLine
 10
2056.999959594456
 20
27.50002186640973
 30
0.0
 11
2061.548692845932
 21
27.50002186641086
 31
0.0
  0
LINE
  5
C32
330
2
100
AcDbEntity
  8
0
  6
Continuous
 62
     7
100
AcDbLine
 10
2081.499959594456
 20
27.00002186641268
 30
0.0
 11
2061.866743515873
 21
27.00002186641086
 31
0.0
  0
LINE
  5
C33
330
2
100
AcDbEntity
  8
0
  6
Continuous
 62
     9
100
AcDbLine
 10
2061.548692845932
 20
27.50002186641086
 30
0.0
 11
2081.999959594457
 21
27.50002186641359
 31
0.0
  0
LINE
  5
C34
330
2
100
AcDbEntity
  8
0
  6
Continuous
 62
     7
100
AcDbLine
 10
2061.866743515873
 20
27.00002186641086
 30
0.0
 11
2057.499959594457
 21
27.00002186640972
 31
0.0
  0
LINE
  5
C35
330
2
100
AcDbEntity
  8
0
  6
Continuous
 62
     7
100
AcDbLine
 10
2081.999959594457
 20
28.19928661204563
 30
0.0
 11
2056.999959594456
 21
28.1992866120429
 31
0.0
  0
LINE
  5
C36
330
2
100
AcDbEntity
  8
0
  6
Continuous
 62
     7
100
AcDbLine
 10
2056.999959594456
 20
41.80075712077768
 30
0.0
 11
2061.548692845931
 21
41.80075712077882
 31
0.0
  0
LINE
  5
C37
330
2
100
AcDbEntity
  8
0
  6
Continuous
 62
     7
100
AcDbLine
 10
2061.548692845931
 20
41.80075712077882
 30
0.0
 11
2081.999959594456
 21
41.80075712078109
 31
0.0
  0
LINE
  5
C38
330
2
100
AcDbEntity
  8
0
  6
Continuous
 62
     9
100
AcDbLine
 10
2081.999959594456
 20
42.50002186641359
 30
0.0
 11
2056.999959594456
 21
42.50002186640972
 31
0.0
  0
LINE
  5
C39
330
2
100
AcDbEntity
  8
0
  6
Continuous
 62
     7
100
AcDbLine
 10
2057.499959594454
 20
43.00002186640973
 30
0.0
 11
2081.499959594454
 21
43.00002186641267
 31
0.0
  0
LINE
  5
C3A
330
2
100
AcDbEntity
  8
0
  6
Continuous
 62
     7
100
AcDbLine
 10
2081.999959594454
 20
47.00002186641358
 30
0.0
 11
2056.999959594454
 21
47.00002186640972
 31
0.0
  0
LINE
  5
C3B
330
2
100
AcDbEntity
  8
0
  6
Continuous
 62
     7
100
AcDbLine
 10
2081.999959594456
 20
43.50002186641359
 30
0.0
 11
2056.999959594456
 21
43.50002186640972
 31
0.0
  0
LINE
  5
C3C
330
2
100
AcDbEntity
  8
0
  6
Continuous
 62
     9
100
AcDbLine
 10
2075.499959594454
 20
43.00002186641177
 30
0.0
 11
2074.67770941923
 21
43.00002186641177
 31
0.0
  0
LINE
  5
C3D
330
2
100
AcDbEntity
  8
0
  6
Continuous
 62
     9
100
AcDbLine
 10
2074.67770941923
 20
43.00002186641177
 30
0.0
 11
2072.737027793823
 21
43.00002186641177
 31
0.0
  0
LINE
  5
C3E
330
2
100
AcDbEntity
  8
0
  6
Continuous
 62
     9
100
AcDbLine
 10
2066.201481048782
 20
43.00002186641177
 30
0.0
 11
2065.343351491042
 21
43.00002186641177
 31
0.0
  0
LINE
  5
C3F
330
2
100
AcDbEntity
  8
0
  6
Continuous
 62
     9
100
AcDbLine
 10
2065.343351491042
 20
43.00002186641177
 30
0.0
 11
2063.499959594453
 21
43.00002186641177
 31
0.0
  0
LINE
  5
C40
330
2
100
AcDbEntity
  8
0
  6
Continuous
 62
     7
100
AcDbLine
 10
1636.999959594919
 20
47.00002186730375
 30
0.0
 11
1631.499959594454
 21
47.00002186730285
 31
0.0
  0
LINE
  5
C41
330
2
100
AcDbEntity
  8
0
  6
Continuous
 62
     7
100
AcDbLine
 10
1623.499959594453
 20
47.00002186730171
 30
0.0
 11
1617.999959594926
 21
47.0000218673008
 31
0.0
  0
LINE
  5
C42
330
2
100
AcDbEntity
  8
0
  6
Continuous
 62
     7
100
AcDbLine
 10
1617.499959594992
 20
47.00002186666779
 30
0.0
 11
1623.499959594453
 21
47.00002186704773
 31
0.0
  0
LINE
  5
C43
330
2
100
AcDbEntity
  8
0
  6
Continuous
 62
     7
100
AcDbLine
 10
1631.499959594454
 20
47.00002186755591
 30
0.0
 11
1637.499959594986
 21
47.00002186793676
 31
0.0
  0
LINE
  5
C44
330
2
100
AcDbEntity
  8
0
  6
Continuous
 62
     7
100
AcDbLine
 10
1613.499959594455
 20
57.00002186634378
 30
0.0
 11
1616.371296326595
 21
57.0000218663447
 31
0.0
  0
LINE
  5
C45
330
2
100
AcDbEntity
  8
0
  6
Continuous
 62
     7
100
AcDbLine
 10
1616.371296326595
 20
57.0000218663447
 30
0.0
 11
1617.884783035008
 21
57.00002186634583
 31
0.0
  0
LINE
  5
C46
330
2
100
AcDbEntity
  8
0
  6
Continuous
 62
     7
100
AcDbLine
 10
1617.884783035008
 20
57.00002186634583
 30
0.0
 11
1618.148890883847
 21
57.00002186634583
 31
0.0
  0
LINE
  5
C47
330
2
100
AcDbEntity
  8
0
  6
Continuous
 62
     7
100
AcDbLine
 10
1618.148890883847
 20
57.00002186634583
 30
0.0
 11
1619.531381874436
 21
57.00002186634583
 31
0.0
  0
LINE
  5
C48
330
2
100
AcDbEntity
  8
0
  6
Continuous
 62
     7
100
AcDbLine
 10
1619.531381874436
 20
57.00002186634583
 30
0.0
 11
1623.62274601383
 21
57.00002186634583
 31
0.0
  0
LINE
  5
C49
330
2
100
AcDbEntity
  8
0
  6
Continuous
 62
     7
100
AcDbLine
 10
1627.377173174797
 20
57.00002186634674
 30
0.0
 11
1632.872042558978
 21
57.00002186634674
 31
0.0
  0
LINE
  5
C4A
330
2
100
AcDbEntity
  8
0
  6
Continuous
 62
     7
100
AcDbLine
 10
1632.872042558978
 20
57.00002186634674
 30
0.0
 11
1633.630942551754
 21
57.00002186634765
 31
0.0
  0
LINE
  5
C4B
330
2
100
AcDbEntity
  8
0
  6
Continuous
 62
     7
100
AcDbLine
 10
1633.630942551754
 20
57.00002186634765
 30
0.0
 11
1634.570370544897
 21
57.00002186634765
 31
0.0
  0
LINE
  5
C4C
330
2
100
AcDbEntity
  8
0
  6
Continuous
 62
     7
100
AcDbLine
 10
1634.570370544897
 20
57.00002186634765
 30
0.0
 11
1637.499959594448
 21
57.00002186634765
 31
0.0
  0
LINE
  5
C4D
330
2
100
AcDbEntity
  8
0
  6
Continuous
 62
     7
100
AcDbLine
 10
1614.999959594463
 20
25.53592025121475
 30
0.0
 11
1639.999959594453
 21
25.53592025121884
 31
0.0
  0
LINE
  5
C4E
330
2
100
AcDbEntity
  8
0
  6
Continuous
 62
     7
100
AcDbLine
 10
1614.999959594463
 20
26.50002186635288
 30
0.0
 11
1639.999959594453
 21
26.50002186635561
 31
0.0
  0
LINE
  5
C4F
330
2
100
AcDbEntity
  8
0
  6
Continuous
 62
     7
100
AcDbLine
 10
1616.999959594461
 20
25.00002186635288
 30
0.0
 11
1637.999959594452
 21
25.00002186635561
 31
0.0
  0
LINE
  5
C50
330
2
100
AcDbEntity
  8
0
  6
Continuous
 62
     7
100
AcDbLine
 10
1613.299959594455
 20
63.00002186634287
 30
0.0
 11
1637.699959594449
 21
63.00002186634674
 31
0.0
  0
LINE
  5
C51
330
2
100
AcDbEntity
  8
0
  6
Continuous
 62
     7
100
AcDbLine
 10
1637.999959594444
 20
62.70002186634679
 30
0.0
 11
1612.999959594453
 21
62.70002186634292
 31
0.0
  0
LINE
  5
C52
330
2
100
AcDbEntity
  8
0
  6
Continuous
 62
     7
100
AcDbLine
 10
1637.999959594448
 20
57.00002186634765
 30
0.0
 11
1612.999959594457
 21
57.00002186634378
 31
0.0
  0
LINE
  5
C53
330
2
100
AcDbEntity
  8
0
  6
Continuous
 62
     9
100
AcDbLine
 10
1639.99995959445
 20
42.50002186635287
 30
0.0
 11
1614.999959594455
 21
42.50002186634993
 31
0.0
  0
LINE
  5
C54
330
2
100
AcDbEntity
  8
0
  6
Continuous
 62
     7
100
AcDbLine
 10
1615.499959594459
 20
43.00002186634992
 30
0.0
 11
1639.499959594452
 21
43.00002186635288
 31
0.0
  0
LINE
  5
C55
330
2
100
AcDbEntity
  8
0
  6
Continuous
 62
     7
100
AcDbLine
 10
1614.999959594455
 20
41.80075712071789
 30
0.0
 11
1619.548692846037
 21
41.80075712071789
 31
0.0
  0
LINE
  5
C56
330
2
100
AcDbEntity
  8
0
  6
Continuous
 62
     7
100
AcDbLine
 10
1619.548692846037
 20
41.80075712071789
 30
0.0
 11
1639.99995959445
 21
41.80075712072175
 31
0.0
  0
LINE
  5
C57
330
2
100
AcDbEntity
  8
0
  6
Continuous
 62
     7
100
AcDbLine
 10
1639.999959594452
 20
28.19928661198765
 30
0.0
 11
1614.999959594459
 21
28.19928661198492
 31
0.0
  0
LINE
  5
C58
330
2
100
AcDbEntity
  8
0
  6
Continuous
 62
     9
100
AcDbLine
 10
1614.999959594459
 20
27.50002186635175
 30
0.0
 11
1619.548692846041
 21
27.50002186635288
 31
0.0
  0
LINE
  5
C59
330
2
100
AcDbEntity
  8
0
  6
Continuous
 62
     9
100
AcDbLine
 10
1619.548692846041
 20
27.50002186635288
 30
0.0
 11
1639.999959594452
 21
27.50002186635561
 31
0.0
  0
LINE
  5
C5A
330
2
100
AcDbEntity
  8
0
  6
Continuous
 62
     7
100
AcDbLine
 10
1639.499959594452
 20
27.00002186635561
 30
0.0
 11
1619.866743515979
 21
27.00002186635288
 31
0.0
  0
LINE
  5
C5B
330
2
100
AcDbEntity
  8
0
  6
Continuous
 62
     7
100
AcDbLine
 10
1619.866743515979
 20
27.00002186635288
 30
0.0
 11
1615.499959594463
 21
27.00002186635288
 31
0.0
  0
LINE
  5
C5C
330
2
100
AcDbEntity
  8
0
  6
Continuous
 62
     7
100
AcDbLine
 10
1639.99995959445
 20
47.00002186635288
 30
0.0
 11
1614.999959594455
 21
47.00002186634856
 31
0.0
  0
LINE
  5
C5D
330
2
100
AcDbEntity
  8
0
  6
Continuous
 62
     7
100
AcDbLine
 10
1639.99995959445
 20
43.50002186635288
 30
0.0
 11
1614.999959594455
 21
43.50002186634992
 31
0.0
  0
LINE
  5
C5E
330
2
100
AcDbEntity
  8
0
  6
Continuous
 62
     9
100
AcDbLine
 10
1633.499959594452
 20
43.00002186635174
 30
0.0
 11
1632.67770941926
 21
43.00002186635174
 31
0.0
  0
LINE
  5
C5F
330
2
100
AcDbEntity
  8
0
  6
Continuous
 62
     9
100
AcDbLine
 10
1632.67770941926
 20
43.00002186635174
 30
0.0
 11
1632.139707877224
 21
43.00002186635174
 31
0.0
  0
LINE
  5
C60
330
2
100
AcDbEntity
  8
0
  6
Continuous
 62
     9
100
AcDbLine
 10
1632.139707877224
 20
43.00002186635174
 30
0.0
 11
1630.996985946374
 21
43.00002186635174
 31
0.0
  0
LINE
  5
C61
330
2
100
AcDbEntity
  8
0
  6
Continuous
 62
     9
100
AcDbLine
 10
1623.943694233088
 20
43.00002186635083
 30
0.0
 11
1621.499959594457
 21
43.00002186635083
 31
0.0
  0
LINE
  5
C62
330
2
100
AcDbEntity
  8
0
  6
Continuous
 62
     4
100
AcDbLine
 10
1559.499959594173
 20
14.00002186754977
 30
0.0
 11
1567.499959594173
 21
14.00002186754977
 31
0.0
  0
LINE
  5
C63
330
2
100
AcDbEntity
  8
0
  6
Continuous
 62
     4
100
AcDbLine
 10
1559.499959594173
 20
800.00002186755
 30
0.0
 11
1559.499959594173
 21
14.00002186754977
 31
0.0
  0
LINE
  5
C64
330
2
100
AcDbEntity
  8
0
  6
Continuous
 62
     4
100
AcDbLine
 10
1567.499959594173
 20
800.00002186755
 30
0.0
 11
1559.499959594173
 21
800.00002186755
 31
0.0
  0
LINE
  5
C65
330
2
100
AcDbEntity
  8
0
  6
Continuous
 62
     4
100
AcDbLine
 10
1567.499959594173
 20
14.00002186754977
 30
0.0
 11
1567.499959594173
 21
800.00002186755
 31
0.0
  0
LINE
  5
C66
330
2
100
AcDbEntity
  8
0
  6
Continuous
 62
     7
100
AcDbLine
 10
1568.499959594595
 20
44.50002181768673
 30
0.0
 11
1569.499959594157
 21
43.50002181812692
 31
0.0
  0
LINE
  5
C67
330
2
100
AcDbEntity
  8
0
  6
Continuous
 62
     7
100
AcDbLine
 10
1569.499959593873
 20
44.50002181768787
 30
0.0
 11
1568.499959594595
 21
44.50002181768673
 31
0.0
  0
LINE
  5
C68
330
2
100
AcDbEntity
  8
0
  6
Continuous
 62
     9
100
AcDbLine
 10
1608.499959594421
 20
24.50002181759601
 30
0.0
 11
1575.499959594472
 21
24.50002181756577
 31
0.0
  0
LINE
  5
C69
330
2
100
AcDbEntity
  8
0
  6
Continuous
 62
     7
100
AcDbLine
 10
1608.499959594421
 20
24.50002181759601
 30
0.0
 11
1608.499959594421
 21
25.4000218658739
 31
0.0
  0
LINE
  5
C6A
330
2
100
AcDbEntity
  8
0
  6
Continuous
 62
     7
100
AcDbLine
 10
1608.499959594615
 20
22.50002181772379
 30
0.0
 11
1568.499959594615
 21
22.50002181768786
 31
0.0
  0
LINE
  5
C6B
330
2
100
AcDbEntity
  8
0
  6
Continuous
 62
     7
100
AcDbLine
 10
1569.499959595365
 20
23.50002181843888
 30
0.0
 11
1568.499959594615
 21
22.50002181768786
 31
0.0
  0
LINE
  5
C6C
330
2
100
AcDbEntity
  8
0
  6
Continuous
 62
     7
100
AcDbLine
 10
1608.499959594615
 20
22.50002181772379
 30
0.0
 11
1608.499959594615
 21
24.50002181759601
 31
0.0
  0
LINE
  5
C6D
330
2
100
AcDbEntity
  8
0
  6
Continuous
 62
     7
100
AcDbLine
 10
1568.767908786949
 20
23.50002181762375
 30
0.0
 11
1568.767908786949
 21
23.75002181762284
 31
0.0
  0
LINE
  5
C6E
330
2
100
AcDbEntity
  8
0
  6
Continuous
 62
     7
100
AcDbLine
 10
1568.767908786949
 20
23.75002181768673
 30
0.0
 11
1568.499959594614
 21
23.75002181768673
 31
0.0
  0
LINE
  5
C6F
330
2
100
AcDbEntity
  8
0
  6
Continuous
 62
     7
100
AcDbLine
 10
1568.499959594614
 20
23.75002181768673
 30
0.0
 11
1568.499959594608
 21
31.40002186980701
 31
0.0
  0
LINE
  5
C70
330
2
100
AcDbEntity
  8
0
  6
Continuous
 62
     7
100
AcDbLine
 10
1568.499959594601
 20
39.40002186980701
 30
0.0
 11
1568.499959594597
 21
43.25002181768787
 31
0.0
  0
LINE
  5
C71
330
2
100
AcDbEntity
  8
0
  6
Continuous
 62
     7
100
AcDbLine
 10
1568.499959594597
 20
43.25002181768787
 30
0.0
 11
1568.767908786929
 21
43.25002181768787
 31
0.0
  0
LINE
  5
C72
330
2
100
AcDbEntity
  8
0
  6
Continuous
 62
     7
100
AcDbLine
 10
1568.767908786929
 20
43.25002181762374
 30
0.0
 11
1568.767908786929
 21
43.50002181762284
 31
0.0
  0
LINE
  5
C73
330
2
100
AcDbEntity
  8
0
  6
Continuous
 62
     7
100
AcDbLine
 10
1568.767908786929
 20
43.50002181768672
 30
0.0
 11
1568.499959594597
 21
43.50002181768672
 31
0.0
  0
LINE
  5
C74
330
2
100
AcDbEntity
  8
0
  6
Continuous
 62
     7
100
AcDbLine
 10
1568.499959594597
 20
43.50002181768672
 30
0.0
 11
1568.499959594595
 21
44.50002181768673
 31
0.0
  0
LINE
  5
C75
330
2
100
AcDbEntity
  8
0
  6
Continuous
 62
     7
100
AcDbLine
 10
1568.499959594615
 20
22.50002181768786
 30
0.0
 11
1568.499959594614
 21
23.50002181768673
 31
0.0
  0
LINE
  5
C76
330
2
100
AcDbEntity
  8
0
  6
Continuous
 62
     7
100
AcDbLine
 10
1568.499959594614
 20
23.50002181768673
 30
0.0
 11
1568.767908786949
 21
23.50002181768673
 31
0.0
  0
LINE
  5
C77
330
2
100
AcDbEntity
  8
0
  6
Continuous
 62
     7
100
AcDbLine
 10
1574.299959662261
 20
57.10755313277082
 30
0.0
 11
1574.299960733811
 21
46.89249205447277
 31
0.0
  0
ARC
  5
C78
330
2
100
AcDbEntity
  8
0
  6
Continuous
 62
     7
100
AcDbCircle
 10
1572.319839046322
 20
54.21267127744659
 30
0.0
 40
3.507309311987233
100
AcDbArc
 50
55.62758316847385
 51
167.1798631684872
  0
LINE
  5
C79
330
2
100
AcDbEntity
  8
0
  6
Continuous
 62
     7
100
AcDbLine
 10
1568.899961188044
 20
49.00913233877964
 30
0.0
 11
1568.899961940118
 21
54.99091236376989
 31
0.0
  0
ARC
  5
C7A
330
2
100
AcDbEntity
  8
0
  6
Continuous
 62
     7
100
AcDbCircle
 10
1572.319839041212
 20
49.78737428767363
 30
0.0
 40
3.507310231730075
100
AcDbArc
 50
192.8201478636375
 51
304.3724278636393
  0
ARC
  5
C7B
330
2
100
AcDbEntity
  8
0
  6
Continuous
 62
     7
100
AcDbCircle
 10
1575.94995959448
 20
55.95002192595598
 30
0.0
 40
0.4500000000002843
100
AcDbArc
 50
89.99999664493637
 51
173.6206373010364
  0
ARC
  5
C7C
330
2
100
AcDbEntity
  8
0
  6
Continuous
 62
     7
100
AcDbCircle
 10
1575.94995959448
 20
55.95002192595598
 30
0.0
 40
0.4500000000013792
100
AcDbArc
 50
173.6206373010364
 51
179.9999966449624
  0
LINE
  5
C7D
330
2
100
AcDbEntity
  8
0
  6
Continuous
 62
     7
100
AcDbLine
 10
1575.499959594479
 20
55.950021952307
 30
0.0
 11
1575.499959594454
 21
55.94963718735562
 31
0.0
  0
LINE
  5
C7E
330
2
100
AcDbEntity
  8
0
  6
Continuous
 62
     7
100
AcDbLine
 10
1575.499959594454
 20
55.94963718735562
 30
0.0
 11
1575.499959131883
 21
48.0500239523069
 31
0.0
  0
ARC
  5
C7F
330
2
100
AcDbEntity
  8
0
  6
Continuous
 62
     7
100
AcDbCircle
 10
1575.949959131883
 20
48.05002392595679
 30
0.0
 40
0.4500000000007284
100
AcDbArc
 50
179.9999966449494
 51
186.3796339524833
  0
ARC
  5
C80
330
2
100
AcDbEntity
  8
0
  6
Continuous
 62
     7
100
AcDbCircle
 10
1575.949959131883
 20
48.05002392595679
 30
0.0
 40
0.4500000000003463
100
AcDbArc
 50
186.3796339524703
 51
269.9999966449364
  0
LINE
  5
C81
330
2
100
AcDbEntity
  8
0
  6
Continuous
 62
     7
100
AcDbLine
 10
1575.949959105534
 20
47.60002392595675
 30
0.0
 11
1576.04995910553
 21
47.60002392010074
 31
0.0
  0
ARC
  5
C82
330
2
100
AcDbEntity
  8
0
  6
Continuous
 62
     7
100
AcDbCircle
 10
1576.049959131884
 20
48.05002392010078
 30
0.0
 40
0.4499999999998403
100
AcDbArc
 50
269.9999966449364
 51
353.6203667977568
  0
ARC
  5
C83
330
2
100
AcDbEntity
  8
0
  6
Continuous
 62
     7
100
AcDbCircle
 10
1576.049959131884
 20
48.05002392010078
 30
0.0
 40
0.4499999999993309
100
AcDbArc
 50
353.620366797744
 51
359.9999966449494
  0
LINE
  5
C84
330
2
100
AcDbEntity
  8
0
  6
Continuous
 62
     7
100
AcDbLine
 10
1576.499959131881
 20
48.05002389374976
 30
0.0
 11
1576.499959161159
 21
48.55002389374977
 31
0.0
  0
ARC
  5
C85
330
2
100
AcDbEntity
  8
0
  6
Continuous
 62
     7
100
AcDbCircle
 10
1576.949958161158
 20
48.55002286739978
 30
0.0
 40
0.449999000000039
100
AcDbArc
 50
89.99986932073035
 51
179.9998693207303
  0
LINE
  5
C86
330
2
100
AcDbEntity
  8
0
  6
Continuous
 62
     7
100
AcDbLine
 10
1576.94995918751
 20
49.00002186739971
 30
0.0
 11
1577.04995918751
 21
49.00002386154369
 31
0.0
  0
ARC
  5
C87
330
2
100
AcDbEntity
  8
0
  6
Continuous
 62
     7
100
AcDbCircle
 10
1577.049959161161
 20
48.55002386154365
 30
0.0
 40
0.4500000000002843
100
AcDbArc
 50
359.9999966449624
 51
89.99999664493637
  0
LINE
  5
C88
330
2
100
AcDbEntity
  8
0
  6
Continuous
 62
     7
100
AcDbLine
 10
1577.499959161161
 20
48.55002383519376
 30
0.0
 11
1577.499959128954
 21
48.00002383519381
 31
0.0
  0
LINE
  5
C89
330
2
100
AcDbEntity
  8
0
  6
Continuous
 62
     7
100
AcDbLine
 10
1577.499959128954
 20
48.00002383519381
 30
0.0
 11
1581.199959128955
 21
48.0000236185349
 31
0.0
  0
LINE
  5
C8A
330
2
100
AcDbEntity
  8
0
  6
Continuous
 62
     7
100
AcDbLine
 10
1581.199959128955
 20
48.0000236185349
 30
0.0
 11
1581.199959093821
 21
47.40002361853362
 31
0.0
  0
LINE
  5
C8B
330
2
100
AcDbEntity
  8
0
  6
Continuous
 62
     7
100
AcDbLine
 10
1581.199959093821
 20
47.40002361853362
 30
0.0
 11
1584.735308263718
 21
47.40002320057988
 31
0.0
  0
ARC
  5
C8C
330
2
100
AcDbEntity
  8
0
  6
Continuous
 62
     7
100
AcDbCircle
 10
1584.499958772803
 20
47.31570361259059
 30
0.0
 40
0.2499983515809095
100
AcDbArc
 50
19.71127840082556
 51
84.71062540080165
  0
LINE
  5
C8D
330
2
100
AcDbEntity
  8
0
  6
Continuous
 62
     7
100
AcDbLine
 10
1584.523005103459
 20
47.56463742394771
 30
0.0
 11
1582.549631114158
 21
47.74733753950181
 31
0.0
  0
LINE
  5
C8E
330
2
100
AcDbEntity
  8
0
  6
Continuous
 62
     7
100
AcDbLine
 10
1582.549631114158
 20
47.74733753950181
 30
0.0
 11
1582.572679128736
 21
47.99627153815186
 31
0.0
  0
LINE
  5
C8F
330
2
100
AcDbEntity
  8
0
  6
Continuous
 62
     7
100
AcDbLine
 10
1582.572679128736
 20
47.99627153815186
 30
0.0
 11
1584.546050834056
 21
47.81357425860278
 31
0.0
  0
ARC
  5
C90
330
2
100
AcDbEntity
  8
0
  6
Continuous
 62
     7
100
AcDbCircle
 10
1584.499956778891
 20
47.31570411007578
 30
0.0
 40
0.4999993467149972
100
AcDbArc
 50
9.708685039783334
 51
84.71049303982224
  0
LINE
  5
C91
330
2
100
AcDbEntity
  8
0
  6
Continuous
 62
     7
100
AcDbLine
 10
1584.992795093823
 20
47.40002339643865
 30
0.0
 11
1585.699957093822
 21
47.40002335502959
 31
0.0
  0
LINE
  5
C92
330
2
100
AcDbEntity
  8
0
  6
Continuous
 62
     7
100
AcDbLine
 10
1585.699957093822
 20
47.40002335502959
 30
0.0
 11
1585.699957128956
 21
48.00002335502973
 31
0.0
  0
LINE
  5
C93
330
2
100
AcDbEntity
  8
0
  6
Continuous
 62
     7
100
AcDbLine
 10
1585.699957128956
 20
48.00002335502973
 30
0.0
 11
1587.499957128957
 21
48.0000232496277
 31
0.0
  0
LINE
  5
C94
330
2
100
AcDbEntity
  8
0
  6
Continuous
 62
     7
100
AcDbLine
 10
1587.499957128957
 20
48.0000232496277
 30
0.0
 11
1587.499957082111
 21
47.20002324962774
 31
0.0
  0
ARC
  5
C95
330
2
100
AcDbEntity
  8
0
  6
Continuous
 62
     7
100
AcDbCircle
 10
1586.69995708211
 20
47.20002329647286
 30
0.0
 40
0.7999999999999135
100
AcDbArc
 50
269.9999966449364
 51
359.9999966449624
  0
LINE
  5
C96
330
2
100
AcDbEntity
  8
0
  6
Continuous
 62
     7
100
AcDbLine
 10
1586.699957035265
 20
46.4000232964729
 30
0.0
 11
1574.29995950231
 21
46.4000234653397
 31
0.0
  0
ARC
  5
C97
330
2
100
AcDbEntity
  8
0
  6
Continuous
 62
     7
100
AcDbCircle
 10
1572.343763265026
 20
49.8026334417359
 30
0.0
 40
3.924851381931116
100
AcDbArc
 50
191.664090318299
 51
299.8950483183281
  0
LINE
  5
C98
330
2
100
AcDbEntity
  8
0
  6
Continuous
 62
     7
100
AcDbLine
 10
1568.499961188043
 20
49.00913236220276
 30
0.0
 11
1568.499960837767
 21
54.99091147825175
 31
0.0
  0
ARC
  5
C99
330
2
100
AcDbEntity
  8
0
  6
Continuous
 62
     7
100
AcDbCircle
 10
1572.343763056757
 20
54.19741002745286
 30
0.0
 40
3.924851596061053
100
AcDbArc
 50
60.10494679293405
 51
168.3359047928909
  0
LINE
  5
C9A
330
2
100
AcDbEntity
  8
0
  6
Continuous
 62
     7
100
AcDbLine
 10
1574.299959691098
 20
57.60002002257488
 30
0.0
 11
1586.699957691098
 21
57.60001929647273
 31
0.0
  0
ARC
  5
C9B
330
2
100
AcDbEntity
  8
0
  6
Continuous
 62
     7
100
AcDbCircle
 10
1586.699957644256
 20
56.80001929647279
 30
0.0
 40
0.7999999999999135
100
AcDbArc
 50
359.9999966448973
 51
89.99999664493637
  0
LINE
  5
C9C
330
2
100
AcDbEntity
  8
0
  6
Continuous
 62
     7
100
AcDbLine
 10
1587.499957644257
 20
56.80001924962766
 30
0.0
 11
1587.499957597409
 21
56.0000212496268
 31
0.0
  0
LINE
  5
C9D
330
2
100
AcDbEntity
  8
0
  6
Continuous
 62
     7
100
AcDbLine
 10
1587.499957597409
 20
56.0000212496268
 30
0.0
 11
1585.69995759741
 21
56.00002135502882
 31
0.0
  0
LINE
  5
C9E
330
2
100
AcDbEntity
  8
0
  6
Continuous
 62
     7
100
AcDbLine
 10
1585.69995759741
 20
56.00002135502882
 30
0.0
 11
1585.699957632541
 21
56.60001935502965
 31
0.0
  0
LINE
  5
C9F
330
2
100
AcDbEntity
  8
0
  6
Continuous
 62
     7
100
AcDbLine
 10
1585.699957632541
 20
56.60001935502965
 30
0.0
 11
1584.992796523762
 21
56.60001960457179
 31
0.0
  0
ARC
  5
CA0
330
2
100
AcDbEntity
  8
0
  6
Continuous
 62
     7
100
AcDbCircle
 10
1584.499958324204
 20
56.68433965825875
 30
0.0
 40
0.4999993623961477
100
AcDbArc
 50
275.2894180610676
 51
350.2912260610922
  0
LINE
  5
CA1
330
2
100
AcDbEntity
  8
0
  6
Continuous
 62
     7
100
AcDbLine
 10
1584.546051608328
 20
56.18646942259784
 30
0.0
 11
1582.572679597626
 21
56.00377153815293
 31
0.0
  0
LINE
  5
CA2
330
2
100
AcDbEntity
  8
0
  6
Continuous
 62
     7
100
AcDbLine
 10
1582.572679597626
 20
56.00377153815293
 30
0.0
 11
1582.549631612204
 21
56.25270753950167
 31
0.0
  0
LINE
  5
CA3
330
2
100
AcDbEntity
  8
0
  6
Continuous
 62
     7
100
AcDbLine
 10
1582.549631612204
 20
56.25270753950167
 30
0.0
 11
1584.523004480912
 21
56.43540400594588
 31
0.0
  0
ARC
  5
CA4
330
2
100
AcDbEntity
  8
0
  6
Continuous
 62
     7
100
AcDbCircle
 10
1584.499958218084
 20
56.68433997133774
 30
0.0
 40
0.2500004901915014
100
AcDbArc
 50
275.2893136103678
 51
340.2886606104058
  0
LINE
  5
CA5
330
2
100
AcDbEntity
  8
0
  6
Continuous
 62
     7
100
AcDbLine
 10
1584.735309632542
 20
56.60001941151586
 30
0.0
 11
1581.19995963254
 21
56.60001961853367
 31
0.0
  0
LINE
  5
CA6
330
2
100
AcDbEntity
  8
0
  6
Continuous
 62
     7
100
AcDbLine
 10
1581.19995963254
 20
56.60001961853367
 30
0.0
 11
1581.199959597408
 21
56.00002161853376
 31
0.0
  0
LINE
  5
CA7
330
2
100
AcDbEntity
  8
0
  6
Continuous
 62
     7
100
AcDbLine
 10
1581.199959597408
 20
56.00002161853376
 30
0.0
 11
1577.499959597408
 21
56.00002183519382
 31
0.0
  0
LINE
  5
CA8
330
2
100
AcDbEntity
  8
0
  6
Continuous
 62
     7
100
AcDbLine
 10
1577.499959597408
 20
56.00002183519382
 30
0.0
 11
1577.499959565202
 21
55.45002183519386
 31
0.0
  0
ARC
  5
CA9
330
2
100
AcDbEntity
  8
0
  6
Continuous
 62
     7
100
AcDbCircle
 10
1577.049959565202
 20
55.45002186154374
 30
0.0
 40
0.4499999999989522
100
AcDbArc
 50
269.9999966449364
 51
359.9999966449494
  0
LINE
  5
CAA
330
2
100
AcDbEntity
  8
0
  6
Continuous
 62
     7
100
AcDbLine
 10
1577.04995953885
 20
55.0000218615437
 30
0.0
 11
1576.949959538851
 21
55.00002186739971
 31
0.0
  0
ARC
  5
CAB
330
2
100
AcDbEntity
  8
0
  6
Continuous
 62
     7
100
AcDbCircle
 10
1576.949959565201
 20
55.45002186739975
 30
0.0
 40
0.4500000000002843
100
AcDbArc
 50
179.9999966449494
 51
269.9999966449364
  0
LINE
  5
CAC
330
2
100
AcDbEntity
  8
0
  6
Continuous
 62
     7
100
AcDbLine
 10
1576.499959565202
 20
55.45002189375077
 30
0.0
 11
1576.499959594479
 21
55.95002189374986
 31
0.0
  0
ARC
  5
CAD
330
2
100
AcDbEntity
  8
0
  6
Continuous
 62
     7
100
AcDbCircle
 10
1576.04995959448
 20
55.95002192010088
 30
0.0
 40
0.4499999999989522
100
AcDbArc
 50
359.9999966449494
 51
6.379363449203698
  0
ARC
  5
CAE
330
2
100
AcDbEntity
  8
0
  6
Continuous
 62
     7
100
AcDbCircle
 10
1576.04995959448
 20
55.95002192010088
 30
0.0
 40
0.4499999999988116
100
AcDbArc
 50
6.379363449203698
 51
89.99999664493637
  0
LINE
  5
CAF
330
2
100
AcDbEntity
  8
0
  6
Continuous
 62
     7
100
AcDbLine
 10
1576.04995962083
 20
56.4000219201007
 30
0.0
 11
1575.94995962083
 21
56.4000219259567
 31
0.0
  0
LINE
  5
CB0
330
2
100
AcDbEntity
  8
0
  6
Continuous
 62
     9
100
AcDbLine
 10
1596.499959594943
 20
75.00002183455785
 30
0.0
 11
1596.499959594945
 21
56.00002183455877
 31
0.0
  0
LINE
  5
CB1
330
2
100
AcDbEntity
  8
0
  6
Continuous
 62
     7
100
AcDbLine
 10
1595.499959594881
 20
56.00002183450579
 30
0.0
 11
1595.499959594881
 21
75.00002183450579
 31
0.0
  0
LINE
  5
CB2
330
2
100
AcDbEntity
  8
0
  6
Continuous
 62
     9
100
AcDbLine
 10
1596.499959594943
 20
75.00002183450579
 30
0.0
 11
1595.499959594881
 21
75.00002183450579
 31
0.0
  0
LINE
  5
CB3
330
2
100
AcDbEntity
  8
0
  6
Continuous
 62
     9
100
AcDbLine
 10
1614.499959594945
 20
63.00002186618167
 30
0.0
 11
1614.499959594943
 21
75.00002183456081
 31
0.0
  0
LINE
  5
CB4
330
2
100
AcDbEntity
  8
0
  6
Continuous
 62
     9
100
AcDbLine
 10
1614.499959594943
 20
75.00002183456081
 30
0.0
 11
1596.499959594943
 21
75.00002183455785
 31
0.0
  0
ARC
  5
CB5
330
2
100
AcDbEntity
  8
0
  6
Continuous
 62
     7
100
AcDbCircle
 10
1596.499959594879
 20
75.00002183450579
 30
0.0
 40
0.9999999999998896
100
AcDbArc
 50
90.0
 51
180.0
  0
LINE
  5
CB6
330
2
100
AcDbEntity
  8
0
  6
Continuous
 62
     9
100
AcDbLine
 10
1596.499959594879
 20
75.00002183455785
 30
0.0
 11
1596.499959594879
 21
76.00002183450579
 31
0.0
  0
LINE
  5
CB7
330
2
100
AcDbEntity
  8
0
  6
Continuous
 62
     7
100
AcDbLine
 10
1596.499959594879
 20
76.00002183450579
 30
0.0
 11
1614.499959594881
 21
76.00002183450874
 31
0.0
  0
LINE
  5
CB8
330
2
100
AcDbEntity
  8
0
  6
Continuous
 62
     9
100
AcDbLine
 10
1614.499959594881
 20
75.00002183456081
 30
0.0
 11
1614.499959594881
 21
76.00002183450874
 31
0.0
  0
LINE
  5
CB9
330
2
100
AcDbEntity
  8
0
  6
Continuous
 62
     9
100
AcDbLine
 10
1614.499959594943
 20
75.00002183450874
 30
0.0
 11
1615.499959594879
 21
75.00002183450874
 31
0.0
  0
LINE
  5
CBA
330
2
100
AcDbEntity
  8
0
  6
Continuous
 62
     7
100
AcDbLine
 10
1615.499959594879
 20
75.00002183450874
 30
0.0
 11
1615.499959594883
 21
63.00002186612892
 31
0.0
  0
ARC
  5
CBB
330
2
100
AcDbEntity
  8
0
  6
Continuous
 62
     7
100
AcDbCircle
 10
1614.499959594881
 20
75.00002183450874
 30
0.0
 40
0.9999999999994455
100
AcDbArc
 50
0.0000000000130276
 51
90.0
  0
LINE
  5
CBC
330
2
100
AcDbEntity
  8
0
  6
Continuous
 62
     9
100
AcDbLine
 10
1596.499959594314
 20
48.00002183508104
 30
0.0
 11
1596.499959594215
 21
45.4000218658748
 31
0.0
  0
LINE
  5
CBD
330
2
100
AcDbEntity
  8
0
  6
Continuous
 62
     7
100
AcDbLine
 10
1595.499959594215
 20
45.4000218658748
 30
0.0
 11
1595.499959594311
 21
48.00002183504762
 31
0.0
  0
LINE
  5
CBE
330
2
100
AcDbEntity
  8
0
  6
Continuous
 62
     9
100
AcDbLine
 10
1614.499959594215
 20
45.4000218658748
 30
0.0
 11
1614.499959594312
 21
48.00002183441165
 31
0.0
  0
LINE
  5
CBF
330
2
100
AcDbEntity
  8
0
  6
Continuous
 62
     7
100
AcDbLine
 10
1615.499959594313
 20
48.00002183430365
 30
0.0
 11
1615.499959594274
 21
47.00002186624056
 31
0.0
  0
LINE
  5
CC0
330
2
100
AcDbEntity
  8
0
  6
Continuous
 62
     7
100
AcDbLine
 10
2168.499959622239
 20
58.50002184786285
 30
0.0
 11
2167.473265927622
 21
58.50002184844675
 31
0.0
  0
LINE
  5
CC1
330
2
100
AcDbEntity
  8
0
  6
Continuous
 62
     7
100
AcDbLine
 10
2168.499959614848
 20
45.50002184786285
 30
0.0
 11
2168.499959622239
 21
58.50002184786285
 31
0.0
  0
LINE
  5
CC2
330
2
100
AcDbEntity
  8
0
  6
Continuous
 62
     7
100
AcDbLine
 10
2168.499959600067
 20
19.50002184786285
 30
0.0
 11
2168.499959601488
 21
22.00002186754978
 31
0.0
  0
LINE
  5
CC3
330
2
100
AcDbEntity
  8
0
  6
Continuous
 62
     7
100
AcDbLine
 10
2168.499959601488
 20
22.00002186754978
 30
0.0
 11
2168.499959614848
 21
45.50002184786285
 31
0.0
  0
LINE
  5
CC4
330
2
100
AcDbEntity
  8
0
  6
Continuous
 62
     7
100
AcDbLine
 10
2167.999959600067
 20
19.50002184814684
 30
0.0
 11
2168.499959600067
 21
19.50002184786285
 31
0.0
  0
LINE
  5
CC5
330
2
100
AcDbEntity
  8
0
  6
Continuous
 62
     7
100
AcDbLine
 10
2167.499986545013
 20
45.4986214798248
 30
0.0
 11
2167.951882678038
 21
22.00002186754978
 31
0.0
  0
LINE
  5
CC6
330
2
100
AcDbEntity
  8
0
  6
Continuous
 62
     7
100
AcDbLine
 10
2167.951882678038
 20
22.00002186754978
 30
0.0
 11
2167.999959600067
 21
19.50002184814684
 31
0.0
  0
LINE
  5
CC7
330
2
100
AcDbEntity
  8
0
  6
Continuous
 62
     7
100
AcDbLine
 10
2156.461937426383
 20
46.07710112804261
 30
0.0
 11
2167.499986545013
 21
45.4986214798248
 31
0.0
  0
LINE
  5
CC8
330
2
100
AcDbEntity
  8
0
  6
Continuous
 62
     7
100
AcDbLine
 10
2156.493339000467
 20
46.67627884887792
 30
0.0
 11
2156.461937426383
 21
46.07710112804261
 31
0.0
  0
ARC
  5
CC9
330
2
100
AcDbEntity
  8
0
  6
Continuous
 62
     7
100
AcDbCircle
 10
2156.892790814358
 20
46.65534446615265
 30
0.0
 40
0.3999999999997422
100
AcDbArc
 50
86.99999996743306
 51
176.9999999674316
  0
LINE
  5
CCA
330
2
100
AcDbEntity
  8
0
  6
Continuous
 62
     7
100
AcDbLine
 10
2158.01221768528
 20
46.9972267275516
 30
0.0
 11
2156.913725197083
 21
47.05479628004286
 31
0.0
  0
LINE
  5
CCB
330
2
100
AcDbEntity
  8
0
  6
Continuous
 62
     7
100
AcDbLine
 10
2158.001750493917
 20
46.79750082060673
 30
0.0
 11
2158.01221768528
 21
46.9972267275516
 31
0.0
  0
LINE
  5
CCC
330
2
100
AcDbEntity
  8
0
  6
Continuous
 62
     7
100
AcDbLine
 10
2160.997639098092
 20
46.64049295017503
 30
0.0
 11
2158.001750493917
 21
46.79750082060673
 31
0.0
  0
LINE
  5
CCD
330
2
100
AcDbEntity
  8
0
  6
Continuous
 62
     7
100
AcDbLine
 10
2161.008106289454
 20
46.84021885711899
 30
0.0
 11
2160.997639098092
 21
46.64049295017503
 31
0.0
  0
LINE
  5
CCE
330
2
100
AcDbEntity
  8
0
  6
Continuous
 62
     7
100
AcDbLine
 10
2164.003994893628
 20
46.68321098668684
 30
0.0
 11
2161.008106289454
 21
46.84021885711899
 31
0.0
  0
LINE
  5
CCF
330
2
100
AcDbEntity
  8
0
  6
Continuous
 62
     7
100
AcDbLine
 10
2164.00882143548
 20
47.0574158268787
 30
0.0
 11
2164.003994893628
 21
46.68321098668684
 31
0.0
  0
ARC
  5
CD0
330
2
100
AcDbEntity
  8
0
  6
Continuous
 62
     7
100
AcDbCircle
 10
2164.408680303373
 20
47.06804059827891
 30
0.0
 40
0.3999999999997422
100
AcDbArc
 50
86.99999996743306
 51
181.5220654132436
  0
LINE
  5
CD1
330
2
100
AcDbEntity
  8
0
  6
Continuous
 62
     7
100
AcDbLine
 10
2164.629340593043
 20
47.4570252208066
 30
0.0
 11
2164.429614686098
 21
47.46749241216867
 31
0.0
  0
ARC
  5
CD2
330
2
100
AcDbEntity
  8
0
  6
Continuous
 62
     7
100
AcDbCircle
 10
2164.608406210318
 20
47.05757340691684
 30
0.0
 40
0.3999999999999982
100
AcDbArc
 50
1.522065413048312
 51
86.99999996743306
  0
LINE
  5
CD3
330
2
100
AcDbEntity
  8
0
  6
Continuous
 62
     7
100
AcDbLine
 10
2165.002624428355
 20
46.63087502987673
 30
0.0
 11
2165.008265078212
 21
47.06819817831479
 31
0.0
  0
LINE
  5
CD4
330
2
100
AcDbEntity
  8
0
  6
Continuous
 62
     7
100
AcDbLine
 10
2167.499959615417
 20
46.49999523717383
 30
0.0
 11
2165.002624428355
 21
46.63087502987673
 31
0.0
  0
LINE
  5
CD5
330
2
100
AcDbEntity
  8
0
  6
Continuous
 62
     7
100
AcDbLine
 10
2167.499959621669
 20
57.50004845968874
 30
0.0
 11
2167.499959620817
 21
56.00002186742585
 31
0.0
  0
LINE
  5
CD6
330
2
100
AcDbEntity
  8
0
  6
Continuous
 62
     7
100
AcDbLine
 10
2167.499959620817
 20
56.00002186742585
 30
0.0
 11
2167.499959616269
 21
48.00002186742585
 31
0.0
  0
LINE
  5
CD7
330
2
100
AcDbEntity
  8
0
  6
Continuous
 62
     7
100
AcDbLine
 10
2167.499959616269
 20
48.00002186742585
 30
0.0
 11
2167.499959615417
 21
46.49999523717383
 31
0.0
  0
LINE
  5
CD8
330
2
100
AcDbEntity
  8
0
  6
Continuous
 62
     7
100
AcDbLine
 10
2165.002624434457
 20
57.36916866982574
 30
0.0
 11
2167.499959621669
 21
57.50004845968874
 31
0.0
  0
LINE
  5
CD9
330
2
100
AcDbEntity
  8
0
  6
Continuous
 62
     7
100
AcDbLine
 10
2165.00785802985
 20
56.96340467550271
 30
0.0
 11
2165.002624434457
 21
57.36916866982574
 31
0.0
  0
ARC
  5
CDA
330
2
100
AcDbEntity
  8
0
  6
Continuous
 62
     7
100
AcDbCircle
 10
2164.608406215938
 20
56.94247029323378
 30
0.0
 40
0.399999999999937
100
AcDbArc
 50
272.9999999674446
 51
2.999999967352832
  0
LINE
  5
CDB
330
2
100
AcDbEntity
  8
0
  6
Continuous
 62
     7
100
AcDbLine
 10
2164.429614691251
 20
56.53255128818478
 30
0.0
 11
2164.629340598208
 21
56.54301847931993
 31
0.0
  0
ARC
  5
CDC
330
2
100
AcDbEntity
  8
0
  6
Continuous
 62
     7
100
AcDbCircle
 10
2164.408680308981
 20
56.93200310209886
 30
0.0
 40
0.4000000000004038
100
AcDbArc
 50
182.9999999675219
 51
272.9999999674439
  0
LINE
  5
CDD
330
2
100
AcDbEntity
  8
0
  6
Continuous
 62
     7
100
AcDbLine
 10
2164.003994899674
 20
57.31683271415068
 30
0.0
 11
2164.009228495067
 21
56.91106871982765
 31
0.0
  0
LINE
  5
CDE
330
2
100
AcDbEntity
  8
0
  6
Continuous
 62
     7
100
AcDbLine
 10
2161.008106295321
 20
57.15982484712481
 30
0.0
 11
2164.003994899674
 21
57.31683271415068
 31
0.0
  0
LINE
  5
CDF
330
2
100
AcDbEntity
  8
0
  6
Continuous
 62
     7
100
AcDbLine
 10
2160.997639104186
 20
57.35955075408174
 30
0.0
 11
2161.008106295321
 21
57.15982484712481
 31
0.0
  0
LINE
  5
CE0
330
2
100
AcDbEntity
  8
0
  6
Continuous
 62
     7
100
AcDbLine
 10
2158.001750499833
 20
57.20254288705564
 30
0.0
 11
2160.997639104186
 21
57.35955075408174
 31
0.0
  0
LINE
  5
CE1
330
2
100
AcDbEntity
  8
0
  6
Continuous
 62
     7
100
AcDbLine
 10
2158.012217690967
 20
57.00281698009985
 30
0.0
 11
2158.001750499833
 21
57.20254288705564
 31
0.0
  0
LINE
  5
CE2
330
2
100
AcDbEntity
  8
0
  6
Continuous
 62
     7
100
AcDbLine
 10
2156.913725202703
 20
56.94524742885687
 30
0.0
 11
2158.012217690967
 21
57.00281698009985
 31
0.0
  0
ARC
  5
CE3
330
2
100
AcDbEntity
  8
0
  6
Continuous
 62
     7
100
AcDbCircle
 10
2156.892790820435
 20
57.34469924276982
 30
0.0
 40
0.3999999999994819
100
AcDbArc
 50
182.9999999674308
 51
272.9999999674439
  0
LINE
  5
CE4
330
2
100
AcDbEntity
  8
0
  6
Continuous
 62
     7
100
AcDbLine
 10
2156.461937433115
 20
57.92294258137054
 30
0.0
 11
2156.493339006522
 21
57.32376486049975
 31
0.0
  0
LINE
  5
CE5
330
2
100
AcDbEntity
  8
0
  6
Continuous
 62
     7
100
AcDbLine
 10
2167.473265927622
 20
58.50002184844675
 30
0.0
 11
2156.461937433115
 21
57.92294258137054
 31
0.0
  0
LINE
  5
CE6
330
2
100
AcDbEntity
  8
0
  6
Continuous
 62
     4
100
AcDbLine
 10
1575.499959594454
 20
56.00002186734286
 30
0.0
 11
1575.502745992426
 21
56.00002186734286
 31
0.0
  0
LINE
  5
CE7
330
2
100
AcDbEntity
  8
0
  6
Continuous
 62
     4
100
AcDbLine
 10
1575.502745992426
 20
56.00002186734286
 30
0.0
 11
1576.497173195878
 21
56.00002186734286
 31
0.0
  0
LINE
  5
CE8
330
2
100
AcDbEntity
  8
0
  6
Continuous
 62
     4
100
AcDbLine
 10
1576.497173195878
 20
56.00002186734286
 30
0.0
 11
1577.499959597408
 21
56.00002186734286
 31
0.0
  0
LINE
  5
CE9
330
2
100
AcDbEntity
  8
0
  6
Continuous
 62
     4
100
AcDbLine
 10
1577.499959597408
 20
56.00002186734286
 30
0.0
 11
1581.199959597408
 21
56.00002186734286
 31
0.0
  0
LINE
  5
CEA
330
2
100
AcDbEntity
  8
0
  6
Continuous
 62
     4
100
AcDbLine
 10
1581.199959597408
 20
56.00002186734286
 30
0.0
 11
1585.69995759741
 21
56.00002186734378
 31
0.0
  0
LINE
  5
CEB
330
2
100
AcDbEntity
  8
0
  6
Continuous
 62
     4
100
AcDbLine
 10
1585.69995759741
 20
56.00002186734378
 30
0.0
 11
1587.499957597409
 21
56.00002186734378
 31
0.0
  0
LINE
  5
CEC
330
2
100
AcDbEntity
  8
0
  6
Continuous
 62
     4
100
AcDbLine
 10
1587.499957597409
 20
56.00002186734378
 30
0.0
 11
2167.499959594457
 21
56.00002186742585
 31
0.0
  0
LINE
  5
CED
330
2
100
AcDbEntity
  8
0
  6
Continuous
 62
     4
100
AcDbLine
 10
2167.499959594457
 20
56.00002186742585
 30
0.0
 11
2167.499959594457
 21
48.00002186742585
 31
0.0
  0
LINE
  5
CEE
330
2
100
AcDbEntity
  8
0
  6
Continuous
 62
     4
100
AcDbLine
 10
2167.499959594457
 20
48.00002186742585
 30
0.0
 11
1587.499957128957
 21
48.00002186734378
 31
0.0
  0
LINE
  5
CEF
330
2
100
AcDbEntity
  8
0
  6
Continuous
 62
     4
100
AcDbLine
 10
1587.499957128957
 20
48.00002186734378
 30
0.0
 11
1585.699957128956
 21
48.00002186734378
 31
0.0
  0
LINE
  5
CF0
330
2
100
AcDbEntity
  8
0
  6
Continuous
 62
     4
100
AcDbLine
 10
1585.699957128956
 20
48.00002186734378
 30
0.0
 11
1581.199959128955
 21
48.00002186734286
 31
0.0
  0
LINE
  5
CF1
330
2
100
AcDbEntity
  8
0
  6
Continuous
 62
     4
100
AcDbLine
 10
1581.199959128955
 20
48.00002186734286
 30
0.0
 11
1577.499959128954
 21
48.00002186734286
 31
0.0
  0
LINE
  5
CF2
330
2
100
AcDbEntity
  8
0
  6
Continuous
 62
     4
100
AcDbLine
 10
1577.499959128954
 20
48.00002186734286
 30
0.0
 11
1576.497172497873
 21
48.00002186734286
 31
0.0
  0
LINE
  5
CF3
330
2
100
AcDbEntity
  8
0
  6
Continuous
 62
     4
100
AcDbLine
 10
1576.497172497873
 20
48.00002186734286
 30
0.0
 11
1575.502745766545
 21
48.00002186734173
 31
0.0
  0
LINE
  5
CF4
330
2
100
AcDbEntity
  8
0
  6
Continuous
 62
     4
100
AcDbLine
 10
1575.502745766545
 20
48.00002186734173
 30
0.0
 11
1575.499959594459
 21
48.00002186734173
 31
0.0
  0
LINE
  5
CF5
330
2
100
AcDbEntity
  8
0
  6
Continuous
 62
     4
100
AcDbLine
 10
1575.499959594459
 20
48.00002186734173
 30
0.0
 11
1575.499959594459
 21
48.05002392595679
 31
0.0
  0
LINE
  5
CF6
330
2
100
AcDbEntity
  8
0
  6
Continuous
 62
     4
100
AcDbLine
 10
1575.499959594459
 20
48.05002392595679
 30
0.0
 11
1575.499959594454
 21
55.94963718735562
 31
0.0
  0
LINE
  5
CF7
330
2
100
AcDbEntity
  8
0
  6
Continuous
 62
     4
100
AcDbLine
 10
1575.499959594454
 20
55.94963718735562
 30
0.0
 11
1575.499959594454
 21
55.95002192595598
 31
0.0
  0
LINE
  5
CF8
330
2
100
AcDbEntity
  8
0
  6
Continuous
 62
     4
100
AcDbLine
 10
1575.499959594454
 20
55.95002192595598
 30
0.0
 11
1575.499959594454
 21
56.00002186734286
 31
0.0
  0
LINE
  5
CF9
330
2
100
AcDbEntity
  8
0
  6
Continuous
 62
     7
100
AcDbLine
 10
2113.499959594106
 20
23.50002178212685
 30
0.0
 11
1608.499959594444
 21
23.50002181392278
 31
0.0
  0
LINE
  5
CFA
330
2
100
AcDbEntity
  8
0
  6
Continuous
 62
     9
100
AcDbLine
 10
2119.499959593941
 20
12.00002179929879
 30
0.0
 11
2119.499959594068
 21
14.00002179929879
 31
0.0
  0
LINE
  5
CFB
330
2
100
AcDbEntity
  8
0
  6
Continuous
 62
     7
100
AcDbLine
 10
2118.49995959394
 20
12.00002179942657
 30
0.0
 11
2119.499959593941
 21
12.00002179936291
 31
0.0
  0
LINE
  5
CFC
330
2
100
AcDbEntity
  8
0
  6
Continuous
 62
     9
100
AcDbLine
 10
2151.499959593941
 20
12.00002179725584
 30
0.0
 11
2151.499959594068
 21
14.0000217972547
 31
0.0
  0
LINE
  5
CFD
330
2
100
AcDbEntity
  8
0
  6
Continuous
 62
     7
100
AcDbLine
 10
2119.499959593941
 20
12.00002179929879
 30
0.0
 11
2151.499959593941
 21
12.00002179725584
 31
0.0
  0
LINE
  5
CFE
330
2
100
AcDbEntity
  8
0
  6
Continuous
 62
     7
100
AcDbLine
 10
2152.49995959394
 20
12.00002179725584
 30
0.0
 11
2152.499959594068
 21
14.0000217972547
 31
0.0
  0
LINE
  5
CFF
330
2
100
AcDbEntity
  8
0
  6
Continuous
 62
     7
100
AcDbLine
 10
2151.499959593941
 20
12.00002179731882
 30
0.0
 11
2152.49995959394
 21
12.00002179725584
 31
0.0
  0
LINE
  5
D00
330
2
100
AcDbEntity
  8
0
  6
Continuous
 62
     7
100
AcDbLine
 10
2123.99995959683
 20
57.50002179964486
 30
0.0
 11
2120.99995959683
 21
57.50002179983585
 31
0.0
  0
LINE
  5
D01
330
2
100
AcDbEntity
  8
0
  6
Continuous
 62
     7
100
AcDbLine
 10
2120.99995959683
 20
57.50002179983585
 30
0.0
 11
2117.99995959683
 21
57.50002180002685
 31
0.0
  0
LINE
  5
D02
330
2
100
AcDbEntity
  8
0
  6
Continuous
 62
     7
100
AcDbLine
 10
2116.99995959734
 20
65.50002180009073
 30
0.0
 11
2120.99995959734
 21
65.50002179983585
 31
0.0
  0
LINE
  5
D03
330
2
100
AcDbEntity
  8
0
  6
Continuous
 62
     7
100
AcDbLine
 10
2120.99995959734
 20
65.50002179983585
 30
0.0
 11
2124.99995959734
 21
65.50002179958074
 31
0.0
  0
LINE
  5
D04
330
2
100
AcDbEntity
  8
0
  6
Continuous
 62
     7
100
AcDbLine
 10
2148.999959631026
 20
57.50002179805369
 30
0.0
 11
2145.999959631026
 21
57.50002179824583
 31
0.0
  0
LINE
  5
D05
330
2
100
AcDbEntity
  8
0
  6
Continuous
 62
     7
100
AcDbLine
 10
2145.999959631026
 20
57.50002179824583
 30
0.0
 11
2142.999959631026
 21
57.50002179843568
 31
0.0
  0
LINE
  5
D06
330
2
100
AcDbEntity
  8
0
  6
Continuous
 62
     7
100
AcDbLine
 10
2141.999959631536
 20
65.5000217984998
 30
0.0
 11
2145.999959631536
 21
65.50002179824469
 31
0.0
  0
LINE
  5
D07
330
2
100
AcDbEntity
  8
0
  6
Continuous
 62
     7
100
AcDbLine
 10
2145.999959631536
 20
65.50002179824469
 30
0.0
 11
2149.999959631536
 21
65.50002179799048
 31
0.0
  0
LINE
  5
D08
330
2
100
AcDbEntity
  8
0
  6
Continuous
 62
     7
100
AcDbLine
 10
2113.499959596141
 20
46.50002179970374
 30
0.0
 11
2153.49995959613
 21
46.50002179715989
 31
0.0
  0
LINE
  5
D09
330
2
100
AcDbEntity
  8
0
  6
Continuous
 62
     7
100
AcDbLine
 10
2153.499959596059
 20
45.40002186587389
 30
0.0
 11
2153.49995959613
 21
46.5000217971567
 31
0.0
  0
LINE
  5
D0A
330
2
100
AcDbEntity
  8
0
  6
Continuous
 62
     7
100
AcDbLine
 10
2113.499959596074
 20
45.40002186587389
 30
0.0
 11
2113.499959596141
 21
46.50002179970193
 31
0.0
  0
LINE
  5
D0B
330
2
100
AcDbEntity
  8
0
  6
Continuous
 62
     7
100
AcDbLine
 10
2113.499959594678
 20
23.50002179951184
 30
0.0
 11
2153.499959594665
 21
23.50002179696685
 31
0.0
  0
LINE
  5
D0C
330
2
100
AcDbEntity
  8
0
  6
Continuous
 62
     7
100
AcDbLine
 10
2153.499959594665
 20
23.50002179696685
 30
0.0
 11
2153.499959594788
 21
25.4000218658739
 31
0.0
  0
LINE
  5
D0D
330
2
100
AcDbEntity
  8
0
  6
Continuous
 62
     7
100
AcDbLine
 10
2113.499959594678
 20
23.50002179951184
 30
0.0
 11
2113.499959594799
 21
25.4000218658739
 31
0.0
  0
LINE
  5
D0E
330
2
100
AcDbEntity
  8
0
  6
Continuous
 62
     7
100
AcDbLine
 10
2113.499959597225
 20
63.50002179999274
 30
0.0
 11
2153.49995959721
 21
63.50002179744797
 31
0.0
  0
LINE
  5
D0F
330
2
100
AcDbEntity
  8
0
  6
Continuous
 62
     9
100
AcDbLine
 10
2153.499959597018
 20
60.50002179725471
 30
0.0
 11
2113.499959597032
 21
60.50002179980083
 31
0.0
  0
LINE
  5
D10
330
2
100
AcDbEntity
  8
0
  6
Continuous
 62
     7
100
AcDbLine
 10
2153.49995959721
 20
63.5000217974457
 30
0.0
 11
2153.499959597018
 21
60.50002179725471
 31
0.0
  0
LINE
  5
D11
330
2
100
AcDbEntity
  8
0
  6
Continuous
 62
     7
100
AcDbLine
 10
2113.499959597032
 20
60.50002179980083
 30
0.0
 11
2113.499959597225
 21
63.50002179998978
 31
0.0
  0
LINE
  5
D12
330
2
100
AcDbEntity
  8
0
  6
Continuous
 62
     7
100
AcDbLine
 10
2113.499959596907
 20
58.50002179979992
 30
0.0
 11
2153.499959596893
 21
58.50002179725584
 31
0.0
  0
LINE
  5
D13
330
2
100
AcDbEntity
  8
0
  6
Continuous
 62
     7
100
AcDbLine
 10
2153.499959597018
 20
60.50002179725471
 30
0.0
 11
2153.499959596893
 21
58.50002179725584
 31
0.0
  0
LINE
  5
D14
330
2
100
AcDbEntity
  8
0
  6
Continuous
 62
     7
100
AcDbLine
 10
2113.499959597032
 20
60.50002179980083
 30
0.0
 11
2113.499959596907
 21
58.50002179979992
 31
0.0
  0
ARC
  5
D15
330
2
100
AcDbEntity
  8
0
  6
Continuous
 62
     7
100
AcDbCircle
 10
2133.499959596548
 20
53.00002179948887
 30
0.0
 40
4.300000000000001
100
AcDbArc
 50
44.24072005367344
 51
135.7592799463359
  0
LINE
  5
D16
330
2
100
AcDbEntity
  8
0
  6
Continuous
 62
     7
100
AcDbLine
 10
2153.499959596893
 20
58.50002179821695
 30
0.0
 11
2153.499959596734
 21
56.00002186742472
 31
0.0
  0
LINE
  5
D17
330
2
100
AcDbEntity
  8
0
  6
Continuous
 62
     7
100
AcDbLine
 10
2153.499959596226
 20
48.00002186742472
 30
0.0
 11
2153.49995959613
 21
46.50002179821695
 31
0.0
  0
LINE
  5
D18
330
2
100
AcDbEntity
  8
0
  6
Continuous
 62
     7
100
AcDbLine
 10
2113.499959596907
 20
58.50002180076171
 30
0.0
 11
2113.499959596746
 21
56.00002186741881
 31
0.0
  0
LINE
  5
D19
330
2
100
AcDbEntity
  8
0
  6
Continuous
 62
     7
100
AcDbLine
 10
2113.499959596238
 20
48.00002186741881
 30
0.0
 11
2113.499959596141
 21
46.50002180076171
 31
0.0
  0
LINE
  5
D1A
330
2
100
AcDbEntity
  8
0
  6
Continuous
 62
     7
100
AcDbLine
 10
2153.499959594604
 20
22.50002179712692
 30
0.0
 11
2118.499959594606
 21
22.50002179935496
 31
0.0
  0
LINE
  5
D1B
330
2
100
AcDbEntity
  8
0
  6
Continuous
 62
     7
100
AcDbLine
 10
2118.499959594606
 20
22.50002179935496
 30
0.0
 11
2118.499959594574
 21
22.00002186754978
 31
0.0
  0
LINE
  5
D1C
330
2
100
AcDbEntity
  8
0
  6
Continuous
 62
     7
100
AcDbLine
 10
2118.499959594064
 20
14.00002186754887
 30
0.0
 11
2118.499959593937
 21
12.00002179935381
 31
0.0
  0
LINE
  5
D1D
330
2
100
AcDbEntity
  8
0
  6
Continuous
 62
     7
100
AcDbLine
 10
2118.499959593937
 20
12.00002179935381
 30
0.0
 11
2119.499959593941
 21
12.00002179928992
 31
0.0
  0
LINE
  5
D1E
330
2
100
AcDbEntity
  8
0
  6
Continuous
 62
     7
100
AcDbLine
 10
2119.499959593941
 20
12.00002179928992
 30
0.0
 11
2151.499959593941
 21
12.00002179725584
 31
0.0
  0
LINE
  5
D1F
330
2
100
AcDbEntity
  8
0
  6
Continuous
 62
     7
100
AcDbLine
 10
2151.499959593941
 20
12.00002179725584
 30
0.0
 11
2153.499959593936
 21
12.00002179712692
 31
0.0
  0
LINE
  5
D20
330
2
100
AcDbEntity
  8
0
  6
Continuous
 62
     7
100
AcDbLine
 10
2153.499959593936
 20
12.00002179712692
 30
0.0
 11
2153.499959593715
 21
8.500021797127828
 31
0.0
  0
LINE
  5
D21
330
2
100
AcDbEntity
  8
0
  6
Continuous
 62
     7
100
AcDbLine
 10
2153.499959593715
 20
8.500021797127828
 30
0.0
 11
2115.499959593712
 21
8.500021799544811
 31
0.0
  0
ARC
  5
D22
330
2
100
AcDbEntity
  8
0
  6
Continuous
 62
     7
100
AcDbCircle
 10
2115.49995959384
 20
10.50002179954481
 30
0.0
 40
2.000000000000667
100
AcDbArc
 50
179.9999999963523
 51
269.9999999963523
  0
LINE
  5
D23
330
2
100
AcDbEntity
  8
0
  6
Continuous
 62
     7
100
AcDbLine
 10
2113.499959593839
 20
10.50002179967168
 30
0.0
 11
2113.499959594669
 21
23.50002179951184
 31
0.0
  0
LINE
  5
D24
330
2
100
AcDbEntity
  8
0
  6
Continuous
 62
     7
100
AcDbLine
 10
2153.499959594666
 20
23.50002179696685
 30
0.0
 11
2153.499959594604
 21
22.50002179712692
 31
0.0
  0
LINE
  5
D25
330
2
100
AcDbEntity
  8
0
  6
Continuous
 62
     4
100
AcDbLine
 10
2746.499959594174
 20
22.00002186754978
 30
0.0
 11
2168.499959601488
 21
22.00002186754978
 31
0.0
  0
LINE
  5
D26
330
2
100
AcDbEntity
  8
0
  6
Continuous
 62
     4
100
AcDbLine
 10
2168.499959601488
 20
22.00002186754978
 30
0.0
 11
2167.951882678038
 21
22.00002186754978
 31
0.0
  0
LINE
  5
D27
330
2
100
AcDbEntity
  8
0
  6
Continuous
 62
     4
100
AcDbLine
 10
2167.951882678038
 20
22.00002186754978
 30
0.0
 11
2118.499959594174
 21
22.00002186754978
 31
0.0
  0
LINE
  5
D28
330
2
100
AcDbEntity
  8
0
  6
Continuous
 62
     4
100
AcDbLine
 10
2746.499959594174
 20
14.00002186754887
 30
0.0
 11
2746.499959594174
 21
22.00002186754978
 31
0.0
  0
LINE
  5
D29
330
2
100
AcDbEntity
  8
0
  6
Continuous
 62
     4
100
AcDbLine
 10
2118.499959594174
 20
14.00002186754887
 30
0.0
 11
2746.499959594174
 21
14.00002186754887
 31
0.0
  0
LINE
  5
D2A
330
2
100
AcDbEntity
  8
0
  6
Continuous
 62
     4
100
AcDbLine
 10
2118.499959594174
 20
22.00002186754978
 30
0.0
 11
2118.499959594174
 21
14.00002186754887
 31
0.0
  0
LINE
  5
D2B
330
2
100
AcDbEntity
  8
0
  6
Continuous
 62
     7
100
AcDbLine
 10
2746.499959594174
 20
800.0000219956996
 30
0.0
 11
2746.499959594174
 21
72.00002186378674
 31
0.0
  0
LINE
  5
D2C
330
2
100
AcDbEntity
  8
0
  6
Continuous
 62
     7
100
AcDbLine
 10
2746.499959594174
 20
23.40002186614379
 30
0.0
 11
2746.499959594174
 21
22.00002186754978
 31
0.0
  0
LINE
  5
D2D
330
2
100
AcDbEntity
  8
0
  6
Continuous
 62
     7
100
AcDbLine
 10
2746.499959594174
 20
14.00002186754887
 30
0.0
 11
2746.499959594174
 21
0.000021995698944
 31
0.0
  0
LINE
  5
D2E
330
2
100
AcDbEntity
  8
0
  6
Continuous
 62
     7
100
AcDbLine
 10
2746.499959594174
 20
0.000021995698944
 30
0.0
 11
1546.499959594173
 21
0.000021995698944
 31
0.0
  0
LINE
  5
D2F
330
2
100
AcDbEntity
  8
0
  6
Continuous
 62
     7
100
AcDbLine
 10
1546.499959594173
 20
0.000021995698944
 30
0.0
 11
1546.499959594173
 21
800.0000219956996
 31
0.0
  0
ELLIPSE
  5
D30
330
2
100
AcDbEntity
  8
0
  6
Continuous
 62
     9
100
AcDbEllipse
 10
2656.758926012758
 20
710.2589884142848
 30
0.0
 11
27.83488918612686
 21
27.83488918612686
 31
0.0
210
0.0
220
0.0
230
1.0
 40
0.889126490715979
 41
5.556410252859888
 42
7.009960361499286
  0
LINE
  5
D31
330
2
100
AcDbEntity
  8
0
  6
Continuous
 62
     9
100
AcDbLine
 10
1631.884012866434
 20
747.5052104509418
 30
0.0
 11
2661.115906321909
 21
747.5052104509418
 31
0.0
  0
ELLIPSE
  5
D32
330
2
100
AcDbEntity
  8
0
  6
Continuous
 62
     9
100
AcDbEllipse
 10
1636.240993175584
 20
710.2589884142848
 30
0.0
 11
-27.83488918612598
 21
27.83488918612642
 31
0.0
210
0.0
220
0.0
230
1.0
 40
0.889126490715993
 41
5.556410252859888
 42
7.009960361499286
  0
LINE
  5
D33
330
2
100
AcDbEntity
  8
0
  6
Continuous
 62
     9
100
AcDbLine
 10
1598.99477113893
 20
85.38407526796277
 30
0.0
 11
1598.99477113893
 21
714.6159687234349
 31
0.0
  0
ELLIPSE
  5
D34
330
2
100
AcDbEntity
  8
0
  6
Continuous
 62
     9
100
AcDbEllipse
 10
1636.240993175584
 20
89.74105557711277
 30
0.0
 11
-27.83488918612599
 21
-27.8348891861262
 31
0.0
210
0.0
220
0.0
230
1.0
 40
0.8891264907159929
 41
5.556410252859888
 42
5.8170153732875
  0
LINE
  5
D35
330
2
100
AcDbEntity
  8
0
  6
Continuous
 62
     9
100
AcDbLine
 10
2661.115906321909
 20
52.4948335404556
 30
0.0
 11
2168.499959618825
 21
52.4948335404556
 31
0.0
  0
ELLIPSE
  5
D36
330
2
100
AcDbEntity
  8
0
  6
Continuous
 62
     9
100
AcDbEllipse
 10
2656.758926012758
 20
89.74105557711277
 30
0.0
 11
27.83488918612686
 21
-27.83488918612686
 31
0.0
210
0.0
220
0.0
230
1.0
 40
0.8891264907159801
 41
5.556410252859888
 42
7.009960361499282
  0
LINE
  5
D37
330
2
100
AcDbEntity
  8
0
  6
Continuous
 62
     9
100
AcDbLine
 10
2694.005148049416
 20
714.6159687234349
 30
0.0
 11
2694.005148049416
 21
85.38407526796277
 31
0.0
  0
LINE
  5
D38
330
2
100
AcDbEntity
  8
0
  6
Continuous
 62
     7
100
AcDbLine
 10
1546.499959594173
 20
800.0000219956996
 30
0.0
 11
1559.499959594173
 21
800.0000219956996
 31
0.0
  0
LINE
  5
D39
330
2
100
AcDbEntity
  8
0
  6
Continuous
 62
     7
100
AcDbLine
 10
1567.499959594173
 20
800.0000219956996
 30
0.0
 11
1577.499959595174
 21
800.0000219956996
 31
0.0
  0
LINE
  5
D3A
330
2
100
AcDbEntity
  8
0
  6
Continuous
 62
     7
100
AcDbLine
 10
1617.499959595176
 20
800.0000219956996
 30
0.0
 11
2746.499959594174
 21
800.0000219956996
 31
0.0
  0
ELLIPSE
  5
D3B
330
2
100
AcDbEntity
  8
0
  6
Continuous
 62
     9
100
AcDbEllipse
 10
1636.240993175584
 20
710.2589884158869
 30
0.0
 11
-12.11720491336976
 21
12.11720491225732
 31
0.0
210
0.0
220
0.0
230
1.0
 40
0.5835560150004764
 41
5.556410252833122
 42
7.009960361472521
  0
LINE
  5
D3C
330
2
100
AcDbEntity
  8
0
  6
Continuous
 62
     9
100
AcDbLine
 10
1622.487086658579
 20
714.6159687250364
 30
0.0
 11
1598.99477113893
 21
714.6159687250364
 31
0.0
  0
LINE
  5
D3D
330
2
100
AcDbEntity
  8
0
  6
Continuous
 62
     9
100
AcDbLine
 10
1631.884012866434
 20
724.0128949323479
 30
0.0
 11
1631.884012866434
 21
747.5052104509418
 31
0.0
  0
LINE
  5
D3E
330
2
100
AcDbEntity
  8
0
  6
Continuous
 62
     9
100
AcDbLine
 10
2694.005148049416
 20
714.6159687250364
 30
0.0
 11
2670.51283252977
 21
714.6159687250364
 31
0.0
  0
ELLIPSE
  5
D3F
330
2
100
AcDbEntity
  8
0
  6
Continuous
 62
     9
100
AcDbEllipse
 10
2656.758926012758
 20
710.2589884158869
 30
0.0
 11
12.11720491336887
 21
12.11720491225731
 31
0.0
210
0.0
220
0.0
230
1.0
 40
0.5835560150004754
 41
5.556410252886652
 42
7.009960361526062
  0
LINE
  5
D40
330
2
100
AcDbEntity
  8
0
  6
Continuous
 62
     9
100
AcDbLine
 10
2661.115906321909
 20
747.5052104509418
 30
0.0
 11
2661.115906321909
 21
724.0128949323479
 31
0.0
  0
LINE
  5
D41
330
2
100
AcDbEntity
  8
0
  6
Continuous
 62
     9
100
AcDbLine
 10
2661.115906321909
 20
724.0128949323479
 30
0.0
 11
1631.884012866434
 21
724.0128949323479
 31
0.0
  0
LINE
  5
D42
330
2
100
AcDbEntity
  8
0
  6
Continuous
 62
     9
100
AcDbLine
 10
1622.487086658579
 20
714.615968724489
 30
0.0
 11
1622.487086658579
 21
85.38407526901687
 31
0.0
  0
LINE
  5
D43
330
2
100
AcDbEntity
  8
0
  6
Continuous
 62
     9
100
AcDbLine
 10
1622.487086658579
 20
85.38407526956484
 30
0.0
 11
1598.99477113893
 21
85.38407526956484
 31
0.0
  0
LINE
  5
D44
330
2
100
AcDbEntity
  8
0
  6
Continuous
 62
     9
100
AcDbLine
 10
2694.005148049416
 20
85.38407526956484
 30
0.0
 11
2670.51283252977
 21
85.38407526956484
 31
0.0
  0
LINE
  5
D45
330
2
100
AcDbEntity
  8
0
  6
Continuous
 62
     9
100
AcDbLine
 10
2670.51283252977
 20
85.38407526901687
 30
0.0
 11
2670.51283252977
 21
714.615968724489
 31
0.0
  0
LINE
  5
D46
330
2
100
AcDbEntity
  8
0
  6
Continuous
 62
     9
100
AcDbLine
 10
2661.115906321909
 20
52.4948335404556
 30
0.0
 11
2661.115906321909
 21
75.98714906115787
 31
0.0
  0
ELLIPSE
  5
D47
330
2
100
AcDbEntity
  8
0
  6
Continuous
 62
     9
100
AcDbEllipse
 10
2656.758926012758
 20
89.74105557871462
 30
0.0
 11
12.1172049129905
 21
-12.11720491410206
 31
0.0
210
0.0
220
0.0
230
1.0
 40
0.5835560149651704
 41
5.556410252886648
 42
7.009960361526039
  0
ELLIPSE
  5
D48
330
2
100
AcDbEntity
  8
0
  6
Continuous
 62
     9
100
AcDbEllipse
 10
1636.240993175584
 20
89.74105557871462
 30
0.0
 11
-12.11720491298962
 21
-12.11720491410206
 31
0.0
210
0.0
220
0.0
230
1.0
 40
0.5835560149651703
 41
5.556410252833122
 42
7.009960361472519
  0
LINE
  5
D49
330
2
100
AcDbEntity
  8
0
  6
Continuous
 62
     9
100
AcDbLine
 10
1631.884012866436
 20
75.98714906115787
 30
0.0
 11
1631.884012866436
 21
63.0000218660266
 31
0.0
  0
LINE
  5
D4A
330
2
100
AcDbEntity
  8
0
  6
Continuous
 62
     9
100
AcDbLine
 10
1631.884012866434
 20
75.98714906115787
 30
0.0
 11
2661.115906321909
 21
75.98714906115787
 31
0.0
  0
ELLIPSE
  5
D4B
330
2
100
AcDbEntity
  8
0
  6
Continuous
 62
     9
100
AcDbEllipse
 10
1638.060844346919
 20
708.4391372448758
 30
0.0
 11
7.071067811242669
 21
7.071067812487896
 31
0.0
210
0.0
220
0.0
230
1.0
 40
0.8891264907367228
 41
0.8440212723760971
 42
2.297571381015582
  0
LINE
  5
D4C
330
2
100
AcDbEntity
  8
0
  6
Continuous
 62
     9
100
AcDbLine
 10
1628.66391813906
 20
708.4391372450945
 30
0.0
 11
1622.487086658579
 21
714.615968724489
 31
0.0
  0
LINE
  5
D4D
330
2
100
AcDbEntity
  8
0
  6
Continuous
 62
     9
100
AcDbLine
 10
1631.884012866434
 20
724.0128949323479
 30
0.0
 11
1638.060844346919
 21
717.8360634529549
 31
0.0
  0
ELLIPSE
  5
D4E
330
2
100
AcDbEntity
  8
0
  6
Continuous
 62
     9
100
AcDbEllipse
 10
2654.939074841428
 20
708.4391372448758
 30
0.0
 11
7.07106781124267
 21
-7.071067812487452
 31
0.0
210
0.0
220
0.0
230
1.0
 40
0.8891264907367229
 41
0.8440212725742163
 42
2.29757138121361
  0
LINE
  5
D4F
330
2
100
AcDbEntity
  8
0
  6
Continuous
 62
     9
100
AcDbLine
 10
2654.939074841428
 20
717.8360634529549
 30
0.0
 11
2661.115906321909
 21
724.0128949323479
 31
0.0
  0
LINE
  5
D50
330
2
100
AcDbEntity
  8
0
  6
Continuous
 62
     9
100
AcDbLine
 10
2670.51283252977
 20
714.615968724489
 30
0.0
 11
2664.336001049287
 21
708.4391372450945
 31
0.0
  0
ELLIPSE
  5
D51
330
2
100
AcDbEntity
  8
0
  6
Continuous
 62
     9
100
AcDbEllipse
 10
1638.060844346919
 20
91.56090675036693
 30
0.0
 11
-7.071067812487896
 21
7.071067811243112
 31
0.0
210
0.0
220
0.0
230
1.0
 40
0.8891264906952526
 41
0.8440212723762666
 42
2.29757138101556
  0
LINE
  5
D52
330
2
100
AcDbEntity
  8
0
  6
Continuous
 62
     9
100
AcDbLine
 10
1638.060844346919
 20
82.163980542726
 30
0.0
 11
1631.884012866434
 21
75.98714906115787
 31
0.0
  0
LINE
  5
D53
330
2
100
AcDbEntity
  8
0
  6
Continuous
 62
     9
100
AcDbLine
 10
1622.487086658579
 20
85.38407526901687
 30
0.0
 11
1628.66391813906
 21
91.56090675058477
 31
0.0
  0
ELLIPSE
  5
D54
330
2
100
AcDbEntity
  8
0
  6
Continuous
 62
     9
100
AcDbEllipse
 10
2654.939074841428
 20
91.56090675036693
 30
0.0
 11
-7.071067812487896
 21
-7.071067811243112
 31
0.0
210
0.0
220
0.0
230
1.0
 40
0.8891264906952526
 41
0.84402127257414
 42
2.297571381213576
  0
LINE
  5
D55
330
2
100
AcDbEntity
  8
0
  6
Continuous
 62
     9
100
AcDbLine
 10
2664.336001049287
 20
91.56090675058477
 30
0.0
 11
2670.51283252977
 21
85.38407526901687
 31
0.0
  0
LINE
  5
D56
330
2
100
AcDbEntity
  8
0
  6
Continuous
 62
     9
100
AcDbLine
 10
2661.115906321909
 20
75.98714906115787
 30
0.0
 11
2654.939074841428
 21
82.163980542726
 31
0.0
  0
LINE
  5
D57
330
2
100
AcDbEntity
  8
0
  6
Continuous
 62
     9
100
AcDbLine
 10
1638.060844346919
 20
717.8360634529549
 30
0.0
 11
2654.939074841428
 21
717.8360634529549
 31
0.0
  0
LINE
  5
D58
330
2
100
AcDbEntity
  8
0
  6
Continuous
 62
     9
100
AcDbLine
 10
2664.336001049287
 20
708.4391372450945
 30
0.0
 11
2664.336001049287
 21
91.56090675058477
 31
0.0
  0
LINE
  5
D59
330
2
100
AcDbEntity
  8
0
  6
Continuous
 62
     9
100
AcDbLine
 10
1628.66391813906
 20
91.56090675058477
 30
0.0
 11
1628.66391813906
 21
708.4391372450945
 31
0.0
  0
LINE
  5
D5A
330
2
100
AcDbEntity
  8
0
  6
Continuous
 62
     9
100
AcDbLine
 10
2654.939074841428
 20
82.163980542726
 30
0.0
 11
1638.060844346919
 21
82.163980542726
 31
0.0
  0
LINE
  5
D5B
330
2
100
AcDbEntity
  8
0
  6
Continuous
 62
     9
100
AcDbLine
 10
2654.939074841428
 20
717.8360634529549
 30
0.0
 11
2654.939074841428
 21
708.4391372455165
 31
0.0
  0
LINE
  5
D5C
330
2
100
AcDbEntity
  8
0
  6
Continuous
 62
     9
100
AcDbLine
 10
2664.336001049287
 20
708.4391372448758
 30
0.0
 11
2654.939074841428
 21
708.4391372448758
 31
0.0
  0
LINE
  5
D5D
330
2
100
AcDbEntity
  8
0
  6
Continuous
 62
     9
100
AcDbLine
 10
1628.66391813906
 20
708.4391372448758
 30
0.0
 11
1638.060844346919
 21
708.4391372448758
 31
0.0
  0
LINE
  5
D5E
330
2
100
AcDbEntity
  8
0
  6
Continuous
 62
     9
100
AcDbLine
 10
1638.060844346919
 20
717.8360634529549
 30
0.0
 11
1638.060844346919
 21
708.4391372455165
 31
0.0
  0
LINE
  5
D5F
330
2
100
AcDbEntity
  8
0
  6
Continuous
 62
     9
100
AcDbLine
 10
2654.939074841428
 20
708.4391372455165
 30
0.0
 11
1638.060844346915
 21
708.4391372455165
 31
0.0
  0
LINE
  5
D60
330
2
100
AcDbEntity
  8
0
  6
Continuous
 62
     9
100
AcDbLine
 10
2654.939074841428
 20
91.56090675100676
 30
0.0
 11
2654.939074841428
 21
708.4391372455165
 31
0.0
  0
LINE
  5
D61
330
2
100
AcDbEntity
  8
0
  6
Continuous
 62
     9
100
AcDbLine
 10
2654.939074841428
 20
91.56090675036693
 30
0.0
 11
2664.336001049287
 21
91.56090675036693
 31
0.0
  0
LINE
  5
D62
330
2
100
AcDbEntity
  8
0
  6
Continuous
 62
     9
100
AcDbLine
 10
1638.060844346919
 20
708.4391372455165
 30
0.0
 11
1638.060844346919
 21
91.56090675100676
 31
0.0
  0
LINE
  5
D63
330
2
100
AcDbEntity
  8
0
  6
Continuous
 62
     9
100
AcDbLine
 10
1638.060844346919
 20
91.56090675036693
 30
0.0
 11
1628.66391813906
 21
91.56090675036693
 31
0.0
  0
LINE
  5
D64
330
2
100
AcDbEntity
  8
0
  6
Continuous
 62
     9
100
AcDbLine
 10
2654.939074841428
 20
91.56090675100676
 30
0.0
 11
2654.939074841428
 21
82.163980542726
 31
0.0
  0
LINE
  5
D65
330
2
100
AcDbEntity
  8
0
  6
Continuous
 62
     9
100
AcDbLine
 10
1638.060844346919
 20
91.56090675100676
 30
0.0
 11
1638.060844346919
 21
82.163980542726
 31
0.0
  0
LINE
  5
D66
330
2
100
AcDbEntity
  8
0
  6
Continuous
 62
     9
100
AcDbLine
 10
1638.060844346919
 20
91.56090675100676
 30
0.0
 11
2654.939074841428
 21
91.56090675100676
 31
0.0
  0
LINE
  5
D67
330
2
100
AcDbEntity
  8
0
  6
Continuous
 62
     9
100
AcDbLine
 10
1567.499959594173
 20
32.02502186967468
 30
0.0
 11
1569.499959594697
 21
32.02502186993866
 31
0.0
  0
LINE
  5
D68
330
2
100
AcDbEntity
  8
0
  6
Continuous
 62
     9
100
AcDbLine
 10
1569.499959594252
 20
38.77502186993865
 30
0.0
 11
1567.499959594173
 21
38.77502186967467
 31
0.0
  0
LINE
  5
D69
330
2
100
AcDbEntity
  8
0
  6
Continuous
 62
     9
100
AcDbLine
 10
2117.624959597339
 20
65.5000218000498
 30
0.0
 11
2117.624959597214
 21
63.50004180005067
 31
0.0
  0
LINE
  5
D6A
330
2
100
AcDbEntity
  8
0
  6
Continuous
 62
     9
100
AcDbLine
 10
2117.624959596896
 20
58.50000180011261
 30
0.0
 11
2117.624959596855
 21
57.87502180005072
 31
0.0
  0
LINE
  5
D6B
330
2
100
AcDbEntity
  8
0
  6
Continuous
 62
     9
100
AcDbLine
 10
2124.374959596854
 20
57.87502179962075
 30
0.0
 11
2124.374959596896
 21
58.50000179968265
 31
0.0
  0
LINE
  5
D6C
330
2
100
AcDbEntity
  8
0
  6
Continuous
 62
     9
100
AcDbLine
 10
2124.374959597213
 20
63.5000417996207
 30
0.0
 11
2124.374959597339
 21
65.50002179962075
 31
0.0
  0
LINE
  5
D6D
330
2
100
AcDbEntity
  8
0
  6
Continuous
 62
     9
100
AcDbLine
 10
2142.624959631536
 20
65.50002179845979
 30
0.0
 11
2142.624959631408
 21
63.50004179843086
 31
0.0
  0
LINE
  5
D6E
330
2
100
AcDbEntity
  8
0
  6
Continuous
 62
     9
100
AcDbLine
 10
2142.624959631091
 20
58.50000179855078
 30
0.0
 11
2142.624959631049
 21
57.87502179845978
 31
0.0
  0
LINE
  5
D6F
330
2
100
AcDbEntity
  8
0
  6
Continuous
 62
     9
100
AcDbLine
 10
2149.374959631051
 20
57.87502179803073
 30
0.0
 11
2149.37495963109
 21
58.50000179812173
 31
0.0
  0
LINE
  5
D70
330
2
100
AcDbEntity
  8
0
  6
Continuous
 62
     9
100
AcDbLine
 10
2149.374959631408
 20
63.50004179800089
 30
0.0
 11
2149.374959631534
 21
65.50002179803072
 31
0.0
  0
LINE
  5
D71
330
2
100
AcDbEntity
  8
0
  6
Continuous
 62
     7
100
AcDbLine
 10
1558.299959594202
 20
27.4000218684489
 30
0.0
 11
1558.499959594201
 21
27.4000218684489
 31
0.0
  0
LINE
  5
D72
330
2
100
AcDbEntity
  8
0
  6
Continuous
 62
     7
100
AcDbLine
 10
1558.499959594162
 20
43.4000218684489
 30
0.0
 11
1558.299959594165
 21
43.4000218684489
 31
0.0
  0
LINE
  5
D73
330
2
100
AcDbEntity
  8
0
  6
Continuous
 62
     7
100
AcDbLine
 10
1558.099959594727
 20
27.40002186843481
 30
0.0
 11
1558.299959594728
 21
27.4000218684489
 31
0.0
  0
LINE
  5
D74
330
2
100
AcDbEntity
  8
0
  6
Continuous
 62
     7
100
AcDbLine
 10
1558.299959593638
 20
43.4000218684489
 30
0.0
 11
1558.099959593639
 21
43.4000218684348
 31
0.0
  0
LINE
  5
D75
330
2
100
AcDbEntity
  8
0
  6
Continuous
 62
     7
100
AcDbLine
 10
1559.499959593406
 20
47.40002186812171
 30
0.0
 11
1558.499959593406
 21
47.40002186805782
 31
0.0
  0
LINE
  5
D76
330
2
100
AcDbEntity
  8
0
  6
Continuous
 62
     7
100
AcDbLine
 10
1558.499959594959
 20
23.40002186805782
 30
0.0
 11
1559.499959594959
 21
23.40002186812171
 31
0.0
  0
LINE
  5
D77
330
2
100
AcDbEntity
  8
0
  6
Continuous
 62
     7
100
AcDbLine
 10
1567.499959594173
 20
31.40002186967468
 30
0.0
 11
1569.499959594737
 21
31.40002186993866
 31
0.0
  0
LINE
  5
D78
330
2
100
AcDbEntity
  8
0
  6
Continuous
 62
     7
100
AcDbLine
 10
1569.49995959421
 20
39.40002186993865
 30
0.0
 11
1567.499959594173
 21
39.40002186967467
 31
0.0
  0
LINE
  5
D79
330
2
100
AcDbEntity
  8
0
  6
Continuous
 62
     7
100
AcDbLine
 10
1553.099959592537
 20
47.90002186777565
 30
0.0
 11
1552.099959592666
 21
46.90002186764377
 31
0.0
  0
LINE
  5
D7A
330
2
100
AcDbEntity
  8
0
  6
Continuous
 62
     7
100
AcDbLine
 10
1552.099959595698
 20
23.90002186764377
 30
0.0
 11
1553.099959595833
 21
22.90002186777565
 31
0.0
  0
LINE
  5
D7B
330
2
100
AcDbEntity
  8
0
  6
Continuous
 62
     7
100
AcDbLine
 10
1553.099959595833
 20
22.90002186777565
 30
0.0
 11
1558.099959595833
 21
22.90002186843481
 31
0.0
  0
LINE
  5
D7C
330
2
100
AcDbEntity
  8
0
  6
Continuous
 62
     7
100
AcDbLine
 10
1558.099959592533
 20
47.9000218684348
 30
0.0
 11
1553.099959592537
 21
47.90002186777565
 31
0.0
  0
LINE
  5
D7D
330
2
100
AcDbEntity
  8
0
  6
Continuous
 62
     7
100
AcDbLine
 10
1570.499959593681
 20
47.40002186884772
 30
0.0
 11
1569.7504473837
 21
47.40002186879769
 31
0.0
  0
LINE
  5
D7E
330
2
100
AcDbEntity
  8
0
  6
Continuous
 62
     7
100
AcDbLine
 10
1569.499959595266
 20
23.40002186878178
 30
0.0
 11
1570.499959595265
 21
23.40002186884772
 31
0.0
  0
LINE
  5
D7F
330
2
100
AcDbEntity
  8
0
  6
Continuous
 62
     7
100
AcDbLine
 10
1573.999959594472
 20
22.90002186884771
 30
0.0
 11
1575.499959594472
 21
24.40002186884772
 31
0.0
  0
LINE
  5
D80
330
2
100
AcDbEntity
  8
0
  6
Continuous
 62
     7
100
AcDbLine
 10
1574.299960659593
 20
47.60002080372987
 30
0.0
 11
1573.999959594472
 21
47.90002186884771
 31
0.0
  0
ARC
  5
D81
330
2
100
AcDbEntity
  8
0
  6
Continuous
 62
     7
100
AcDbCircle
 10
1570.999959594472
 20
47.40002186884772
 30
0.0
 40
0.4999999999997229
100
AcDbArc
 50
90.0
 51
180.0
  0
ARC
  5
D82
330
2
100
AcDbEntity
  8
0
  6
Continuous
 62
     7
100
AcDbCircle
 10
1570.999959594472
 20
23.40002186884772
 30
0.0
 40
0.4999999999988347
100
AcDbArc
 50
180.0
 51
270.0
  0
LINE
  5
D83
330
2
100
AcDbEntity
  8
0
  6
Continuous
 62
     7
100
AcDbLine
 10
1573.999959594472
 20
47.90002186884771
 30
0.0
 11
1570.999959594472
 21
47.90002186884771
 31
0.0
  0
LINE
  5
D84
330
2
100
AcDbEntity
  8
0
  6
Continuous
 62
     7
100
AcDbLine
 10
1570.999959594472
 20
22.90002186884771
 30
0.0
 11
1573.999959594472
 21
22.90002186884771
 31
0.0
  0
LINE
  5
D85
330
2
100
AcDbEntity
  8
0
  6
Continuous
 62
     7
100
AcDbLine
 10
1567.99995959626
 20
773.2500218670679
 30
0.0
 11
1567.499959595938
 21
773.2500218670347
 31
0.0
  0
LINE
  5
D86
330
2
100
AcDbEntity
  8
0
  6
Continuous
 62
     7
100
AcDbLine
 10
1567.499959597808
 20
744.7500218670348
 30
0.0
 11
1567.999959596305
 21
744.7500218670666
 31
0.0
  0
ARC
  5
D87
330
2
100
AcDbEntity
  8
0
  6
Continuous
 62
     7
100
AcDbCircle
 10
1570.499959596849
 20
773.5000218671034
 30
0.0
 40
0.5000000000006111
100
AcDbArc
 50
0.0000000001042204
 51
90.00000000010421
  0
ARC
  5
D88
330
2
100
AcDbEntity
  8
0
  6
Continuous
 62
     7
100
AcDbCircle
 10
1570.499959596896
 20
744.5000218671034
 30
0.0
 40
0.5000000000001671
100
AcDbArc
 50
270.0
 51
0.0
  0
LINE
  5
D89
330
2
100
AcDbEntity
  8
0
  6
Continuous
 62
     7
100
AcDbLine
 10
1570.499959596849
 20
774.0000218671034
 30
0.0
 11
1567.999959596849
 21
774.0000218670997
 31
0.0
  0
LINE
  5
D8A
330
2
100
AcDbEntity
  8
0
  6
Continuous
 62
     7
100
AcDbLine
 10
1567.999959596894
 20
744.0000218670998
 30
0.0
 11
1570.499959596896
 21
744.0000218671025
 31
0.0
  0
LINE
  5
D8B
330
2
100
AcDbEntity
  8
0
  6
Continuous
 62
     7
100
AcDbLine
 10
2719.749959595106
 20
22.00002186285383
 30
0.0
 11
2719.74995959512
 21
22.50002186392271
 31
0.0
  0
LINE
  5
D8C
330
2
100
AcDbEntity
  8
0
  6
Continuous
 62
     7
100
AcDbLine
 10
2690.499959595058
 20
25.00002186267375
 30
0.0
 11
2690.499959595068
 21
24.72729459294692
 31
0.0
  0
LINE
  5
D8D
330
2
100
AcDbEntity
  8
0
  6
Continuous
 62
     7
100
AcDbLine
 10
2720.499959595152
 20
22.50002186379379
 30
0.0
 11
2720.499959595117
 21
23.40002186614379
 31
0.0
  0
ARC
  5
D8E
330
2
100
AcDbEntity
  8
0
  6
Continuous
 62
     7
100
AcDbCircle
 10
2690.999959595059
 20
25.00002186269171
 30
0.0
 40
0.5000000000002559
100
AcDbArc
 50
126.8698970381269
 51
180.0000000021235
  0
LINE
  5
D8F
330
2
100
AcDbEntity
  8
0
  6
Continuous
 62
     7
100
AcDbLine
 10
2694.499959594335
 20
13.00002186663187
 30
0.0
 11
2694.499959594272
 21
14.00002186663187
 31
0.0
  0
LINE
  5
D90
330
2
100
AcDbEntity
  8
0
  6
Continuous
 62
     7
100
AcDbLine
 10
2670.499959594281
 20
14.00002186511574
 30
0.0
 11
2670.499959594346
 21
13.00002186511574
 31
0.0
  0
LINE
  5
D91
330
2
100
AcDbEntity
  8
0
  6
Continuous
 62
     7
100
AcDbLine
 10
2669.999959594346
 20
7.300021865873759
 30
0.0
 11
2670.299959594346
 21
7.000021865874714
 31
0.0
  0
LINE
  5
D92
330
2
100
AcDbEntity
  8
0
  6
Continuous
 62
     7
100
AcDbLine
 10
2694.699959594335
 20
7.000021865874714
 30
0.0
 11
2694.999959594335
 21
7.300021865873759
 31
0.0
  0
LINE
  5
D93
330
2
100
AcDbEntity
  8
0
  6
Continuous
 62
     7
100
AcDbLine
 10
2669.999959594346
 20
13.0000218658738
 30
0.0
 11
2669.999959594346
 21
7.300021865873759
 31
0.0
  0
LINE
  5
D94
330
2
100
AcDbEntity
  8
0
  6
Continuous
 62
     7
100
AcDbLine
 10
2694.999959594335
 20
7.300021865873759
 30
0.0
 11
2694.999959594335
 21
13.0000218658738
 31
0.0
  0
LINE
  5
D95
330
2
100
AcDbEntity
  8
0
  6
Continuous
 62
     7
100
AcDbLine
 10
2669.999959594346
 20
23.50002186587176
 30
0.0
 11
2669.999959594346
 21
22.00002186587176
 31
0.0
  0
LINE
  5
D96
330
2
100
AcDbEntity
  8
0
  6
Continuous
 62
     7
100
AcDbLine
 10
2694.999959594337
 20
22.00002186587472
 30
0.0
 11
2694.999959594337
 21
23.50002186587381
 31
0.0
  0
LINE
  5
D97
330
2
100
AcDbEntity
  8
0
  6
Continuous
 62
     7
100
AcDbLine
 10
2694.999959594337
 20
23.50002186587381
 30
0.0
 11
2689.49995959434
 21
25.0000218658738
 31
0.0
  0
LINE
  5
D98
330
2
100
AcDbEntity
  8
0
  6
Continuous
 62
     7
100
AcDbLine
 10
2675.499959594346
 20
25.00002186587176
 30
0.0
 11
2669.999959594346
 21
23.50002186587176
 31
0.0
  0
LINE
  5
D99
330
2
100
AcDbEntity
  8
0
  6
Continuous
 62
     7
100
AcDbLine
 10
2194.499959594194
 20
13.00002186663187
 30
0.0
 11
2194.499959594129
 21
14.00002186663187
 31
0.0
  0
LINE
  5
D9A
330
2
100
AcDbEntity
  8
0
  6
Continuous
 62
     7
100
AcDbLine
 10
2170.499959594129
 20
14.00002186511574
 30
0.0
 11
2170.499959594193
 21
13.00002186511574
 31
0.0
  0
LINE
  5
D9B
330
2
100
AcDbEntity
  8
0
  6
Continuous
 62
     7
100
AcDbLine
 10
2169.999959594194
 20
7.300021865873759
 30
0.0
 11
2170.299959594194
 21
7.000021865874714
 31
0.0
  0
LINE
  5
D9C
330
2
100
AcDbEntity
  8
0
  6
Continuous
 62
     7
100
AcDbLine
 10
2194.699959594192
 20
7.000021865874714
 30
0.0
 11
2194.999959594195
 21
7.300021865873759
 31
0.0
  0
LINE
  5
D9D
330
2
100
AcDbEntity
  8
0
  6
Continuous
 62
     7
100
AcDbLine
 10
2169.999959594194
 20
13.0000218658738
 30
0.0
 11
2169.999959594194
 21
7.300021865873759
 31
0.0
  0
LINE
  5
D9E
330
2
100
AcDbEntity
  8
0
  6
Continuous
 62
     7
100
AcDbLine
 10
2194.999959594195
 20
7.300021865873759
 30
0.0
 11
2194.999959594195
 21
13.0000218658738
 31
0.0
  0
LINE
  5
D9F
330
2
100
AcDbEntity
  8
0
  6
Continuous
 62
     7
100
AcDbLine
 10
2169.999959594197
 20
23.50002186586971
 30
0.0
 11
2169.999959594197
 21
22.00002186586971
 31
0.0
  0
LINE
  5
DA0
330
2
100
AcDbEntity
  8
0
  6
Continuous
 62
     7
100
AcDbLine
 10
2194.999959594197
 20
22.00002186587676
 30
0.0
 11
2194.999959594197
 21
23.50002186587585
 31
0.0
  0
LINE
  5
DA1
330
2
100
AcDbEntity
  8
0
  6
Continuous
 62
     7
100
AcDbLine
 10
2194.999959594197
 20
23.50002186587585
 30
0.0
 11
2189.499959594197
 21
25.00002186587471
 31
0.0
  0
LINE
  5
DA2
330
2
100
AcDbEntity
  8
0
  6
Continuous
 62
     7
100
AcDbLine
 10
2175.499959594195
 20
25.00002186587176
 30
0.0
 11
2169.999959594197
 21
23.50002186586971
 31
0.0
  0
LINE
  5
DA3
330
2
100
AcDbEntity
  8
0
  6
Continuous
 62
     7
100
AcDbLine
 10
2057.499959594454
 20
48.0000218664079
 30
0.0
 11
2057.499959594454
 21
47.0000218664079
 31
0.0
  0
LINE
  5
DA4
330
2
100
AcDbEntity
  8
0
  6
Continuous
 62
     7
100
AcDbLine
 10
2081.499959594454
 20
47.00002186641177
 30
0.0
 11
2081.499959594452
 21
48.00002186641086
 31
0.0
  0
LINE
  5
DA5
330
2
100
AcDbEntity
  8
0
  6
Continuous
 62
     7
100
AcDbLine
 10
2055.499959594449
 20
57.00002186640699
 30
0.0
 11
2055.499959594454
 21
56.000021866407
 31
0.0
  0
LINE
  5
DA6
330
2
100
AcDbEntity
  8
0
  6
Continuous
 62
     7
100
AcDbLine
 10
2079.49995959445
 20
56.00002186641086
 30
0.0
 11
2079.49995959445
 21
57.00002186641086
 31
0.0
  0
LINE
  5
DA7
330
2
100
AcDbEntity
  8
0
  6
Continuous
 62
     7
100
AcDbLine
 10
2056.999959594456
 20
25.53592025127182
 30
0.0
 11
2058.999959594457
 21
25.00002186641086
 31
0.0
  0
LINE
  5
DA8
330
2
100
AcDbEntity
  8
0
  6
Continuous
 62
     7
100
AcDbLine
 10
2079.999959594457
 20
25.00002186641268
 30
0.0
 11
2081.999959594457
 21
25.53592025127568
 31
0.0
  0
LINE
  5
DA9
330
2
100
AcDbEntity
  8
0
  6
Continuous
 62
     7
100
AcDbLine
 10
2056.999959594456
 20
26.50002186640973
 30
0.0
 11
2056.999959594456
 21
25.53592025127182
 31
0.0
  0
LINE
  5
DAA
330
2
100
AcDbEntity
  8
0
  6
Continuous
 62
     7
100
AcDbLine
 10
2081.999959594457
 20
25.53592025127568
 30
0.0
 11
2081.999959594457
 21
26.50002186641359
 31
0.0
  0
LINE
  5
DAB
330
2
100
AcDbEntity
  8
0
  6
Continuous
 62
     7
100
AcDbLine
 10
2063.999959594457
 20
27.00002186676761
 30
0.0
 11
2063.999959594457
 21
26.50002186641086
 31
0.0
  0
LINE
  5
DAC
330
2
100
AcDbEntity
  8
0
  6
Continuous
 62
     7
100
AcDbLine
 10
2074.999959594455
 20
26.50002186641268
 30
0.0
 11
2074.999959594455
 21
27.00002186676897
 31
0.0
  0
LINE
  5
DAD
330
2
100
AcDbEntity
  8
0
  6
Continuous
 62
     7
100
AcDbLine
 10
2079.999959594452
 20
57.00002186641086
 30
0.0
 11
2079.999959594452
 21
62.7000218664109
 31
0.0
  0
LINE
  5
DAE
330
2
100
AcDbEntity
  8
0
  6
Continuous
 62
     7
100
AcDbLine
 10
2054.999959594453
 20
62.70002186640704
 30
0.0
 11
2054.999959594453
 21
57.00002186640699
 31
0.0
  0
LINE
  5
DAF
330
2
100
AcDbEntity
  8
0
  6
Continuous
 62
     7
100
AcDbLine
 10
2079.999959594452
 20
62.7000218664109
 30
0.0
 11
2079.699959594453
 21
63.00002186641086
 31
0.0
  0
LINE
  5
DB0
330
2
100
AcDbEntity
  8
0
  6
Continuous
 62
     7
100
AcDbLine
 10
2055.299959594453
 20
63.000021866407
 30
0.0
 11
2054.999959594453
 21
62.70002186640704
 31
0.0
  0
ARC
  5
DB1
330
2
100
AcDbEntity
  8
0
  6
Continuous
 62
     7
100
AcDbCircle
 10
2081.499959594456
 20
27.50002186641359
 30
0.0
 40
0.5000000000001671
100
AcDbArc
 50
270.0
 51
0.0
  0
ARC
  5
DB2
330
2
100
AcDbEntity
  8
0
  6
Continuous
 62
     7
100
AcDbCircle
 10
2057.499959594457
 20
27.50002186640973
 30
0.0
 40
0.5000000000006111
100
AcDbArc
 50
180.0
 51
270.0
  0
LINE
  5
DB3
330
2
100
AcDbEntity
  8
0
  6
Continuous
 62
     7
100
AcDbLine
 10
2056.999959594456
 20
28.1992866120429
 30
0.0
 11
2056.999959594456
 21
27.50002186640973
 31
0.0
  0
LINE
  5
DB4
330
2
100
AcDbEntity
  8
0
  6
Continuous
 62
     7
100
AcDbLine
 10
2081.999959594457
 20
27.50002186641359
 30
0.0
 11
2081.999959594457
 21
28.19928661204563
 31
0.0
  0
ARC
  5
DB5
330
2
100
AcDbEntity
  8
0
  6
Continuous
 62
     7
100
AcDbCircle
 10
2089.999959594456
 20
35.00002186641495
 30
0.0
 40
10.50000000000006
100
AcDbArc
 50
139.6324064558089
 51
220.3675935442011
  0
ARC
  5
DB6
330
2
100
AcDbEntity
  8
0
  6
Continuous
 62
     7
100
AcDbCircle
 10
2048.999959594453
 20
35.00002186640882
 30
0.0
 40
10.50000000000021
100
AcDbArc
 50
319.6324064558089
 51
40.36759354420103
  0
LINE
  5
DB7
330
2
100
AcDbEntity
  8
0
  6
Continuous
 62
     7
100
AcDbLine
 10
2056.999959594456
 20
42.50002186640972
 30
0.0
 11
2056.999959594456
 21
41.80075712077768
 31
0.0
  0
LINE
  5
DB8
330
2
100
AcDbEntity
  8
0
  6
Continuous
 62
     7
100
AcDbLine
 10
2081.999959594456
 20
41.80075712078109
 30
0.0
 11
2081.999959594456
 21
42.50002186641359
 31
0.0
  0
ARC
  5
DB9
330
2
100
AcDbEntity
  8
0
  6
Continuous
 62
     7
100
AcDbCircle
 10
2057.499959594454
 20
42.50002186640972
 30
0.0
 40
0.5000000000001671
100
AcDbArc
 50
90.0
 51
180.0
  0
ARC
  5
DBA
330
2
100
AcDbEntity
  8
0
  6
Continuous
 62
     7
100
AcDbCircle
 10
2081.499959594454
 20
42.50002186641359
 30
0.0
 40
0.5000000000006111
100
AcDbArc
 50
0.0
 51
90.0
  0
LINE
  5
DBB
330
2
100
AcDbEntity
  8
0
  6
Continuous
 62
     7
100
AcDbLine
 10
2081.999959594456
 20
43.50002186641359
 30
0.0
 11
2081.999959594454
 21
47.00002186641358
 31
0.0
  0
LINE
  5
DBC
330
2
100
AcDbEntity
  8
0
  6
Continuous
 62
     7
100
AcDbLine
 10
2056.999959594454
 20
47.00002186640972
 30
0.0
 11
2056.999959594456
 21
43.50002186640972
 31
0.0
  0
ARC
  5
DBD
330
2
100
AcDbEntity
  8
0
  6
Continuous
 62
     7
100
AcDbCircle
 10
2062.999959594455
 20
43.00002186641086
 30
0.0
 40
0.5000000000001671
100
AcDbArc
 50
0.0
 51
90.0
  0
ARC
  5
DBE
330
2
100
AcDbEntity
  8
0
  6
Continuous
 62
     7
100
AcDbCircle
 10
2075.999959594454
 20
43.00002186641267
 30
0.0
 40
0.5000000000006111
100
AcDbArc
 50
90.0
 51
180.0
  0
LINE
  5
DBF
330
2
100
AcDbEntity
  8
0
  6
Continuous
 62
     7
100
AcDbLine
 10
1615.499959594455
 20
48.00002186634674
 30
0.0
 11
1615.499959594455
 21
47.00002186634674
 31
0.0
  0
LINE
  5
DC0
330
2
100
AcDbEntity
  8
0
  6
Continuous
 62
     7
100
AcDbLine
 10
1639.499959594452
 20
47.00002186634992
 30
0.0
 11
1639.499959594452
 21
48.00002186635083
 31
0.0
  0
LINE
  5
DC1
330
2
100
AcDbEntity
  8
0
  6
Continuous
 62
     7
100
AcDbLine
 10
1613.499959594454
 20
57.00002186634378
 30
0.0
 11
1613.499959594454
 21
56.00002186634469
 31
0.0
  0
LINE
  5
DC2
330
2
100
AcDbEntity
  8
0
  6
Continuous
 62
     7
100
AcDbLine
 10
1637.499959594452
 20
56.00002186634765
 30
0.0
 11
1637.499959594452
 21
57.00002186634765
 31
0.0
  0
LINE
  5
DC3
330
2
100
AcDbEntity
  8
0
  6
Continuous
 62
     7
100
AcDbLine
 10
1614.999959594455
 20
26.50002186635288
 30
0.0
 11
1614.999959594455
 21
25.53592025121475
 31
0.0
  0
LINE
  5
DC4
330
2
100
AcDbEntity
  8
0
  6
Continuous
 62
     7
100
AcDbLine
 10
1639.999959594456
 20
25.53592025121884
 30
0.0
 11
1639.999959594456
 21
26.50002186635561
 31
0.0
  0
LINE
  5
DC5
330
2
100
AcDbEntity
  8
0
  6
Continuous
 62
     7
100
AcDbLine
 10
1614.999959594455
 20
25.53592025121475
 30
0.0
 11
1616.999959594457
 21
25.00002186635288
 31
0.0
  0
LINE
  5
DC6
330
2
100
AcDbEntity
  8
0
  6
Continuous
 62
     7
100
AcDbLine
 10
1637.999959594453
 20
25.00002186635561
 30
0.0
 11
1639.999959594456
 21
25.53592025121884
 31
0.0
  0
LINE
  5
DC7
330
2
100
AcDbEntity
  8
0
  6
Continuous
 62
     7
100
AcDbLine
 10
1621.999959594455
 20
27.00002186602478
 30
0.0
 11
1621.999959594455
 21
26.50002186635288
 31
0.0
  0
LINE
  5
DC8
330
2
100
AcDbEntity
  8
0
  6
Continuous
 62
     7
100
AcDbLine
 10
1632.999959594457
 20
26.5000218663547
 30
0.0
 11
1632.999959594456
 21
27.0000218660266
 31
0.0
  0
LINE
  5
DC9
330
2
100
AcDbEntity
  8
0
  6
Continuous
 62
     7
100
AcDbLine
 10
1637.999959594452
 20
62.70002186634679
 30
0.0
 11
1637.699959594451
 21
63.00002186634674
 31
0.0
  0
LINE
  5
DCA
330
2
100
AcDbEntity
  8
0
  6
Continuous
 62
     7
100
AcDbLine
 10
1613.299959594455
 20
63.00002186634287
 30
0.0
 11
1612.999959594452
 21
62.70002186634292
 31
0.0
  0
LINE
  5
DCB
330
2
100
AcDbEntity
  8
0
  6
Continuous
 62
     7
100
AcDbLine
 10
1637.999959594452
 20
57.00002186634765
 30
0.0
 11
1637.999959594452
 21
62.70002186634679
 31
0.0
  0
LINE
  5
DCC
330
2
100
AcDbEntity
  8
0
  6
Continuous
 62
     7
100
AcDbLine
 10
1612.999959594452
 20
62.70002186634292
 30
0.0
 11
1612.999959594452
 21
57.00002186634378
 31
0.0
  0
ARC
  5
DCD
330
2
100
AcDbEntity
  8
0
  6
Continuous
 62
     7
100
AcDbCircle
 10
1615.499959594459
 20
42.50002186634993
 30
0.0
 40
0.5000000000001671
100
AcDbArc
 50
90.00000000020843
 51
180.000000000026
  0
ARC
  5
DCE
330
2
100
AcDbEntity
  8
0
  6
Continuous
 62
     7
100
AcDbCircle
 10
1639.499959594452
 20
42.50002186635287
 30
0.0
 40
0.4999999999988347
100
AcDbArc
 50
0.0
 51
89.99999999979156
  0
LINE
  5
DCF
330
2
100
AcDbEntity
  8
0
  6
Continuous
 62
     7
100
AcDbLine
 10
1614.999959594455
 20
42.50002186634993
 30
0.0
 11
1614.999959594455
 21
41.80075712071789
 31
0.0
  0
LINE
  5
DD0
330
2
100
AcDbEntity
  8
0
  6
Continuous
 62
     7
100
AcDbLine
 10
1639.999959594453
 20
41.80075712072175
 30
0.0
 11
1639.999959594453
 21
42.50002186635287
 31
0.0
  0
ARC
  5
DD1
330
2
100
AcDbEntity
  8
0
  6
Continuous
 62
     7
100
AcDbCircle
 10
1647.999959594448
 20
35.00002186635561
 30
0.0
 40
10.49999999999929
100
AcDbArc
 50
139.6324064558089
 51
220.3675935442011
  0
ARC
  5
DD2
330
2
100
AcDbEntity
  8
0
  6
Continuous
 62
     7
100
AcDbCircle
 10
1606.999959594463
 20
35.00002186634993
 30
0.0
 40
10.49999999999929
100
AcDbArc
 50
319.6324064558089
 51
40.36759354420103
  0
LINE
  5
DD3
330
2
100
AcDbEntity
  8
0
  6
Continuous
 62
     7
100
AcDbLine
 10
1614.999959594455
 20
28.19928661198492
 30
0.0
 11
1614.999959594455
 21
27.50002186635175
 31
0.0
  0
LINE
  5
DD4
330
2
100
AcDbEntity
  8
0
  6
Continuous
 62
     7
100
AcDbLine
 10
1639.999959594456
 20
27.50002186635561
 30
0.0
 11
1639.999959594456
 21
28.19928661198765
 31
0.0
  0
ARC
  5
DD5
330
2
100
AcDbEntity
  8
0
  6
Continuous
 62
     7
100
AcDbCircle
 10
1639.499959594452
 20
27.50002186635561
 30
0.0
 40
0.5000000000001671
100
AcDbArc
 50
270.0000000002084
 51
0.0000000000260551
  0
ARC
  5
DD6
330
2
100
AcDbEntity
  8
0
  6
Continuous
 62
     7
100
AcDbCircle
 10
1615.499959594461
 20
27.50002186635175
 30
0.0
 40
0.5000000000006111
100
AcDbArc
 50
180.0
 51
269.9999999997916
  0
LINE
  5
DD7
330
2
100
AcDbEntity
  8
0
  6
Continuous
 62
     7
100
AcDbLine
 10
1639.999959594453
 20
43.50002186635288
 30
0.0
 11
1639.999959594453
 21
47.00002186635288
 31
0.0
  0
LINE
  5
DD8
330
2
100
AcDbEntity
  8
0
  6
Continuous
 62
     7
100
AcDbLine
 10
1614.999959594455
 20
47.00002186634856
 30
0.0
 11
1614.999959594455
 21
43.50002186634992
 31
0.0
  0
ARC
  5
DD9
330
2
100
AcDbEntity
  8
0
  6
Continuous
 62
     7
100
AcDbCircle
 10
1620.999959594457
 20
43.00002186634992
 30
0.0
 40
0.5000000000001671
100
AcDbArc
 50
0.0000000001042204
 51
90.00000000020843
  0
ARC
  5
DDA
330
2
100
AcDbEntity
  8
0
  6
Continuous
 62
     7
100
AcDbCircle
 10
1633.999959594454
 20
43.00002186635288
 30
0.0
 40
0.5000000000006111
100
AcDbArc
 50
89.99999999989578
 51
180.0
  0
LINE
  5
DDB
330
2
100
AcDbEntity
  8
0
  6
Continuous
 62
     7
100
AcDbLine
 10
2706.499959592629
 20
45.4000218658748
 30
0.0
 11
2658.466852601302
 21
45.4000218658748
 31
0.0
  0
LINE
  5
DDC
330
2
100
AcDbEntity
  8
0
  6
Continuous
 62
     7
100
AcDbLine
 10
2638.466852601319
 20
45.4000218658748
 30
0.0
 11
2168.499959614792
 21
45.4000218658748
 31
0.0
  0
LINE
  5
DDD
330
2
100
AcDbEntity
  8
0
  6
Continuous
 62
     7
100
AcDbLine
 10
2167.501882691377
 20
45.4000218658748
 30
0.0
 11
2081.999959594454
 21
45.4000218658748
 31
0.0
  0
LINE
  5
DDE
330
2
100
AcDbEntity
  8
0
  6
Continuous
 62
     7
100
AcDbLine
 10
2056.999959594456
 20
45.4000218658748
 30
0.0
 11
1639.999959594453
 21
45.4000218658748
 31
0.0
  0
LINE
  5
DDF
330
2
100
AcDbEntity
  8
0
  6
Continuous
 62
     7
100
AcDbLine
 10
1614.999959594455
 20
45.4000218658748
 30
0.0
 11
1575.499959593972
 21
45.4000218658748
 31
0.0
  0
LINE
  5
DE0
330
2
100
AcDbEntity
  8
0
  6
Continuous
 62
     7
100
AcDbLine
 10
2688.905635744289
 20
25.4000218658739
 30
0.0
 11
2706.499959592629
 21
25.4000218658739
 31
0.0
  0
LINE
  5
DE1
330
2
100
AcDbEntity
  8
0
  6
Continuous
 62
     7
100
AcDbLine
 10
2188.914397474731
 20
25.4000218658739
 30
0.0
 11
2638.466852601319
 21
25.4000218658739
 31
0.0
  0
LINE
  5
DE2
330
2
100
AcDbEntity
  8
0
  6
Continuous
 62
     7
100
AcDbLine
 10
2658.466852601302
 20
25.4000218658739
 30
0.0
 11
2676.074698909798
 21
25.4000218658739
 31
0.0
  0
LINE
  5
DE3
330
2
100
AcDbEntity
  8
0
  6
Continuous
 62
     7
100
AcDbLine
 10
1575.499959593972
 20
25.4000218658739
 30
0.0
 11
1615.507139273219
 21
25.4000218658739
 31
0.0
  0
LINE
  5
DE4
330
2
100
AcDbEntity
  8
0
  6
Continuous
 62
     7
100
AcDbLine
 10
1639.492779915687
 20
25.4000218658739
 30
0.0
 11
2057.50713927343
 21
25.4000218658739
 31
0.0
  0
LINE
  5
DE5
330
2
100
AcDbEntity
  8
0
  6
Continuous
 62
     7
100
AcDbLine
 10
2081.492779915473
 20
25.4000218658739
 30
0.0
 11
2167.886498064619
 21
25.4000218658739
 31
0.0
  0
LINE
  5
DE6
330
2
100
AcDbEntity
  8
0
  6
Continuous
 62
     7
100
AcDbLine
 10
2168.499959603421
 20
25.4000218658739
 30
0.0
 11
2176.083396043984
 21
25.4000218658739
 31
0.0
  0
LINE
  5
DE7
330
2
100
AcDbEntity
  8
0
  6
Continuous
 62
     7
100
AcDbLine
 10
2138.999959596037
 20
46.50002179833381
 30
0.0
 11
2138.99995959623
 21
48.00002179833382
 31
0.0
  0
LINE
  5
DE8
330
2
100
AcDbEntity
  8
0
  6
Continuous
 62
     7
100
AcDbLine
 10
2127.99995959623
 20
48.00002179974581
 30
0.0
 11
2127.999959596038
 21
46.5000217997458
 31
0.0
  0
LINE
  5
DE9
330
2
100
AcDbEntity
  8
0
  6
Continuous
 62
     7
100
AcDbLine
 10
2125.99995959457
 20
22.50002179887679
 30
0.0
 11
2125.999959594571
 21
22.00002186754978
 31
0.0
  0
LINE
  5
DEA
330
2
100
AcDbEntity
  8
0
  6
Continuous
 62
     7
100
AcDbLine
 10
2136.999959594571
 20
22.00002186754978
 30
0.0
 11
2136.99995959457
 21
22.5000217981767
 31
0.0
  0
LINE
  5
DEB
330
2
100
AcDbEntity
  8
0
  6
Continuous
 62
     7
100
AcDbLine
 10
2116.999959596896
 20
58.50002180008982
 30
0.0
 11
2117.624959596855
 21
57.87502180005072
 31
0.0
  0
LINE
  5
DEC
330
2
100
AcDbEntity
  8
0
  6
Continuous
 62
     7
100
AcDbLine
 10
2117.624959596855
 20
57.87502180005072
 30
0.0
 11
2117.99995959683
 21
57.50002180002685
 31
0.0
  0
LINE
  5
DED
330
2
100
AcDbEntity
  8
0
  6
Continuous
 62
     7
100
AcDbLine
 10
2123.99995959683
 20
57.50002179964486
 30
0.0
 11
2124.374959596854
 21
57.87502179962075
 31
0.0
  0
LINE
  5
DEE
330
2
100
AcDbEntity
  8
0
  6
Continuous
 62
     7
100
AcDbLine
 10
2124.374959596854
 20
57.87502179962075
 30
0.0
 11
2124.999959596894
 21
58.50002179958164
 31
0.0
  0
LINE
  5
DEF
330
2
100
AcDbEntity
  8
0
  6
Continuous
 62
     7
100
AcDbLine
 10
2116.99995959734
 20
65.50002180009073
 30
0.0
 11
2116.999959597213
 21
63.50004116252694
 31
0.0
  0
LINE
  5
DF0
330
2
100
AcDbEntity
  8
0
  6
Continuous
 62
     7
100
AcDbLine
 10
2124.999959597214
 20
63.50004116253081
 30
0.0
 11
2124.99995959734
 21
65.50002179958074
 31
0.0
  0
LINE
  5
DF1
330
2
100
AcDbEntity
  8
0
  6
Continuous
 62
     7
100
AcDbLine
 10
2141.99995963109
 20
58.5000217984998
 30
0.0
 11
2142.624959631049
 21
57.87502179845978
 31
0.0
  0
LINE
  5
DF2
330
2
100
AcDbEntity
  8
0
  6
Continuous
 62
     7
100
AcDbLine
 10
2142.624959631049
 20
57.87502179845978
 30
0.0
 11
2142.999959631026
 21
57.50002179843568
 31
0.0
  0
LINE
  5
DF3
330
2
100
AcDbEntity
  8
0
  6
Continuous
 62
     7
100
AcDbLine
 10
2148.999959631026
 20
57.50002179805369
 30
0.0
 11
2149.374959631051
 21
57.87502179803073
 31
0.0
  0
LINE
  5
DF4
330
2
100
AcDbEntity
  8
0
  6
Continuous
 62
     7
100
AcDbLine
 10
2149.374959631051
 20
57.87502179803073
 30
0.0
 11
2149.99995963109
 21
58.50002179799048
 31
0.0
  0
LINE
  5
DF5
330
2
100
AcDbEntity
  8
0
  6
Continuous
 62
     7
100
AcDbLine
 10
2141.999959631536
 20
65.5000217984998
 30
0.0
 11
2141.999959631407
 21
63.50004116975378
 31
0.0
  0
LINE
  5
DF6
330
2
100
AcDbEntity
  8
0
  6
Continuous
 62
     7
100
AcDbLine
 10
2149.999959631407
 20
63.50004115205797
 30
0.0
 11
2149.999959631536
 21
65.50002179799048
 31
0.0
  0
CIRCLE
  5
DF7
330
2
100
AcDbEntity
  8
0
  6
Continuous
 62
     7
100
AcDbCircle
 10
4281.599959723949
 20
3456.500021972637
 30
0.0
 40
12.49999999999929
  0
CIRCLE
  5
DF8
330
2
100
AcDbEntity
  8
0
  6
Continuous
 62
     7
100
AcDbCircle
 10
4281.599959724082
 20
3456.500021972637
 30
0.0
 40
11.49999999999984
  0
CIRCLE
  5
DF9
330
2
100
AcDbEntity
  8
0
  6
Continuous
 62
     7
100
AcDbCircle
 10
4281.601180293634
 20
3462.000021837201
 30
0.0
 40
1.249999999999751
  0
CIRCLE
  5
DFA
330
2
100
AcDbEntity
  8
0
  6
Continuous
 62
     7
100
AcDbCircle
 10
4281.598739154528
 20
3451.000022108071
 30
0.0
 40
1.250000000000639
  0
LINE
  5
DFB
330
2
100
AcDbEntity
  8
0
  6
Continuous
 62
     7
100
AcDbLine
 10
3563.915528546905
 20
1668.746085189572
 30
0.0
 11
3563.539451015445
 21
1668.094699797377
 31
0.0
  0
ARC
  5
DFC
330
2
100
AcDbEntity
  8
0
  6
Continuous
 62
     7
100
AcDbCircle
 10
3557.999961218411
 20
1656.50002201882
 30
0.0
 40
13.60000000000051
100
AcDbArc
 50
55.78326952585425
 51
64.21673048352582
  0
LINE
  5
DFD
330
2
100
AcDbEntity
  8
0
  6
Continuous
 62
     7
100
AcDbLine
 10
3565.271501823096
 20
1667.094699797518
 30
0.0
 11
3565.647579354556
 21
1667.746085189713
 31
0.0
  0
ARC
  5
DFE
330
2
100
AcDbEntity
  8
0
  6
Continuous
 62
     7
100
AcDbCircle
 10
3557.999961218411
 20
1656.50002201882
 30
0.0
 40
12.84999999999989
100
AcDbArc
 50
304.4633283531952
 51
55.53667165614913
  0
LINE
  5
DFF
330
2
100
AcDbEntity
  8
0
  6
Continuous
 62
     7
100
AcDbLine
 10
3565.271501824821
 20
1645.905344241306
 30
0.0
 11
3565.647579356386
 21
1645.253958849171
 31
0.0
  0
ARC
  5
E00
330
2
100
AcDbEntity
  8
0
  6
Continuous
 62
     7
100
AcDbCircle
 10
3557.999961218411
 20
1656.50002201882
 30
0.0
 40
13.6000000000003
100
AcDbArc
 50
295.7832695258436
 51
304.2167304835616
  0
LINE
  5
E01
330
2
100
AcDbEntity
  8
0
  6
Continuous
 62
     7
100
AcDbLine
 10
3563.9155285489
 20
1644.25395884903
 30
0.0
 11
3563.539451017335
 21
1644.905344241165
 31
0.0
  0
ARC
  5
E02
330
2
100
AcDbEntity
  8
0
  6
Continuous
 62
     7
100
AcDbCircle
 10
3557.999961218411
 20
1656.50002201882
 30
0.0
 40
12.85000000000033
100
AcDbArc
 50
184.4633283531731
 51
295.5366716561446
  0
LINE
  5
E03
330
2
100
AcDbEntity
  8
0
  6
Continuous
 62
     7
100
AcDbLine
 10
3545.188930814969
 20
1655.500022017777
 30
0.0
 11
3544.436775751945
 21
1655.500022017714
 31
0.0
  0
ARC
  5
E04
330
2
100
AcDbEntity
  8
0
  6
Continuous
 62
     7
100
AcDbCircle
 10
3557.999961218411
 20
1656.50002201882
 30
0.0
 40
13.59999999999926
100
AcDbArc
 50
175.7832695258138
 51
184.2167304835087
  0
LINE
  5
E05
330
2
100
AcDbEntity
  8
0
  6
Continuous
 62
     7
100
AcDbLine
 10
3544.436775751782
 20
1657.500022017716
 30
0.0
 11
3545.188930814808
 21
1657.500022017776
 31
0.0
  0
ARC
  5
E06
330
2
100
AcDbEntity
  8
0
  6
Continuous
 62
     7
100
AcDbCircle
 10
3557.999961218411
 20
1656.50002201882
 30
0.0
 40
12.84999999999941
100
AcDbArc
 50
64.46332835320795
 51
175.5366716561571
  0
CIRCLE
  5
E07
330
2
100
AcDbEntity
  8
0
  6
Continuous
 62
     7
100
AcDbCircle
 10
3557.999961217965
 20
1662.00002201882
 30
0.0
 40
1.250000000000194
  0
CIRCLE
  5
E08
330
2
100
AcDbEntity
  8
0
  6
Continuous
 62
     7
100
AcDbCircle
 10
3557.999961218862
 20
1651.000022018818
 30
0.0
 40
1.249999999999751
  0
ARC
  5
E09
330
2
100
AcDbEntity
  8
0
  6
Continuous
 62
     7
100
AcDbCircle
 10
3557.99996121844
 20
1656.500022018781
 30
0.0
 40
13.0000000000001
100
AcDbArc
 50
307.9191486704809
 51
52.01539780918643
  0
ARC
  5
E0A
330
2
100
AcDbEntity
  8
0
  6
Continuous
 62
     7
100
AcDbCircle
 10
3564.005896217014
 20
1666.88889803079
 30
0.0
 40
2.000000000000207
100
AcDbArc
 50
355.9117530122249
 51
124.0227934674537
  0
ARC
  5
E0B
330
2
100
AcDbEntity
  8
0
  6
Continuous
 62
     7
100
AcDbCircle
 10
3557.99996121844
 20
1656.500022018781
 30
0.0
 40
13.0000000000001
100
AcDbArc
 50
67.91914867047925
 51
172.0153978091998
  0
ARC
  5
E0C
330
2
100
AcDbEntity
  8
0
  6
Continuous
 62
     7
100
AcDbCircle
 10
3545.999963175989
 20
1656.506876295025
 30
0.0
 40
2.000000000000361
100
AcDbArc
 50
115.911753012213
 51
179.9672732398551
  0
ARC
  5
E0D
330
2
100
AcDbEntity
  8
0
  6
Continuous
 62
     7
100
AcDbCircle
 10
3545.999963175989
 20
1656.506876295025
 30
0.0
 40
2.00000000000022
100
AcDbArc
 50
179.9672732398551
 51
244.0227934674869
  0
ARC
  5
E0E
330
2
100
AcDbEntity
  8
0
  6
Continuous
 62
     7
100
AcDbCircle
 10
3557.99996121844
 20
1656.500022018781
 30
0.0
 40
12.99999999999978
100
AcDbArc
 50
187.9191486705171
 51
292.0153978092429
  0
ARC
  5
E0F
330
2
100
AcDbEntity
  8
0
  6
Continuous
 62
     7
100
AcDbCircle
 10
3563.994024262312
 20
1646.104291730532
 30
0.0
 40
1.999999999999919
100
AcDbArc
 50
235.911753012262
 51
4.022793467490073
  0
ARC
  5
E10
330
2
100
AcDbEntity
  8
0
  6
Continuous
 62
     7
100
AcDbCircle
 10
3557.99996121844
 20
1656.500022018781
 30
0.0
 40
15.00000000000033
100
AcDbArc
 50
269.9999942849693
 51
89.96727323988116
  0
ARC
  5
E11
330
2
100
AcDbEntity
  8
0
  6
Continuous
 62
     7
100
AcDbCircle
 10
3557.99996121844
 20
1656.500022018781
 30
0.0
 40
14.99999999999975
100
AcDbArc
 50
89.96727323988116
 51
269.9999942849693
  0
LINE
  5
E12
330
2
100
AcDbEntity
  8
0
  6
Continuous
 62
     7
100
AcDbLine
 10
3563.915528549241
 20
3368.74608518956
 30
0.0
 11
3563.53945101778
 21
3368.094699797364
 31
0.0
  0
ARC
  5
E13
330
2
100
AcDbEntity
  8
0
  6
Continuous
 62
     7
100
AcDbCircle
 10
3557.99996122075
 20
3356.500022018805
 30
0.0
 40
13.60000000000001
100
AcDbArc
 50
55.78326952585425
 51
64.21673048352582
  0
LINE
  5
E14
330
2
100
AcDbEntity
  8
0
  6
Continuous
 62
     7
100
AcDbLine
 10
3565.271501825431
 20
3367.094699797505
 30
0.0
 11
3565.647579356889
 21
3367.746085189699
 31
0.0
  0
ARC
  5
E15
330
2
100
AcDbEntity
  8
0
  6
Continuous
 62
     7
100
AcDbCircle
 10
3557.99996122075
 20
3356.500022018805
 30
0.0
 40
12.84999999999989
100
AcDbArc
 50
304.4633283531952
 51
55.53667165614913
  0
LINE
  5
E16
330
2
100
AcDbEntity
  8
0
  6
Continuous
 62
     7
100
AcDbLine
 10
3565.271501827156
 20
3345.905344241292
 30
0.0
 11
3565.647579358721
 21
3345.253958849156
 31
0.0
  0
ARC
  5
E17
330
2
100
AcDbEntity
  8
0
  6
Continuous
 62
     7
100
AcDbCircle
 10
3557.99996122075
 20
3356.500022018805
 30
0.0
 40
13.59999999999943
100
AcDbArc
 50
295.7832695258436
 51
304.2167304834754
  0
LINE
  5
E18
330
2
100
AcDbEntity
  8
0
  6
Continuous
 62
     7
100
AcDbLine
 10
3563.915528551235
 20
3344.253958849014
 30
0.0
 11
3563.539451019668
 21
3344.90534424115
 31
0.0
  0
ARC
  5
E19
330
2
100
AcDbEntity
  8
0
  6
Continuous
 62
     7
100
AcDbCircle
 10
3557.99996122075
 20
3356.500022018805
 30
0.0
 40
12.84999999999993
100
AcDbArc
 50
184.4633283531731
 51
295.5366716561446
  0
LINE
  5
E1A
330
2
100
AcDbEntity
  8
0
  6
Continuous
 62
     7
100
AcDbLine
 10
3545.188930817306
 20
3355.500022017762
 30
0.0
 11
3544.436775754281
 21
3355.500022017701
 31
0.0
  0
ARC
  5
E1B
330
2
100
AcDbEntity
  8
0
  6
Continuous
 62
     7
100
AcDbCircle
 10
3557.99996122075
 20
3356.500022018805
 30
0.0
 40
13.60000000000015
100
AcDbArc
 50
175.7832695258138
 51
184.2167304835087
  0
LINE
  5
E1C
330
2
100
AcDbEntity
  8
0
  6
Continuous
 62
     7
100
AcDbLine
 10
3544.436775754117
 20
3357.5000220177
 30
0.0
 11
3545.188930817143
 21
3357.500022017762
 31
0.0
  0
ARC
  5
E1D
330
2
100
AcDbEntity
  8
0
  6
Continuous
 62
     7
100
AcDbCircle
 10
3557.99996122075
 20
3356.500022018805
 30
0.0
 40
12.85000000000029
100
AcDbArc
 50
64.46332835320795
 51
175.5366716561571
  0
CIRCLE
  5
E1E
330
2
100
AcDbEntity
  8
0
  6
Continuous
 62
     7
100
AcDbCircle
 10
3557.9999612203
 20
3362.000022018805
 30
0.0
 40
1.249999999999751
  0
CIRCLE
  5
E1F
330
2
100
AcDbEntity
  8
0
  6
Continuous
 62
     7
100
AcDbCircle
 10
3557.999961221195
 20
3351.000022018805
 30
0.0
 40
1.249999999999751
  0
ARC
  5
E20
330
2
100
AcDbEntity
  8
0
  6
Continuous
 62
     7
100
AcDbCircle
 10
3557.999961220772
 20
3356.500022018769
 30
0.0
 40
12.99999999999975
100
AcDbArc
 50
307.9191486704809
 51
52.01539780918643
  0
ARC
  5
E21
330
2
100
AcDbEntity
  8
0
  6
Continuous
 62
     7
100
AcDbCircle
 10
3564.005896219348
 20
3366.888898030774
 30
0.0
 40
1.999999999999323
100
AcDbArc
 50
355.9117530122249
 51
124.0227934674537
  0
ARC
  5
E22
330
2
100
AcDbEntity
  8
0
  6
Continuous
 62
     7
100
AcDbCircle
 10
3557.999961220772
 20
3356.500022018769
 30
0.0
 40
13.0000000000001
100
AcDbArc
 50
67.91914867047925
 51
172.0153978091998
  0
ARC
  5
E23
330
2
100
AcDbEntity
  8
0
  6
Continuous
 62
     7
100
AcDbCircle
 10
3545.999963178322
 20
3356.506876295011
 30
0.0
 40
1.999999999999561
100
AcDbArc
 50
115.911753012213
 51
179.9672732398551
  0
ARC
  5
E24
330
2
100
AcDbEntity
  8
0
  6
Continuous
 62
     7
100
AcDbCircle
 10
3545.999963178322
 20
3356.506876295011
 30
0.0
 40
2.00000000000022
100
AcDbArc
 50
179.9672732398421
 51
244.0227934674869
  0
ARC
  5
E25
330
2
100
AcDbEntity
  8
0
  6
Continuous
 62
     7
100
AcDbCircle
 10
3557.999961220772
 20
3356.500022018769
 30
0.0
 40
13.00000000000019
100
AcDbArc
 50
187.9191486705171
 51
292.0153978092429
  0
ARC
  5
E26
330
2
100
AcDbEntity
  8
0
  6
Continuous
 62
     7
100
AcDbCircle
 10
3563.994024264648
 20
3346.104291730518
 30
0.0
 40
2.000000000000288
100
AcDbArc
 50
235.911753012262
 51
4.022793467503069
  0
ARC
  5
E27
330
2
100
AcDbEntity
  8
0
  6
Continuous
 62
     7
100
AcDbCircle
 10
3557.999961220772
 20
3356.500022018769
 30
0.0
 40
14.99999999999988
100
AcDbArc
 50
269.9999942827807
 51
89.96727323988116
  0
ARC
  5
E28
330
2
100
AcDbEntity
  8
0
  6
Continuous
 62
     7
100
AcDbCircle
 10
3557.999961220772
 20
3356.500022018769
 30
0.0
 40
14.99999999999975
100
AcDbArc
 50
89.96727323988116
 51
269.9999942827807
  0
LINE
  5
E29
330
2
100
AcDbEntity
  8
0
  6
Continuous
 62
     7
100
AcDbLine
 10
4309.699959726269
 20
3444.000021926557
 30
0.0
 11
4309.699959725432
 21
3469.000021926552
 31
0.0
  0
LINE
  5
E2A
330
2
100
AcDbEntity
  8
0
  6
Continuous
 62
     7
100
AcDbLine
 10
4309.999959725443
 20
3468.700021926562
 30
0.0
 11
4309.999959726257
 21
3444.300021926566
 31
0.0
  0
LINE
  5
E2B
330
2
100
AcDbEntity
  8
0
  6
Continuous
 62
     7
100
AcDbLine
 10
4303.999959726269
 20
3444.000021926365
 30
0.0
 11
4303.999959725433
 21
3469.000021926361
 31
0.0
  0
LINE
  5
E2C
330
2
100
AcDbEntity
  8
0
  6
Continuous
 62
     4
100
AcDbLine
 10
4302.999959722104
 20
1506.500022022119
 30
0.0
 11
4302.999959724176
 21
3506.50002202212
 31
0.0
  0
LINE
  5
E2D
330
2
100
AcDbEntity
  8
0
  6
Continuous
 62
     4
100
AcDbLine
 10
3516.999959722105
 20
1506.500022022932
 30
0.0
 11
3516.999959724174
 21
3506.500022022932
 31
0.0
  0
LINE
  5
E2E
330
2
100
AcDbEntity
  8
0
  6
Continuous
 62
     4
100
AcDbLine
 10
3516.999959724174
 20
3506.500022022932
 30
0.0
 11
4302.999959724176
 21
3506.50002202212
 31
0.0
  0
ARC
  5
E2F
330
2
100
AcDbEntity
  8
0
  6
Continuous
 62
     4
100
AcDbCircle
 10
3557.99995972226
 20
1656.50002202289
 30
0.0
 40
15.00000000000012
100
AcDbArc
 50
89.96726752484951
 51
269.9999999998958
  0
ARC
  5
E30
330
2
100
AcDbEntity
  8
0
  6
Continuous
 62
     4
100
AcDbCircle
 10
3557.99995972226
 20
1656.50002202289
 30
0.0
 40
15.00000000000013
100
AcDbArc
 50
269.9999999998958
 51
89.96726752484951
  0
ARC
  5
E31
330
2
100
AcDbEntity
  8
0
  6
Continuous
 62
     4
100
AcDbCircle
 10
3557.99995972402
 20
3356.50002202289
 30
0.0
 40
14.99999999999968
100
AcDbArc
 50
89.96726752266088
 51
269.9999999998958
  0
ARC
  5
E32
330
2
100
AcDbEntity
  8
0
  6
Continuous
 62
     4
100
AcDbCircle
 10
3557.99995972402
 20
3356.50002202289
 30
0.0
 40
15.00000000000046
100
AcDbArc
 50
269.9999999998958
 51
89.96726752266088
  0
LINE
  5
E33
330
2
100
AcDbEntity
  8
0
  6
Continuous
 62
     9
100
AcDbLine
 10
4306.49995979077
 20
1506.500021972343
 30
0.0
 11
4306.499959792052
 21
1526.500021972343
 31
0.0
  0
LINE
  5
E34
330
2
100
AcDbEntity
  8
0
  6
Continuous
 62
     7
100
AcDbLine
 10
4308.49995979218
 20
1526.500021972214
 30
0.0
 11
4308.499959790899
 21
1506.500021972215
 31
0.0
  0
LINE
  5
E35
330
2
100
AcDbEntity
  8
0
  6
Continuous
 62
     7
100
AcDbLine
 10
4306.499959792052
 20
1526.500021972343
 30
0.0
 11
4308.49995979218
 21
1526.500021972214
 31
0.0
  0
LINE
  5
E36
330
2
100
AcDbEntity
  8
0
  6
Continuous
 62
     7
100
AcDbLine
 10
4306.499959792052
 20
1526.500021972343
 30
0.0
 11
4302.999959792425
 21
1526.500021972567
 31
0.0
  0
LINE
  5
E37
330
2
100
AcDbEntity
  8
0
  6
Continuous
 62
     7
100
AcDbLine
 10
4316.999959592823
 20
1456.500021971671
 30
0.0
 11
4316.999959596026
 21
1506.500021971671
 31
0.0
  0
LINE
  5
E38
330
2
100
AcDbEntity
  8
0
  6
Continuous
 62
     7
100
AcDbLine
 10
4316.999959592823
 20
1456.500021971671
 30
0.0
 11
3516.999959592823
 21
1456.50002202293
 31
0.0
  0
LINE
  5
E39
330
2
100
AcDbEntity
  8
0
  6
Continuous
 62
     7
100
AcDbLine
 10
3516.999959592823
 20
1456.50002202293
 30
0.0
 11
3516.999959596026
 21
1506.50002202293
 31
0.0
  0
LINE
  5
E3A
330
2
100
AcDbEntity
  8
0
  6
Continuous
 62
     7
100
AcDbLine
 10
4316.999959596026
 20
1506.500021971671
 30
0.0
 11
3516.999959596026
 21
1506.50002202293
 31
0.0
  0
LINE
  5
E3B
330
2
100
AcDbEntity
  8
0
  6
Continuous
 62
     7
100
AcDbLine
 10
4303.999959725449
 20
3468.500021926362
 30
0.0
 11
4302.99995972545
 21
3468.500021926328
 31
0.0
  0
LINE
  5
E3C
330
2
100
AcDbEntity
  8
0
  6
Continuous
 62
     7
100
AcDbLine
 10
4302.999959726253
 20
3444.500021926329
 30
0.0
 11
4303.999959726252
 21
3444.500021926363
 31
0.0
  0
LINE
  5
E3D
330
2
100
AcDbEntity
  8
0
  6
Continuous
 62
     7
100
AcDbLine
 10
4309.699959726269
 20
3444.000021926555
 30
0.0
 11
4309.999959726257
 21
3444.300021926564
 31
0.0
  0
LINE
  5
E3E
330
2
100
AcDbEntity
  8
0
  6
Continuous
 62
     7
100
AcDbLine
 10
4309.999959725443
 20
3468.700021926563
 30
0.0
 11
4309.699959725432
 21
3469.000021926552
 31
0.0
  0
LINE
  5
E3F
330
2
100
AcDbEntity
  8
0
  6
Continuous
 62
     7
100
AcDbLine
 10
4303.999959726269
 20
3444.000021926365
 30
0.0
 11
4309.699959726269
 21
3444.000021926555
 31
0.0
  0
LINE
  5
E40
330
2
100
AcDbEntity
  8
0
  6
Continuous
 62
     7
100
AcDbLine
 10
4309.699959725432
 20
3469.000021926552
 30
0.0
 11
4303.999959725433
 21
3469.000021926361
 31
0.0
  0
ARC
  5
E41
330
2
100
AcDbEntity
  8
0
  6
Continuous
 62
     9
100
AcDbCircle
 10
31.99995939489418
 20
1516.50002197372
 30
0.0
 40
2.999999999999669
100
AcDbArc
 50
270.0000000036477
 51
180.0000000036607
  0
ARC
  5
E42
330
2
100
AcDbEntity
  8
0
  6
Continuous
 62
     7
100
AcDbCircle
 10
758.9999594665624
 20
1656.500022020596
 30
0.0
 40
14.99999999999968
100
AcDbArc
 50
90.00000000010421
 51
318.18968511636
  0
ARC
  5
E43
330
2
100
AcDbEntity
  8
0
  6
Continuous
 62
     9
100
AcDbCircle
 10
758.9999594665624
 20
1656.500022020659
 30
0.0
 40
14.50000000000002
100
AcDbArc
 50
43.60281898524422
 51
316.3971810398379
  0
ARC
  5
E44
330
2
100
AcDbEntity
  8
0
  6
Continuous
 62
     7
100
AcDbCircle
 10
758.9999594665624
 20
1656.500022020596
 30
0.0
 40
14.99999999999979
100
AcDbArc
 50
41.81031490785798
 51
90.00000000010421
  0
LINE
  5
E45
330
2
100
AcDbEntity
  8
0
  6
Continuous
 62
     7
100
AcDbLine
 10
767.4999594666296
 20
1646.500022022955
 30
0.0
 11
767.4999594666115
 21
1666.500022022954
 31
0.0
  0
LINE
  5
E46
330
2
100
AcDbEntity
  8
0
  6
Continuous
 62
     7
100
AcDbLine
 10
748.9999594666024
 20
1646.500022021776
 30
0.0
 11
748.9999594665805
 21
1666.500022021775
 31
0.0
  0
LINE
  5
E47
330
2
100
AcDbEntity
  8
0
  6
Continuous
 62
     7
100
AcDbLine
 10
767.4999594666115
 20
1666.500022022954
 30
0.0
 11
748.9999594665805
 21
1666.500022021775
 31
0.0
  0
LINE
  5
E48
330
2
100
AcDbEntity
  8
0
  6
Continuous
 62
     7
100
AcDbLine
 10
767.4999594666296
 20
1646.500022022955
 30
0.0
 11
748.9999594666024
 21
1646.500022021776
 31
0.0
  0
LINE
  5
E49
330
2
100
AcDbEntity
  8
0
  6
Continuous
 62
     7
100
AcDbLine
 10
789.9999594666078
 20
1666.500022022978
 30
0.0
 11
767.4999594666115
 21
1666.500022022954
 31
0.0
  0
LINE
  5
E4A
330
2
100
AcDbEntity
  8
0
  6
Continuous
 62
     7
100
AcDbLine
 10
789.9999594666296
 20
1646.500022022977
 30
0.0
 11
767.4999594666296
 21
1646.500022022955
 31
0.0
  0
LINE
  5
E4B
330
2
100
AcDbEntity
  8
0
  6
Continuous
 62
     7
100
AcDbLine
 10
799.9999594681103
 20
1676.500022023241
 30
0.0
 11
789.9999594681103
 21
1676.500022023604
 31
0.0
  0
LINE
  5
E4C
330
2
100
AcDbEntity
  8
0
  6
Continuous
 62
     7
100
AcDbLine
 10
799.9999594666551
 20
1636.500022023241
 30
0.0
 11
799.9999594681103
 21
1676.500022023241
 31
0.0
  0
LINE
  5
E4D
330
2
100
AcDbEntity
  8
0
  6
Continuous
 62
     7
100
AcDbLine
 10
799.9999594666551
 20
1636.500022023241
 30
0.0
 11
789.9999594666551
 21
1636.500022023604
 31
0.0
  0
LINE
  5
E4E
330
2
100
AcDbEntity
  8
0
  6
Continuous
 62
     7
100
AcDbLine
 10
789.9999594666551
 20
1636.500022023604
 30
0.0
 11
789.9999594681103
 21
1676.500022023604
 31
0.0
  0
ARC
  5
E4F
330
2
100
AcDbEntity
  8
0
  6
Continuous
 62
     7
100
AcDbCircle
 10
758.9999594642286
 20
3356.500022020582
 30
0.0
 40
14.99999999999968
100
AcDbArc
 50
90.00000000010421
 51
318.18968511636
  0
ARC
  5
E50
330
2
100
AcDbEntity
  8
0
  6
Continuous
 62
     9
100
AcDbCircle
 10
758.9999594642286
 20
3356.500022020644
 30
0.0
 40
14.50000000000002
100
AcDbArc
 50
43.60281898524422
 51
316.3971810398379
  0
ARC
  5
E51
330
2
100
AcDbEntity
  8
0
  6
Continuous
 62
     7
100
AcDbCircle
 10
758.9999594642286
 20
3356.500022020582
 30
0.0
 40
15.00000000000008
100
AcDbArc
 50
41.81031490785798
 51
90.00000000010421
  0
LINE
  5
E52
330
2
100
AcDbEntity
  8
0
  6
Continuous
 62
     7
100
AcDbLine
 10
767.4999594642959
 20
3346.500022022939
 30
0.0
 11
767.4999594642722
 21
3366.50002202294
 31
0.0
  0
LINE
  5
E53
330
2
100
AcDbEntity
  8
0
  6
Continuous
 62
     7
100
AcDbLine
 10
748.9999594642668
 20
3346.500022021762
 30
0.0
 11
748.9999594642467
 21
3366.500022021762
 31
0.0
  0
LINE
  5
E54
330
2
100
AcDbEntity
  8
0
  6
Continuous
 62
     7
100
AcDbLine
 10
767.4999594642722
 20
3366.50002202294
 30
0.0
 11
748.9999594642467
 21
3366.500022021762
 31
0.0
  0
LINE
  5
E55
330
2
100
AcDbEntity
  8
0
  6
Continuous
 62
     7
100
AcDbLine
 10
767.4999594642959
 20
3346.500022022939
 30
0.0
 11
748.9999594642668
 21
3346.500022021762
 31
0.0
  0
LINE
  5
E56
330
2
100
AcDbEntity
  8
0
  6
Continuous
 62
     7
100
AcDbLine
 10
789.9999594642777
 20
3366.500022022965
 30
0.0
 11
767.4999594642722
 21
3366.50002202294
 31
0.0
  0
LINE
  5
E57
330
2
100
AcDbEntity
  8
0
  6
Continuous
 62
     7
100
AcDbLine
 10
789.9999594642959
 20
3346.500022022962
 30
0.0
 11
767.4999594642959
 21
3346.500022022939
 31
0.0
  0
LINE
  5
E58
330
2
100
AcDbEntity
  8
0
  6
Continuous
 62
     7
100
AcDbLine
 10
799.9999594657765
 20
3376.500022023226
 30
0.0
 11
789.9999594657747
 21
3376.500022023589
 31
0.0
  0
LINE
  5
E59
330
2
100
AcDbEntity
  8
0
  6
Continuous
 62
     7
100
AcDbLine
 10
799.9999594643213
 20
3336.500022023226
 30
0.0
 11
799.9999594657765
 21
3376.500022023226
 31
0.0
  0
LINE
  5
E5A
330
2
100
AcDbEntity
  8
0
  6
Continuous
 62
     7
100
AcDbLine
 10
799.9999594643213
 20
3336.500022023226
 30
0.0
 11
789.9999594643213
 21
3336.500022023589
 31
0.0
  0
LINE
  5
E5B
330
2
100
AcDbEntity
  8
0
  6
Continuous
 62
     7
100
AcDbLine
 10
789.9999594643213
 20
3336.500022023589
 30
0.0
 11
789.9999594657747
 21
3376.500022023589
 31
0.0
  0
LINE
  5
E5C
330
2
100
AcDbEntity
  8
0
  6
Continuous
 62
     9
100
AcDbLine
 10
24.99995940344525
 20
1671.500021972064
 30
0.0
 11
24.99995940294502
 21
1656.500021971783
 31
0.0
  0
LINE
  5
E5D
330
2
100
AcDbEntity
  8
0
  6
Continuous
 62
     7
100
AcDbLine
 10
22.49995940344525
 20
1671.500021972148
 30
0.0
 11
22.49995940294502
 21
1656.500021971868
 31
0.0
  0
LINE
  5
E5E
330
2
100
AcDbEntity
  8
0
  6
Continuous
 62
     9
100
AcDbLine
 10
24.99995940294502
 20
1656.500021971783
 30
0.0
 11
24.99995940243389
 21
1641.500021972064
 31
0.0
  0
LINE
  5
E5F
330
2
100
AcDbEntity
  8
0
  6
Continuous
 62
     7
100
AcDbLine
 10
22.49995940294502
 20
1656.500021971868
 30
0.0
 11
22.49995940243389
 21
1641.500021972148
 31
0.0
  0
LINE
  5
E60
330
2
100
AcDbEntity
  8
0
  6
Continuous
 62
     7
100
AcDbLine
 10
25.49995940342524
 20
1671.000021972047
 30
0.0
 11
25.49995940294503
 21
1656.500021971774
 31
0.0
  0
LINE
  5
E61
330
2
100
AcDbEntity
  8
0
  6
Continuous
 62
     7
100
AcDbLine
 10
25.49995940294503
 20
1656.500021971774
 30
0.0
 11
25.4999594024539
 21
1642.000021972046
 31
0.0
  0
LINE
  5
E62
330
2
100
AcDbEntity
  8
0
  6
Continuous
 62
     7
100
AcDbLine
 10
25.4999594036035
 20
1646.500021971859
 30
0.0
 11
31.99995940438384
 21
1646.500021972054
 31
0.0
  0
LINE
  5
E63
330
2
100
AcDbEntity
  8
0
  6
Continuous
 62
     7
100
AcDbLine
 10
25.49995940300323
 20
1666.500021971859
 30
0.0
 11
31.99995940379449
 21
1666.500021972053
 31
0.0
  0
CIRCLE
  5
E64
330
2
100
AcDbEntity
  8
0
  6
Continuous
 62
     7
100
AcDbCircle
 10
51.99995940408371
 20
1656.500021972446
 30
0.0
 40
15.10000000000033
  0
LINE
  5
E65
330
2
100
AcDbEntity
  8
0
  6
Continuous
 62
     7
100
AcDbLine
 10
31.99995940349436
 20
1676.500021971849
 30
0.0
 11
71.99995940349436
 21
1676.500021973043
 31
0.0
  0
LINE
  5
E66
330
2
100
AcDbEntity
  8
0
  6
Continuous
 62
     7
100
AcDbLine
 10
31.99995940468398
 20
1636.500021971848
 30
0.0
 11
31.99995940349436
 21
1676.500021971849
 31
0.0
  0
LINE
  5
E67
330
2
100
AcDbEntity
  8
0
  6
Continuous
 62
     7
100
AcDbLine
 10
71.99995940468397
 20
1636.500021973043
 30
0.0
 11
31.99995940468398
 21
1636.500021971848
 31
0.0
  0
LINE
  5
E68
330
2
100
AcDbEntity
  8
0
  6
Continuous
 62
     7
100
AcDbLine
 10
71.99995940349436
 20
1676.500021973043
 30
0.0
 11
71.99995940468397
 21
1636.500021973043
 31
0.0
  0
LINE
  5
E69
330
2
100
AcDbEntity
  8
0
  6
Continuous
 62
     7
100
AcDbLine
 10
48.74995940475492
 20
1650.000021971924
 30
0.0
 11
55.24995940476583
 21
1650.000021972219
 31
0.0
  0
ARC
  5
E6A
330
2
100
AcDbEntity
  8
0
  6
Continuous
 62
     7
100
AcDbCircle
 10
48.74995940489498
 20
1647.000021971923
 30
0.0
 40
3.000000000000113
100
AcDbArc
 50
90.0000000026055
 51
180.0000000026185
  0
ARC
  5
E6B
330
2
100
AcDbEntity
  8
0
  6
Continuous
 62
     7
100
AcDbCircle
 10
48.74995940489498
 20
1647.000021971923
 30
0.0
 40
2.999999999999669
100
AcDbArc
 50
180.0000000026055
 51
270.0000000026055
  0
LINE
  5
E6C
330
2
100
AcDbEntity
  8
0
  6
Continuous
 62
     7
100
AcDbLine
 10
55.24995940503322
 20
1644.000021972219
 30
0.0
 11
48.74995940503322
 21
1644.000021971924
 31
0.0
  0
ARC
  5
E6D
330
2
100
AcDbEntity
  8
0
  6
Continuous
 62
     7
100
AcDbCircle
 10
55.24995940489498
 20
1647.00002197222
 30
0.0
 40
3.000000000000113
100
AcDbArc
 50
270.0000000026055
 51
0.0000000026185379
  0
ARC
  5
E6E
330
2
100
AcDbEntity
  8
0
  6
Continuous
 62
     7
100
AcDbCircle
 10
55.24995940489498
 20
1647.00002197222
 30
0.0
 40
3.000000000000113
100
AcDbArc
 50
0.0000000026055104
 51
90.0000000026055
  0
LINE
  5
E6F
330
2
100
AcDbEntity
  8
0
  6
Continuous
 62
     7
100
AcDbLine
 10
48.74995940389453
 20
1669.000021971924
 30
0.0
 11
55.24995940389453
 21
1669.00002197222
 31
0.0
  0
ARC
  5
E70
330
2
100
AcDbEntity
  8
0
  6
Continuous
 62
     7
100
AcDbCircle
 10
48.7499594040346
 20
1666.000021971924
 30
0.0
 40
3.000000000000113
100
AcDbArc
 50
90.0000000026055
 51
180.0000000026185
  0
ARC
  5
E71
330
2
100
AcDbEntity
  8
0
  6
Continuous
 62
     7
100
AcDbCircle
 10
48.7499594040346
 20
1666.000021971924
 30
0.0
 40
3.000000000000113
100
AcDbArc
 50
180.0000000026185
 51
270.0000000026055
  0
LINE
  5
E72
330
2
100
AcDbEntity
  8
0
  6
Continuous
 62
     7
100
AcDbLine
 10
55.24995940416556
 20
1663.00002197222
 30
0.0
 11
48.74995940416557
 21
1663.000021971923
 31
0.0
  0
ARC
  5
E73
330
2
100
AcDbEntity
  8
0
  6
Continuous
 62
     7
100
AcDbCircle
 10
55.2499594040346
 20
1666.000021972219
 30
0.0
 40
3.000000000000113
100
AcDbArc
 50
270.0000000026055
 51
0.0000000026185379
  0
ARC
  5
E74
330
2
100
AcDbEntity
  8
0
  6
Continuous
 62
     7
100
AcDbCircle
 10
55.2499594040346
 20
1666.000021972219
 30
0.0
 40
3.000000000000113
100
AcDbArc
 50
0.0000000026055104
 51
90.0000000026055
  0
CIRCLE
  5
E75
330
2
100
AcDbEntity
  8
0
  6
Continuous
 62
     7
100
AcDbCircle
 10
51.99995940446569
 20
1656.500021972072
 30
0.0
 40
14.99999999999968
  0
LINE
  5
E76
330
2
100
AcDbEntity
  8
0
  6
Continuous
 62
     9
100
AcDbLine
 10
24.99995946086528
 20
3371.500021972668
 30
0.0
 11
24.99995946036506
 21
3356.500021972388
 31
0.0
  0
LINE
  5
E77
330
2
100
AcDbEntity
  8
0
  6
Continuous
 62
     7
100
AcDbLine
 10
22.49995946086528
 20
3371.500021972752
 30
0.0
 11
22.49995946035415
 21
3356.500021972472
 31
0.0
  0
LINE
  5
E78
330
2
100
AcDbEntity
  8
0
  6
Continuous
 62
     9
100
AcDbLine
 10
24.99995946036506
 20
3356.500021972388
 30
0.0
 11
24.99995945985393
 21
3341.500021972669
 31
0.0
  0
LINE
  5
E79
330
2
100
AcDbEntity
  8
0
  6
Continuous
 62
     7
100
AcDbLine
 10
22.49995946035415
 20
3356.500021972472
 30
0.0
 11
22.49995945985393
 21
3341.500021972752
 31
0.0
  0
LINE
  5
E7A
330
2
100
AcDbEntity
  8
0
  6
Continuous
 62
     7
100
AcDbLine
 10
25.49995946084528
 20
3371.000021972652
 30
0.0
 11
25.49995946035415
 21
3356.500021972381
 31
0.0
  0
LINE
  5
E7B
330
2
100
AcDbEntity
  8
0
  6
Continuous
 62
     7
100
AcDbLine
 10
25.49995946035415
 20
3356.500021972381
 30
0.0
 11
25.49995945987575
 21
3342.000021972652
 31
0.0
  0
LINE
  5
E7C
330
2
100
AcDbEntity
  8
0
  6
Continuous
 62
     7
100
AcDbLine
 10
25.49995946102536
 20
3346.500021972465
 30
0.0
 11
31.9999594618148
 21
3346.500021972659
 31
0.0
  0
LINE
  5
E7D
330
2
100
AcDbEntity
  8
0
  6
Continuous
 62
     7
100
AcDbLine
 10
25.49995946042509
 20
3366.500021972463
 30
0.0
 11
31.99995946121453
 21
3366.500021972659
 31
0.0
  0
CIRCLE
  5
E7E
330
2
100
AcDbEntity
  8
0
  6
Continuous
 62
     7
100
AcDbCircle
 10
51.99995946151648
 20
3356.50002197305
 30
0.0
 40
15.10000000000033
  0
LINE
  5
E7F
330
2
100
AcDbEntity
  8
0
  6
Continuous
 62
     7
100
AcDbLine
 10
31.9999594609144
 20
3376.500021972454
 30
0.0
 11
71.9999594609144
 21
3376.500021973646
 31
0.0
  0
LINE
  5
E80
330
2
100
AcDbEntity
  8
0
  6
Continuous
 62
     7
100
AcDbLine
 10
31.99995946210402
 20
3336.500021972453
 30
0.0
 11
31.9999594609144
 21
3376.500021972454
 31
0.0
  0
LINE
  5
E81
330
2
100
AcDbEntity
  8
0
  6
Continuous
 62
     7
100
AcDbLine
 10
71.99995946210401
 20
3336.500021973647
 30
0.0
 11
31.99995946210402
 21
3336.500021972453
 31
0.0
  0
LINE
  5
E82
330
2
100
AcDbEntity
  8
0
  6
Continuous
 62
     7
100
AcDbLine
 10
71.9999594609144
 20
3376.500021973646
 30
0.0
 11
71.99995946210401
 21
3336.500021973647
 31
0.0
  0
LINE
  5
E83
330
2
100
AcDbEntity
  8
0
  6
Continuous
 62
     7
100
AcDbLine
 10
48.74995946218405
 20
3350.000021972529
 30
0.0
 11
55.24995946218405
 21
3350.000021972824
 31
0.0
  0
ARC
  5
E84
330
2
100
AcDbEntity
  8
0
  6
Continuous
 62
     7
100
AcDbCircle
 10
48.74995946231502
 20
3347.000021972529
 30
0.0
 40
3.000000000000113
100
AcDbArc
 50
90.0000000026055
 51
180.0000000026185
  0
ARC
  5
E85
330
2
100
AcDbEntity
  8
0
  6
Continuous
 62
     7
100
AcDbCircle
 10
48.74995946231502
 20
3347.000021972529
 30
0.0
 40
3.000000000000113
100
AcDbArc
 50
180.0000000026185
 51
270.0000000026055
  0
LINE
  5
E86
330
2
100
AcDbEntity
  8
0
  6
Continuous
 62
     7
100
AcDbLine
 10
55.24995946245508
 20
3344.000021972823
 30
0.0
 11
48.74995946245508
 21
3344.000021972528
 31
0.0
  0
ARC
  5
E87
330
2
100
AcDbEntity
  8
0
  6
Continuous
 62
     7
100
AcDbCircle
 10
55.24995946231502
 20
3347.000021972823
 30
0.0
 40
3.000000000000113
100
AcDbArc
 50
270.0000000026055
 51
0.0000000026185379
  0
ARC
  5
E88
330
2
100
AcDbEntity
  8
0
  6
Continuous
 62
     7
100
AcDbCircle
 10
55.24995946231502
 20
3347.000021972823
 30
0.0
 40
3.000000000000113
100
AcDbArc
 50
0.0000000026055104
 51
90.0000000026055
  0
LINE
  5
E89
330
2
100
AcDbEntity
  8
0
  6
Continuous
 62
     7
100
AcDbLine
 10
48.74995946131457
 20
3369.000021972529
 30
0.0
 11
55.24995946131458
 21
3369.000021972825
 31
0.0
  0
ARC
  5
E8A
330
2
100
AcDbEntity
  8
0
  6
Continuous
 62
     7
100
AcDbCircle
 10
48.74995946145464
 20
3366.00002197253
 30
0.0
 40
3.000000000000113
100
AcDbArc
 50
90.0000000026055
 51
180.0000000026185
  0
ARC
  5
E8B
330
2
100
AcDbEntity
  8
0
  6
Continuous
 62
     7
100
AcDbCircle
 10
48.74995946145464
 20
3366.00002197253
 30
0.0
 40
3.000000000000113
100
AcDbArc
 50
180.0000000026055
 51
270.0000000026055
  0
LINE
  5
E8C
330
2
100
AcDbEntity
  8
0
  6
Continuous
 62
     7
100
AcDbLine
 10
55.24995946158378
 20
3363.000021972825
 30
0.0
 11
48.7499594615947
 21
3363.000021972529
 31
0.0
  0
ARC
  5
E8D
330
2
100
AcDbEntity
  8
0
  6
Continuous
 62
     7
100
AcDbCircle
 10
55.24995946145463
 20
3366.000021972825
 30
0.0
 40
2.999999999998336
100
AcDbArc
 50
270.0000000026055
 51
0.0000000026185379
  0
ARC
  5
E8E
330
2
100
AcDbEntity
  8
0
  6
Continuous
 62
     7
100
AcDbCircle
 10
55.24995946145463
 20
3366.000021972825
 30
0.0
 40
2.999999999999225
100
AcDbArc
 50
0.0000000026185379
 51
90.0000000026055
  0
CIRCLE
  5
E8F
330
2
100
AcDbEntity
  8
0
  6
Continuous
 62
     7
100
AcDbCircle
 10
51.99995946188392
 20
3356.500021972677
 30
0.0
 40
14.99999999999968
  0
LINE
  5
E90
330
2
100
AcDbEntity
  8
0
  6
Continuous
 62
     7
100
AcDbLine
 10
37.39995946367526
 20
3476.500021972559
 30
0.0
 11
35.39996328632333
 21
3476.500021972626
 31
0.0
  0
LINE
  5
E91
330
2
100
AcDbEntity
  8
0
  6
Continuous
 62
     7
100
AcDbLine
 10
35.39996328632333
 20
3476.500021972626
 30
0.0
 11
33.39995946367526
 21
3476.500021972692
 31
0.0
  0
LINE
  5
E92
330
2
100
AcDbEntity
  8
0
  6
Continuous
 62
     7
100
AcDbLine
 10
36.14995946333511
 20
3466.5000219726
 30
0.0
 11
34.64995946333511
 21
3466.500021972651
 31
0.0
  0
ARC
  5
E93
330
2
100
AcDbEntity
  8
0
  6
Continuous
 62
     7
100
AcDbCircle
 10
28.39995946328418
 20
3464.800021972861
 30
0.0
 40
2.000000000000667
100
AcDbArc
 50
89.99999999801982
 51
179.9999999980719
  0
ARC
  5
E94
330
2
100
AcDbEntity
  8
0
  6
Continuous
 62
     7
100
AcDbCircle
 10
35.39995946300405
 20
3456.500021972625
 30
0.0
 40
10.09999999999949
100
AcDbArc
 50
153.0104244475834
 51
26.98957554860672
  0
ARC
  5
E95
330
2
100
AcDbEntity
  8
0
  6
Continuous
 62
     7
100
AcDbCircle
 10
42.39995946328417
 20
3464.800021972391
 30
0.0
 40
1.999999999999779
100
AcDbArc
 50
359.9999999980589
 51
89.99999999801982
  0
LINE
  5
E96
330
2
100
AcDbEntity
  8
0
  6
Continuous
 62
     7
100
AcDbLine
 10
47.39995946300405
 20
3456.500021972225
 30
0.0
 11
47.39995946326416
 21
3464.500021972224
 31
0.0
  0
ARC
  5
E97
330
2
100
AcDbEntity
  8
0
  6
Continuous
 62
     7
100
AcDbCircle
 10
35.39995946300405
 20
3456.500021972625
 30
0.0
 40
12.00000000000045
100
AcDbArc
 50
179.9999999980849
 51
359.999999998085
  0
LINE
  5
E98
330
2
100
AcDbEntity
  8
0
  6
Continuous
 62
     7
100
AcDbLine
 10
23.39995946327508
 20
3464.500021973027
 30
0.0
 11
23.39995946300405
 21
3456.500021973027
 31
0.0
  0
LINE
  5
E99
330
2
100
AcDbEntity
  8
0
  6
Continuous
 62
     7
100
AcDbLine
 10
28.39995946334602
 20
3466.80002197286
 30
0.0
 11
42.39995946334602
 21
3466.800021972391
 31
0.0
  0
ARC
  5
E9A
330
2
100
AcDbEntity
  8
0
  6
Continuous
 62
     7
100
AcDbCircle
 10
35.39995946327508
 20
3464.500021972626
 30
0.0
 40
12.00000000000045
100
AcDbArc
 50
359.999999998085
 51
179.9999999980719
  0
LINE
  5
E9B
330
2
100
AcDbEntity
  8
0
  6
Continuous
 62
     7
100
AcDbLine
 10
44.39995946327508
 20
3464.800021972325
 30
0.0
 11
44.3999594631532
 21
3461.08368862687
 31
0.0
  0
LINE
  5
E9C
330
2
100
AcDbEntity
  8
0
  6
Continuous
 62
     7
100
AcDbLine
 10
26.39995946315321
 20
3461.083688627474
 30
0.0
 11
26.39995946328418
 21
3464.800021972928
 31
0.0
  0
CIRCLE
  5
E9D
330
2
100
AcDbEntity
  8
0
  6
Continuous
 62
     7
100
AcDbCircle
 10
35.39995946297495
 20
3456.500021972622
 30
0.0
 40
6.199999999999761
  0
CIRCLE
  5
E9E
330
2
100
AcDbEntity
  8
0
  6
Continuous
 62
     7
100
AcDbCircle
 10
35.39995946297495
 20
3456.500021972622
 30
0.0
 40
3.199999999999647
  0
ARC
  5
E9F
330
2
100
AcDbEntity
  8
0
  6
Continuous
 62
     7
100
AcDbCircle
 10
29.39995946324598
 20
3463.800021972846
 30
0.0
 40
3.000000000000113
100
AcDbArc
 50
89.99999999812402
 51
179.9999999980849
  0
ARC
  5
EA0
330
2
100
AcDbEntity
  8
0
  6
Continuous
 62
     7
100
AcDbCircle
 10
41.39995946324598
 20
3463.800021972444
 30
0.0
 40
3.000000000000113
100
AcDbArc
 50
359.9999999980719
 51
89.99999999801982
  0
LINE
  5
EA1
330
2
100
AcDbEntity
  8
0
  6
Continuous
 62
     7
100
AcDbLine
 10
7.299959463425693
 20
3469.000021926549
 30
0.0
 11
7.299959462994593
 21
3456.408497746439
 31
0.0
  0
LINE
  5
EA2
330
2
100
AcDbEntity
  8
0
  6
Continuous
 62
     7
100
AcDbLine
 10
6.999959462595143
 20
3444.300021926564
 30
0.0
 11
6.999959463004415
 21
3456.410694326771
 31
0.0
  0
LINE
  5
EA3
330
2
100
AcDbEntity
  8
0
  6
Continuous
 62
     7
100
AcDbLine
 10
7.299959462994593
 20
3456.408497746439
 30
0.0
 11
7.299959462583501
 21
3444.000021926556
 31
0.0
  0
LINE
  5
EA4
330
2
100
AcDbEntity
  8
0
  6
Continuous
 62
     7
100
AcDbLine
 10
6.999959463004415
 20
3456.410694326771
 30
0.0
 11
6.999959463415507
 21
3468.70002192656
 31
0.0
  0
LINE
  5
EA5
330
2
100
AcDbEntity
  8
0
  6
Continuous
 62
     7
100
AcDbLine
 10
12.99995946341551
 20
3469.00002192636
 30
0.0
 11
12.99995946299532
 21
3456.408497746247
 31
0.0
  0
LINE
  5
EA6
330
2
100
AcDbEntity
  8
0
  6
Continuous
 62
     7
100
AcDbLine
 10
12.99995946299532
 20
3456.408497746247
 30
0.0
 11
12.99995946258423
 21
3444.000021926365
 31
0.0
  0
LINE
  5
EA7
330
2
100
AcDbEntity
  8
0
  6
Continuous
 62
     7
100
AcDbLine
 10
36.99995946290437
 20
3453.728740680469
 30
0.0
 11
36.99995946309537
 21
3459.271303264666
 31
0.0
  0
LINE
  5
EA8
330
2
100
AcDbEntity
  8
0
  6
Continuous
 62
     7
100
AcDbLine
 10
37.99995946306444
 20
3458.365497783123
 30
0.0
 11
37.99995946293348
 21
3454.634546161945
 31
0.0
  0
LINE
  5
EA9
330
2
100
AcDbEntity
  8
0
  6
Continuous
 62
     7
100
AcDbLine
 10
23.49995946410491
 20
3469.000021926806
 30
0.0
 11
23.49995946384479
 21
3466.045984460468
 31
0.0
  0
LINE
  5
EAA
330
2
100
AcDbEntity
  8
0
  6
Continuous
 62
     7
100
AcDbLine
 10
23.49995946286617
 20
3454.954059490285
 30
0.0
 11
23.49995946189483
 21
3444.000021926812
 31
0.0
  0
LINE
  5
EAB
330
2
100
AcDbEntity
  8
0
  6
Continuous
 62
     7
100
AcDbLine
 10
24.99995946247509
 20
3450.513370154702
 30
0.0
 11
24.99995946237504
 21
3449.500021926676
 31
0.0
  0
LINE
  5
EAC
330
2
100
AcDbEntity
  8
0
  6
Continuous
 62
     7
100
AcDbLine
 10
26.40023300334542
 20
3461.614345212775
 30
0.0
 11
26.84473332438392
 21
3462.292736247384
 31
0.0
  0
LINE
  5
EAD
330
2
100
AcDbEntity
  8
0
  6
Continuous
 62
     7
100
AcDbLine
 10
26.84473332438392
 20
3462.292736247384
 30
0.0
 11
26.99993234701469
 21
3462.500021926496
 31
0.0
  0
LINE
  5
EAE
330
2
100
AcDbEntity
  8
0
  6
Continuous
 62
     7
100
AcDbLine
 10
26.85177095949621
 20
3462.28352418656
 30
0.0
 11
27.85848967656602
 21
3463.500021926416
 31
0.0
  0
ARC
  5
EAF
330
2
100
AcDbEntity
  8
0
  6
Continuous
 62
     7
100
AcDbCircle
 10
34.64540391524497
 20
3456.730052528936
 30
0.0
 40
9.586171838958399
100
AcDbArc
 50
135.0716143477752
 51
149.3330344700932
  0
LINE
  5
EB0
330
2
100
AcDbEntity
  8
0
  6
Continuous
 62
     7
100
AcDbLine
 10
26.99993234701469
 20
3462.500021926496
 30
0.0
 11
26.84985868548392
 21
3462.289050095566
 31
0.0
  0
LINE
  5
EB1
330
2
100
AcDbEntity
  8
0
  6
Continuous
 62
     7
100
AcDbLine
 10
62.69995946184462
 20
3426.000021971667
 30
0.0
 11
62.69995946226481
 21
3438.500021971952
 31
0.0
  0
LINE
  5
EB2
330
2
100
AcDbEntity
  8
0
  6
Continuous
 62
     7
100
AcDbLine
 10
62.69995946226481
 20
3438.500021971952
 30
0.0
 11
62.69995946268318
 21
3451.000021971668
 31
0.0
  0
LINE
  5
EB3
330
2
100
AcDbEntity
  8
0
  6
Continuous
 62
     7
100
AcDbLine
 10
62.99995946267336
 20
3450.700021971658
 30
0.0
 11
62.99995946226591
 21
3438.500021971935
 31
0.0
  0
LINE
  5
EB4
330
2
100
AcDbEntity
  8
0
  6
Continuous
 62
     7
100
AcDbLine
 10
62.99995946226591
 20
3438.500021971935
 30
0.0
 11
62.99995946185299
 21
3426.300021971658
 31
0.0
  0
LINE
  5
EB5
330
2
100
AcDbEntity
  8
0
  6
Continuous
 62
     7
100
AcDbLine
 10
62.69995946311428
 20
3464.00002197173
 30
0.0
 11
62.69995946353265
 21
3476.500021971908
 31
0.0
  0
LINE
  5
EB6
330
2
100
AcDbEntity
  8
0
  6
Continuous
 62
     7
100
AcDbLine
 10
62.69995946353265
 20
3476.500021971908
 30
0.0
 11
62.69995946395465
 21
3489.00002197173
 31
0.0
  0
LINE
  5
EB7
330
2
100
AcDbEntity
  8
0
  6
Continuous
 62
     7
100
AcDbLine
 10
62.99995946394483
 20
3488.700021971722
 30
0.0
 11
62.99995946353374
 21
3476.500021971895
 31
0.0
  0
LINE
  5
EB8
330
2
100
AcDbEntity
  8
0
  6
Continuous
 62
     7
100
AcDbLine
 10
62.99995946353374
 20
3476.500021971895
 30
0.0
 11
62.99995946312447
 21
3464.300021971722
 31
0.0
  0
LINE
  5
EB9
330
2
100
AcDbEntity
  8
0
  6
Continuous
 62
     9
100
AcDbLine
 10
25.49995946306444
 20
3458.500021972953
 30
0.0
 11
25.49995946304444
 21
3457.910695570865
 31
0.0
  0
LINE
  5
EBA
330
2
100
AcDbEntity
  8
0
  6
Continuous
 62
     9
100
AcDbLine
 10
25.4999594629553
 20
3455.089348375061
 30
0.0
 11
25.49995946293348
 21
3454.500021972962
 31
0.0
  0
LINE
  5
EBB
330
2
100
AcDbEntity
  8
0
  6
Continuous
 62
     9
100
AcDbLine
 10
26.59995946283379
 20
3451.543208480361
 30
0.0
 11
26.59995946284471
 21
3451.750285138126
 31
0.0
  0
LINE
  5
EBC
330
2
100
AcDbEntity
  8
0
  6
Continuous
 62
     9
100
AcDbLine
 10
26.59995946316485
 20
3461.249758807725
 30
0.0
 11
26.59995946318486
 21
3461.936102686453
 31
0.0
  0
LINE
  5
EBD
330
2
100
AcDbEntity
  8
0
  6
Continuous
 62
     7
100
AcDbLine
 10
26.79995946319468
 20
3462.300021972919
 30
0.0
 11
26.79995946317467
 21
3461.602962301784
 31
0.0
  0
LINE
  5
EBE
330
2
100
AcDbEntity
  8
0
  6
Continuous
 62
     7
100
AcDbLine
 10
26.79995946283452
 20
3451.397081644051
 30
0.0
 11
26.79995946282361
 21
3451.203796902185
 31
0.0
  0
LINE
  5
EBF
330
2
100
AcDbEntity
  8
0
  6
Continuous
 62
     7
100
AcDbLine
 10
35.29995946289455
 20
3453.301584854279
 30
0.0
 11
35.29995946311465
 21
3459.698459090971
 31
0.0
  0
LINE
  5
EC0
330
2
100
AcDbEntity
  8
0
  6
Continuous
 62
     7
100
AcDbLine
 10
36.29995946310373
 20
3459.570852479143
 30
0.0
 11
36.29995946289455
 21
3453.42919146604
 31
0.0
  0
LINE
  5
EC1
330
2
100
AcDbEntity
  8
0
  6
Continuous
 62
     7
100
AcDbLine
 10
26.79995946319468
 20
3462.299684137621
 30
0.0
 11
26.79995946317467
 21
3461.602962302166
 31
0.0
  0
LINE
  5
EC2
330
2
100
AcDbEntity
  8
0
  6
Continuous
 62
     7
100
AcDbLine
 10
26.79995946283452
 20
3451.397081643668
 30
0.0
 11
26.79995946282361
 21
3451.203796901918
 31
0.0
  0
CIRCLE
  5
EC3
330
2
100
AcDbEntity
  8
0
  6
Continuous
 62
     7
100
AcDbCircle
 10
35.39995946300405
 20
3456.500021972631
 30
0.0
 40
8.499999999999728
  0
CIRCLE
  5
EC4
330
2
100
AcDbEntity
  8
0
  6
Continuous
 62
     7
100
AcDbCircle
 10
35.39995946300405
 20
3456.500021972631
 30
0.0
 40
9.999999999999786
  0
LINE
  5
EC5
330
2
100
AcDbEntity
  8
0
  6
Continuous
 62
     4
100
AcDbLine
 10
799.9999594667443
 20
1506.500022022932
 30
0.0
 11
799.9999594666078
 21
1636.500022023241
 31
0.0
  0
LINE
  5
EC6
330
2
100
AcDbEntity
  8
0
  6
Continuous
 62
     4
100
AcDbLine
 10
799.9999594665678
 20
1676.500022023241
 30
0.0
 11
799.9999594648507
 21
3336.500022023226
 31
0.0
  0
LINE
  5
EC7
330
2
100
AcDbEntity
  8
0
  6
Continuous
 62
     4
100
AcDbLine
 10
799.9999594648088
 20
3376.500022023226
 30
0.0
 11
799.9999594646742
 21
3506.500022022932
 31
0.0
  0
LINE
  5
EC8
330
2
100
AcDbEntity
  8
0
  6
Continuous
 62
     4
100
AcDbLine
 10
58.4999594449946
 20
3506.500022022166
 30
0.0
 11
799.9999594646742
 21
3506.500022022932
 31
0.0
  0
ARC
  5
EC9
330
2
100
AcDbEntity
  8
0
  6
Continuous
 62
     7
100
AcDbCircle
 10
24.49995941485395
 20
1525.500021977109
 30
0.0
 40
2.000000000000254
100
AcDbArc
 50
120.000000682838
 51
150.000000131665
  0
LINE
  5
ECA
330
2
100
AcDbEntity
  8
0
  6
Continuous
 62
     9
100
AcDbLine
 10
43.24995941481574
 20
1525.500021974539
 30
0.0
 11
43.23201020183478
 21
1525.500021974537
 31
0.0
  0
LINE
  5
ECB
330
2
100
AcDbEntity
  8
0
  6
Continuous
 62
     7
100
AcDbLine
 10
43.24995941481574
 20
1525.500021974539
 30
0.0
 11
43.24995941479392
 21
1525.829178140314
 31
0.0
  0
LINE
  5
ECC
330
2
100
AcDbEntity
  8
0
  6
Continuous
 62
     7
100
AcDbLine
 10
43.24995941481574
 20
1525.500021974539
 30
0.0
 11
43.24995941481574
 21
1525.468267773947
 31
0.0
  0
LINE
  5
ECD
330
2
100
AcDbEntity
  8
0
  6
Continuous
 62
     7
100
AcDbLine
 10
43.24995941596535
 20
1507.531776174935
 30
0.0
 11
43.24995941603265
 21
1506.500021974537
 31
0.0
  0
LINE
  5
ECE
330
2
100
AcDbEntity
  8
0
  6
Continuous
 62
     9
100
AcDbLine
 10
56.79995678057458
 20
1527.500021971348
 30
0.0
 11
56.79995677997431
 21
1509.500021975311
 31
0.0
  0
LINE
  5
ECF
330
2
100
AcDbEntity
  8
0
  6
Continuous
 62
     9
100
AcDbLine
 10
57.59995682741465
 20
1527.50002197189
 30
0.0
 11
57.59995682715453
 21
1519.600019435016
 31
0.0
  0
LINE
  5
ED0
330
2
100
AcDbEntity
  8
0
  6
Continuous
 62
     9
100
AcDbLine
 10
57.59995682694534
 20
1513.400024571659
 30
0.0
 11
57.59995682681438
 21
1509.500021975363
 31
0.0
  0
LINE
  5
ED1
330
2
100
AcDbEntity
  8
0
  6
Continuous
 62
     7
100
AcDbLine
 10
55.99995878013396
 20
1514.500021971942
 30
0.0
 11
55.99995877997571
 21
1509.500021975261
 31
0.0
  0
LINE
  5
ED2
330
2
100
AcDbEntity
  8
0
  6
Continuous
 62
     9
100
AcDbLine
 10
47.19996078057374
 20
1527.50002197167
 30
0.0
 11
47.19996078039549
 21
1522.000021974696
 31
0.0
  0
LINE
  5
ED3
330
2
100
AcDbEntity
  8
0
  6
Continuous
 62
     9
100
AcDbLine
 10
47.19996078002441
 20
1511.000021974696
 30
0.0
 11
47.1999607799753
 21
1509.500021974697
 31
0.0
  0
LINE
  5
ED4
330
2
100
AcDbEntity
  8
0
  6
Continuous
 62
     7
100
AcDbLine
 10
47.99996008826565
 20
1511.00002197446
 30
0.0
 11
47.99996077997457
 21
1509.500021974747
 31
0.0
  0
LINE
  5
ED5
330
2
100
AcDbEntity
  8
0
  6
Continuous
 62
     7
100
AcDbLine
 10
47.99996014097451
 20
1511.00002197446
 30
0.0
 11
47.99996088537409
 21
1509.500021974749
 31
0.0
  0
LINE
  5
ED6
330
2
100
AcDbEntity
  8
0
  6
Continuous
 62
     7
100
AcDbLine
 10
46.39996082741527
 20
1527.500021972264
 30
0.0
 11
46.39996082739526
 21
1526.768131137978
 31
0.0
  0
LINE
  5
ED7
330
2
100
AcDbEntity
  8
0
  6
Continuous
 62
     7
100
AcDbLine
 10
57.59995755352429
 20
1527.50002197189
 30
0.0
 11
57.59995755325326
 21
1519.600020161117
 31
0.0
  0
LINE
  5
ED8
330
2
100
AcDbEntity
  8
0
  6
Continuous
 62
     7
100
AcDbLine
 10
57.5999575530459
 20
1513.400023845557
 30
0.0
 11
57.59995755292402
 21
1509.500021975363
 31
0.0
  0
LINE
  5
ED9
330
2
100
AcDbEntity
  8
0
  6
Continuous
 62
     9
100
AcDbLine
 10
55.44995936570376
 20
1514.500021971959
 30
0.0
 11
55.44995936553459
 21
1509.500021975225
 31
0.0
  0
LINE
  5
EDA
330
2
100
AcDbEntity
  8
0
  6
Continuous
 62
     7
100
AcDbLine
 10
54.99995939205473
 20
1514.500021971975
 30
0.0
 11
54.99995939188375
 21
1509.500021975197
 31
0.0
  0
LINE
  5
EDB
330
2
100
AcDbEntity
  8
0
  6
Continuous
 62
     9
100
AcDbLine
 10
48.54996136570298
 20
1514.500021972191
 30
0.0
 11
48.54996136553381
 21
1509.500021974783
 31
0.0
  0
LINE
  5
EDC
330
2
100
AcDbEntity
  8
0
  6
Continuous
 62
     7
100
AcDbLine
 10
48.99996139205359
 20
1514.500021972175
 30
0.0
 11
48.99996139188442
 21
1509.500021974813
 31
0.0
  0
LINE
  5
EDD
330
2
100
AcDbEntity
  8
0
  6
Continuous
 62
     7
100
AcDbLine
 10
58.4999594120145
 20
2520.500021971291
 30
0.0
 11
74.99995943168324
 21
2520.500021970432
 31
0.0
  0
LINE
  5
EDE
330
2
100
AcDbEntity
  8
0
  6
Continuous
 62
     9
100
AcDbLine
 10
74.99995943168324
 20
2520.500021970432
 30
0.0
 11
74.99995943163412
 21
2519.500021970368
 31
0.0
  0
LINE
  5
EDF
330
2
100
AcDbEntity
  8
0
  6
Continuous
 62
     9
100
AcDbLine
 10
74.99995943163412
 20
2519.500021970368
 30
0.0
 11
58.49995941198358
 21
2519.500021971229
 31
0.0
  0
ARC
  5
EE0
330
2
100
AcDbEntity
  8
0
  6
Continuous
 62
     7
100
AcDbCircle
 10
74.99995943163412
 20
2519.500021970431
 30
0.0
 40
1.000000000000333
100
AcDbArc
 50
359.9999999970558
 51
89.99999999708183
  0
LINE
  5
EE1
330
2
100
AcDbEntity
  8
0
  6
Continuous
 62
     9
100
AcDbLine
 10
74.99995943163412
 20
2519.500021970431
 30
0.0
 11
75.99995943163412
 21
2519.500021970379
 31
0.0
  0
LINE
  5
EE2
330
2
100
AcDbEntity
  8
0
  6
Continuous
 62
     9
100
AcDbLine
 10
74.99995943069553
 20
2501.500021970369
 30
0.0
 11
74.99995943163412
 21
2519.500021970368
 31
0.0
  0
LINE
  5
EE3
330
2
100
AcDbEntity
  8
0
  6
Continuous
 62
     9
100
AcDbLine
 10
58.49995941137422
 20
2501.500021971229
 30
0.0
 11
74.99995943069553
 21
2501.500021970369
 31
0.0
  0
CIRCLE
  5
EE4
330
2
100
AcDbEntity
  8
0
  6
Continuous
 62
     7
100
AcDbCircle
 10
65.99995943116482
 20
2510.500021970836
 30
0.0
 40
7.14142842854315
  0
LINE
  5
EE5
330
2
100
AcDbEntity
  8
0
  6
Continuous
 62
     7
100
AcDbLine
 10
75.99995943163412
 20
2519.500021970379
 30
0.0
 11
75.99995943069552
 21
2501.50002197038
 31
0.0
  0
LINE
  5
EE6
330
2
100
AcDbEntity
  8
0
  6
Continuous
 62
     9
100
AcDbLine
 10
74.99995943069553
 20
2501.500021970431
 30
0.0
 11
75.99995943069552
 21
2501.50002197038
 31
0.0
  0
LINE
  5
EE7
330
2
100
AcDbEntity
  8
0
  6
Continuous
 62
     7
100
AcDbLine
 10
74.99995943064459
 20
2500.500021970432
 30
0.0
 11
58.49995941134512
 21
2500.500021971292
 31
0.0
  0
LINE
  5
EE8
330
2
100
AcDbEntity
  8
0
  6
Continuous
 62
     9
100
AcDbLine
 10
74.99995943069553
 20
2501.500021970369
 30
0.0
 11
74.99995943064459
 21
2500.500021970432
 31
0.0
  0
ARC
  5
EE9
330
2
100
AcDbEntity
  8
0
  6
Continuous
 62
     7
100
AcDbCircle
 10
74.99995943069553
 20
2501.500021970431
 30
0.0
 40
1.000000000001222
100
AcDbArc
 50
269.9999999969776
 51
359.9999999970037
  0
LINE
  5
EEA
330
2
100
AcDbEntity
  8
0
  6
Continuous
 62
     9
100
AcDbLine
 10
45.49995944498369
 20
3506.500021972294
 30
0.0
 11
45.49995944379406
 21
3470.979991138716
 31
0.0
  0
LINE
  5
EEB
330
2
100
AcDbEntity
  8
0
  6
Continuous
 62
     9
100
AcDbLine
 10
45.49995944310467
 20
3450.020052805899
 30
0.0
 11
45.4999594406454
 21
3376.500021972857
 31
0.0
  0
LINE
  5
EEC
330
2
100
AcDbEntity
  8
0
  6
Continuous
 62
     9
100
AcDbLine
 10
45.49995943930298
 20
3336.500021972857
 30
0.0
 11
45.4999593837947
 21
1676.50002197225
 31
0.0
  0
LINE
  5
EED
330
2
100
AcDbEntity
  8
0
  6
Continuous
 62
     9
100
AcDbLine
 10
45.49995938245411
 20
1636.500021972252
 30
0.0
 11
45.49995937880521
 21
1527.500021972294
 31
0.0
  0
LINE
  5
EEE
330
2
100
AcDbEntity
  8
0
  6
Continuous
 62
     7
100
AcDbLine
 10
45.49995944498369
 20
3506.500021972294
 30
0.0
 11
58.4999594449946
 21
3506.500021971858
 31
0.0
  0
LINE
  5
EEF
330
2
100
AcDbEntity
  8
0
  6
Continuous
 62
     7
100
AcDbLine
 10
58.4999594449946
 20
3506.500021971858
 30
0.0
 11
58.4999594406454
 21
3376.500021973245
 31
0.0
  0
LINE
  5
EF0
330
2
100
AcDbEntity
  8
0
  6
Continuous
 62
     7
100
AcDbLine
 10
58.49995943930299
 20
3336.500021973245
 30
0.0
 11
58.4999593837947
 21
1676.500021972639
 31
0.0
  0
LINE
  5
EF1
330
2
100
AcDbEntity
  8
0
  6
Continuous
 62
     7
100
AcDbLine
 10
58.4999593824541
 20
1636.500021972641
 30
0.0
 11
58.49995937881613
 21
1527.500021971859
 31
0.0
  0
LINE
  5
EF2
330
2
100
AcDbEntity
  8
0
  6
Continuous
 62
     7
100
AcDbLine
 10
45.49995937880521
 20
1527.500021972294
 30
0.0
 11
58.49995937881613
 21
1527.500021971859
 31
0.0
  0
LINE
  5
EF3
330
2
100
AcDbEntity
  8
0
  6
Continuous
 62
     7
100
AcDbLine
 10
21.9999593983739
 20
1527.500021973079
 30
0.0
 11
45.49995937880521
 21
1527.500021972294
 31
0.0
  0
LINE
  5
EF4
330
2
100
AcDbEntity
  8
0
  6
Continuous
 62
     7
100
AcDbLine
 10
21.99995946467425
 20
3506.50002197308
 30
0.0
 11
45.49995944498369
 21
3506.500021972294
 31
0.0
  0
LINE
  5
EF5
330
2
100
AcDbEntity
  8
0
  6
Continuous
 62
     4
100
AcDbLine
 10
47.9999593983739
 20
1527.500021972211
 30
0.0
 11
47.99995939793371
 21
1514.500021972209
 31
0.0
  0
LINE
  5
EF6
330
2
100
AcDbEntity
  8
0
  6
Continuous
 62
     4
100
AcDbLine
 10
55.9999593983739
 20
1527.500021971943
 30
0.0
 11
55.9999593979337
 21
1514.500021971942
 31
0.0
  0
LINE
  5
EF7
330
2
100
AcDbEntity
  8
0
  6
Continuous
 62
     4
100
AcDbLine
 10
55.9999593979337
 20
1514.500021971942
 30
0.0
 11
47.99995939793371
 21
1514.500021972209
 31
0.0
  0
LINE
  5
EF8
330
2
100
AcDbEntity
  8
0
  6
Continuous
 62
     7
100
AcDbLine
 10
47.99995939652399
 20
1511.000021974747
 30
0.0
 11
47.9999593962948
 21
1514.500021972209
 31
0.0
  0
CIRCLE
  5
EF9
330
2
100
AcDbEntity
  8
0
  6
Continuous
 62
     7
100
AcDbCircle
 10
31.99995939497422
 20
1516.500021972698
 30
0.0
 40
1.999999999999779
  0
LINE
  5
EFA
330
2
100
AcDbEntity
  8
0
  6
Continuous
 62
     7
100
AcDbLine
 10
30.4999593949251
 20
1517.366047376387
 30
0.0
 11
31.99995939486508
 21
1518.232072780266
 31
0.0
  0
LINE
  5
EFB
330
2
100
AcDbEntity
  8
0
  6
Continuous
 62
     7
100
AcDbLine
 10
30.49995939503424
 20
1515.633996568817
 30
0.0
 11
30.4999593949251
 21
1517.366047376387
 31
0.0
  0
LINE
  5
EFC
330
2
100
AcDbEntity
  8
0
  6
Continuous
 62
     7
100
AcDbLine
 10
31.99995939508335
 20
1514.76797116513
 30
0.0
 11
30.49995939503424
 21
1515.633996568817
 31
0.0
  0
LINE
  5
EFD
330
2
100
AcDbEntity
  8
0
  6
Continuous
 62
     7
100
AcDbLine
 10
33.49995939503424
 20
1515.63399656901
 30
0.0
 11
31.99995939508335
 21
1514.76797116513
 31
0.0
  0
LINE
  5
EFE
330
2
100
AcDbEntity
  8
0
  6
Continuous
 62
     7
100
AcDbLine
 10
33.4999593949251
 20
1517.366047376578
 30
0.0
 11
33.49995939503424
 21
1515.63399656901
 31
0.0
  0
LINE
  5
EFF
330
2
100
AcDbEntity
  8
0
  6
Continuous
 62
     7
100
AcDbLine
 10
31.99995939486508
 20
1518.232072780266
 30
0.0
 11
33.4999593949251
 21
1517.366047376578
 31
0.0
  0
LINE
  5
F00
330
2
100
AcDbEntity
  8
0
  6
Continuous
 62
     9
100
AcDbLine
 10
11.99995939438486
 20
1525.50002197243
 30
0.0
 11
13.99995939438486
 21
1525.500021972557
 31
0.0
  0
LINE
  5
F01
330
2
100
AcDbEntity
  8
0
  6
Continuous
 62
     7
100
AcDbLine
 10
11.99995939438486
 20
1526.50002197243
 30
0.0
 11
13.99995939438486
 21
1526.500021972557
 31
0.0
  0
LINE
  5
F02
330
2
100
AcDbEntity
  8
0
  6
Continuous
 62
     9
100
AcDbLine
 10
11.99995939546534
 20
1508.50002197243
 30
0.0
 11
13.99995939546534
 21
1508.500021972557
 31
0.0
  0
LINE
  5
F03
330
2
100
AcDbEntity
  8
0
  6
Continuous
 62
     7
100
AcDbLine
 10
11.99995939559449
 20
1507.500021972431
 30
0.0
 11
13.99995939558357
 21
1507.500021972557
 31
0.0
  0
LINE
  5
F04
330
2
100
AcDbEntity
  8
0
  6
Continuous
 62
     7
100
AcDbLine
 10
65.49995939538348
 20
1520.500022003221
 30
0.0
 11
65.49995939536529
 21
1512.500022003221
 31
0.0
  0
LINE
  5
F05
330
2
100
AcDbEntity
  8
0
  6
Continuous
 62
     7
100
AcDbLine
 10
57.49995939536529
 20
1513.500022003241
 30
0.0
 11
57.49995939538348
 21
1519.500022003242
 31
0.0
  0
LINE
  5
F06
330
2
100
AcDbEntity
  8
0
  6
Continuous
 62
     7
100
AcDbLine
 10
43.49995939435394
 20
1525.000021974455
 30
0.0
 11
43.49995939438485
 21
1524.500021974458
 31
0.0
  0
LINE
  5
F07
330
2
100
AcDbEntity
  8
0
  6
Continuous
 62
     7
100
AcDbLine
 10
43.49995939438485
 20
1524.500021974458
 30
0.0
 11
43.49995939540531
 21
1508.500021974469
 31
0.0
  0
LINE
  5
F08
330
2
100
AcDbEntity
  8
0
  6
Continuous
 62
     7
100
AcDbLine
 10
43.49995939540531
 20
1508.500021974469
 30
0.0
 11
43.49995939553446
 21
1506.500021974462
 31
0.0
  0
ARC
  5
F09
330
2
100
AcDbEntity
  8
0
  6
Continuous
 62
     7
100
AcDbCircle
 10
41.99995939435393
 20
1525.000021974359
 30
0.0
 40
1.500000000000055
100
AcDbArc
 50
0.0000000036607421
 51
90.00000000364773
  0
LINE
  5
F0A
330
2
100
AcDbEntity
  8
0
  6
Continuous
 62
     7
100
AcDbLine
 10
41.99995939425389
 20
1526.500021974358
 30
0.0
 11
41.49995939425389
 21
1526.500021974326
 31
0.0
  0
LINE
  5
F0B
330
2
100
AcDbEntity
  8
0
  6
Continuous
 62
     7
100
AcDbLine
 10
41.49995939425389
 20
1526.500021974326
 30
0.0
 11
23.49995939425389
 21
1526.500021973173
 31
0.0
  0
LINE
  5
F0C
330
2
100
AcDbEntity
  8
0
  6
Continuous
 62
     7
100
AcDbLine
 10
23.49995939425389
 20
1526.500021973173
 30
0.0
 11
23.49995939419569
 21
1527.500021973029
 31
0.0
  0
ARC
  5
F0D
330
2
100
AcDbEntity
  8
0
  6
Continuous
 62
     7
100
AcDbCircle
 10
43.49995939428481
 20
1526.000021974455
 30
0.0
 40
3.000000000000371
100
AcDbArc
 50
0.0000000036737697
 51
29.99999995191497
  0
LINE
  5
F0E
330
2
100
AcDbEntity
  8
0
  6
Continuous
 62
     7
100
AcDbLine
 10
46.49995939534528
 20
1509.500021974651
 30
0.0
 11
46.49995939428481
 21
1526.000021974647
 31
0.0
  0
LINE
  5
F0F
330
2
100
AcDbEntity
  8
0
  6
Continuous
 62
     7
100
AcDbLine
 10
58.49995939534529
 20
1509.500021975421
 30
0.0
 11
46.49995939534528
 21
1509.500021974651
 31
0.0
  0
LINE
  5
F10
330
2
100
AcDbEntity
  8
0
  6
Continuous
 62
     7
100
AcDbLine
 10
58.49995939438485
 20
1524.500021975416
 30
0.0
 11
58.49995939534529
 21
1509.500021975421
 31
0.0
  0
LINE
  5
F11
330
2
100
AcDbEntity
  8
0
  6
Continuous
 62
     7
100
AcDbLine
 10
60.49995939438486
 20
1524.500021975545
 30
0.0
 11
58.49995939438485
 21
1524.500021975416
 31
0.0
  0
ARC
  5
F12
330
2
100
AcDbEntity
  8
0
  6
Continuous
 62
     7
100
AcDbCircle
 10
60.49995939457403
 20
1521.500021975546
 30
0.0
 40
3.000000000000113
100
AcDbArc
 50
0.0000000036737697
 51
90.00000000364773
  0
LINE
  5
F13
330
2
100
AcDbEntity
  8
0
  6
Continuous
 62
     7
100
AcDbLine
 10
63.49995939553446
 20
1506.500021975742
 30
0.0
 11
63.49995939457404
 21
1521.500021975738
 31
0.0
  0
LINE
  5
F14
330
2
100
AcDbEntity
  8
0
  6
Continuous
 62
     7
100
AcDbLine
 10
22.49995939553446
 20
1506.500021973112
 30
0.0
 11
22.49995939425389
 21
1526.500021973112
 31
0.0
  0
LINE
  5
F15
330
2
100
AcDbEntity
  8
0
  6
Continuous
 62
     7
100
AcDbLine
 10
41.49995939425389
 20
1526.50002197433
 30
0.0
 11
23.49995939425389
 21
1526.500021973176
 31
0.0
  0
LINE
  5
F16
330
2
100
AcDbEntity
  8
0
  6
Continuous
 62
     7
100
AcDbLine
 10
23.49995939425389
 20
1526.500021973176
 30
0.0
 11
22.49995939425389
 21
1526.500021973112
 31
0.0
  0
ARC
  5
F17
330
2
100
AcDbEntity
  8
0
  6
Continuous
 62
     7
100
AcDbCircle
 10
31.99995939489418
 20
1516.50002197372
 30
0.0
 40
2.999999999999669
100
AcDbArc
 50
180.0000000036607
 51
270.0000000036477
  0
ARC
  5
F18
330
2
100
AcDbEntity
  8
0
  6
Continuous
 62
     7
100
AcDbCircle
 10
31.99995939489418
 20
1516.50002197372
 30
0.0
 40
3.000000000000113
100
AcDbArc
 50
270.0000000036477
 51
180.0000000036737
  0
ARC
  5
F19
330
2
100
AcDbEntity
  8
0
  6
Continuous
 62
     7
100
AcDbCircle
 10
41.49995939438485
 20
1524.500021974329
 30
0.0
 40
1.99999999999889
100
AcDbArc
 50
0.0000000036737697
 51
90.00000000364773
  0
ARC
  5
F1A
330
2
100
AcDbEntity
  8
0
  6
Continuous
 62
     7
100
AcDbCircle
 10
41.49995939540531
 20
1508.500021974329
 30
0.0
 40
2.000000000000223
100
AcDbArc
 50
270.0000000036477
 51
0.0000000036607421
  0
LINE
  5
F1B
330
2
100
AcDbEntity
  8
0
  6
Continuous
 62
     7
100
AcDbLine
 10
43.49995939540531
 20
1508.500021974458
 30
0.0
 11
43.49995939438485
 21
1524.500021974458
 31
0.0
  0
CIRCLE
  5
F1C
330
2
100
AcDbEntity
  8
0
  6
Continuous
 62
     7
100
AcDbCircle
 10
31.9999593949251
 20
1516.50002197372
 30
0.0
 40
2.499999999999945
  0
LINE
  5
F1D
330
2
100
AcDbEntity
  8
0
  6
Continuous
 62
     7
100
AcDbLine
 10
11.99995939553446
 20
1506.500021972439
 30
0.0
 11
11.99995939425389
 21
1526.50002197244
 31
0.0
  0
LINE
  5
F1E
330
2
100
AcDbEntity
  8
0
  6
Continuous
 62
     7
100
AcDbLine
 10
8.49995939553446
 20
1506.500021972215
 30
0.0
 11
8.499959394253892
 21
1526.500021972214
 31
0.0
  0
LINE
  5
F1F
330
2
100
AcDbEntity
  8
0
  6
Continuous
 62
     7
100
AcDbLine
 10
11.99995939425389
 20
1526.50002197244
 30
0.0
 11
8.499959394253892
 21
1526.500021972214
 31
0.0
  0
LINE
  5
F20
330
2
100
AcDbEntity
  8
0
  6
Continuous
 62
     7
100
AcDbLine
 10
22.49995939648397
 20
1526.500021973112
 30
0.0
 11
21.99995939833389
 21
1526.500021973081
 31
0.0
  0
LINE
  5
F21
330
2
100
AcDbEntity
  8
0
  6
Continuous
 62
     4
100
AcDbLine
 10
13.99995946467425
 20
3506.500021973348
 30
0.0
 11
21.99995946467425
 21
3506.50002197308
 31
0.0
  0
LINE
  5
F22
330
2
100
AcDbEntity
  8
0
  6
Continuous
 62
     4
100
AcDbLine
 10
21.99995939766631
 20
1506.500021973081
 30
0.0
 11
21.99995946467425
 21
3506.50002197308
 31
0.0
  0
LINE
  5
F23
330
2
100
AcDbEntity
  8
0
  6
Continuous
 62
     4
100
AcDbLine
 10
13.99995939766631
 20
1506.500021973349
 30
0.0
 11
21.99969930265433
 21
1506.500021973081
 31
0.0
  0
LINE
  5
F24
330
2
100
AcDbEntity
  8
0
  6
Continuous
 62
     4
100
AcDbLine
 10
21.99969930265433
 20
1506.500021973081
 30
0.0
 11
21.99995939766631
 21
1506.500021973081
 31
0.0
  0
LINE
  5
F25
330
2
100
AcDbEntity
  8
0
  6
Continuous
 62
     4
100
AcDbLine
 10
13.99995939766631
 20
1506.500021973349
 30
0.0
 11
13.99995946467425
 21
3506.500021973347
 31
0.0
  0
LINE
  5
F26
330
2
100
AcDbEntity
  8
0
  6
Continuous
 62
     7
100
AcDbLine
 10
-0.0000404039674322
 20
1456.500021971671
 30
0.0
 11
-0.0000404071761295
 21
1506.500021971671
 31
0.0
  0
LINE
  5
F27
330
2
100
AcDbEntity
  8
0
  6
Continuous
 62
     7
100
AcDbLine
 10
799.9999595928239
 20
1506.50002202293
 30
0.0
 11
21.99995939766631
 21
1506.500021973081
 31
0.0
  0
LINE
  5
F28
330
2
100
AcDbEntity
  8
0
  6
Continuous
 62
     7
100
AcDbLine
 10
21.99995939766631
 20
1506.500021973081
 30
0.0
 11
21.99969930265433
 21
1506.500021973081
 31
0.0
  0
LINE
  5
F29
330
2
100
AcDbEntity
  8
0
  6
Continuous
 62
     7
100
AcDbLine
 10
21.99969930265433
 20
1506.500021973081
 30
0.0
 11
13.99995939766631
 21
1506.500021972567
 31
0.0
  0
LINE
  5
F2A
330
2
100
AcDbEntity
  8
0
  6
Continuous
 62
     7
100
AcDbLine
 10
13.99995939766631
 20
1506.500021972567
 30
0.0
 11
-0.0000404071761295
 21
1506.500021971671
 31
0.0
  0
LINE
  5
F2B
330
2
100
AcDbEntity
  8
0
  6
Continuous
 62
     7
100
AcDbLine
 10
799.9999595960289
 20
1456.50002202293
 30
0.0
 11
-0.0000404039674322
 21
1456.500021971671
 31
0.0
  0
LINE
  5
F2C
330
2
100
AcDbEntity
  8
0
  6
Continuous
 62
     7
100
AcDbLine
 10
799.9999595960289
 20
1456.50002202293
 30
0.0
 11
799.9999595928239
 21
1506.50002202293
 31
0.0
  0
LINE
  5
F2D
330
2
100
AcDbEntity
  8
0
  6
Continuous
 62
     9
100
AcDbLine
 10
37.89995946366616
 20
3476.236769066307
 30
0.0
 11
37.89995946366616
 21
3476.250021972542
 31
0.0
  0
LINE
  5
F2E
330
2
100
AcDbEntity
  8
0
  6
Continuous
 62
     9
100
AcDbLine
 10
32.89995946366616
 20
3476.250021972708
 30
0.0
 11
32.89995946366616
 21
3476.236736567017
 31
0.0
  0
LINE
  5
F2F
330
2
100
AcDbEntity
  8
0
  6
Continuous
 62
     9
100
AcDbLine
 10
37.39745795744421
 20
3459.000021925545
 30
0.0
 11
36.29997946302501
 21
3459.00002192558
 31
0.0
  0
LINE
  5
F30
330
2
100
AcDbEntity
  8
0
  6
Continuous
 62
     9
100
AcDbLine
 10
36.29997946286494
 20
3454.00002192558
 30
0.0
 11
37.39745783960461
 21
3454.000021925543
 31
0.0
  0
LINE
  5
F31
330
2
100
AcDbEntity
  8
0
  6
Continuous
 62
     9
100
AcDbLine
 10
65.49995939538348
 20
1519.875022003222
 30
0.0
 11
63.49995939467408
 21
1519.875022003226
 31
0.0
  0
LINE
  5
F32
330
2
100
AcDbEntity
  8
0
  6
Continuous
 62
     9
100
AcDbLine
 10
58.49995939467408
 20
1519.875022003239
 30
0.0
 11
57.87495939538349
 21
1519.875022003241
 31
0.0
  0
LINE
  5
F33
330
2
100
AcDbEntity
  8
0
  6
Continuous
 62
     9
100
AcDbLine
 10
57.8749593953653
 20
1513.125022003239
 30
0.0
 11
58.49995939511609
 21
1513.125022003239
 31
0.0
  0
LINE
  5
F34
330
2
100
AcDbEntity
  8
0
  6
Continuous
 62
     9
100
AcDbLine
 10
63.49995939511609
 20
1513.125022003226
 30
0.0
 11
65.49995939536529
 21
1513.125022003221
 31
0.0
  0
LINE
  5
F35
330
2
100
AcDbEntity
  8
0
  6
Continuous
 62
     9
100
AcDbLine
 10
32.39996447366503
 20
3476.119139344878
 30
0.0
 11
32.39996447366503
 21
3476.118973304924
 31
0.0
  0
LINE
  5
F36
330
2
100
AcDbEntity
  8
0
  6
Continuous
 62
     9
100
AcDbLine
 10
38.39995445366549
 20
3476.118973304723
 30
0.0
 11
38.39995445366549
 21
3476.119183305343
 31
0.0
  0
LINE
  5
F37
330
2
100
AcDbEntity
  8
0
  6
Continuous
 62
     7
100
AcDbLine
 10
22.4999594035944
 20
1670.750021972147
 30
0.0
 11
21.99995940341432
 21
1670.750021972164
 31
0.0
  0
LINE
  5
F38
330
2
100
AcDbEntity
  8
0
  6
Continuous
 62
     7
100
AcDbLine
 10
21.99995940246481
 20
1642.250021972164
 30
0.0
 11
22.49995940263397
 21
1642.250021972148
 31
0.0
  0
LINE
  5
F39
330
2
100
AcDbEntity
  8
0
  6
Continuous
 62
     7
100
AcDbLine
 10
24.99995940344525
 20
1671.500021972064
 30
0.0
 11
22.49995940344525
 21
1671.500021972148
 31
0.0
  0
LINE
  5
F3A
330
2
100
AcDbEntity
  8
0
  6
Continuous
 62
     7
100
AcDbLine
 10
22.49995940243389
 20
1641.500021972148
 30
0.0
 11
24.99995940243389
 21
1641.500021972064
 31
0.0
  0
ARC
  5
F3B
330
2
100
AcDbEntity
  8
0
  6
Continuous
 62
     7
100
AcDbCircle
 10
24.99995940342524
 20
1671.000021972064
 30
0.0
 40
0.5000000000006111
100
AcDbArc
 50
359.9999999980719
 51
89.99999999801982
  0
ARC
  5
F3C
330
2
100
AcDbEntity
  8
0
  6
Continuous
 62
     7
100
AcDbCircle
 10
24.9999594024539
 20
1642.000021972064
 30
0.0
 40
0.4999999999997229
100
AcDbArc
 50
269.999999998124
 51
359.9999999981631
  0
LINE
  5
F3D
330
2
100
AcDbEntity
  8
0
  6
Continuous
 62
     7
100
AcDbLine
 10
22.49995946101444
 20
3370.750021972753
 30
0.0
 11
21.99995946084527
 21
3370.750021972769
 31
0.0
  0
LINE
  5
F3E
330
2
100
AcDbEntity
  8
0
  6
Continuous
 62
     7
100
AcDbLine
 10
21.99995945988303
 20
3342.250021972769
 30
0.0
 11
22.49995946005402
 21
3342.250021972752
 31
0.0
  0
LINE
  5
F3F
330
2
100
AcDbEntity
  8
0
  6
Continuous
 62
     7
100
AcDbLine
 10
24.99995946086528
 20
3371.500021972668
 30
0.0
 11
22.49995946086528
 21
3371.500021972752
 31
0.0
  0
LINE
  5
F40
330
2
100
AcDbEntity
  8
0
  6
Continuous
 62
     7
100
AcDbLine
 10
22.49995945985393
 20
3341.500021972752
 30
0.0
 11
24.99995945985393
 21
3341.500021972668
 31
0.0
  0
ARC
  5
F41
330
2
100
AcDbEntity
  8
0
  6
Continuous
 62
     7
100
AcDbCircle
 10
24.99995946084528
 20
3371.000021972668
 30
0.0
 40
0.5000000000006111
100
AcDbArc
 50
359.9999999980719
 51
89.99999999812402
  0
ARC
  5
F42
330
2
100
AcDbEntity
  8
0
  6
Continuous
 62
     7
100
AcDbCircle
 10
24.99995945987576
 20
3342.000021972668
 30
0.0
 40
0.5000000000006111
100
AcDbArc
 50
269.999999998124
 51
359.9999999981761
  0
LINE
  5
F43
330
2
100
AcDbEntity
  8
0
  6
Continuous
 62
     7
100
AcDbLine
 10
37.89995946366616
 20
3476.250021972543
 30
0.0
 11
37.39995946367526
 21
3476.500021972559
 31
0.0
  0
LINE
  5
F44
330
2
100
AcDbEntity
  8
0
  6
Continuous
 62
     7
100
AcDbLine
 10
33.39995946367526
 20
3476.500021972692
 30
0.0
 11
32.89995946348426
 21
3476.250021972622
 31
0.0
  0
LINE
  5
F45
330
2
100
AcDbEntity
  8
0
  6
Continuous
 62
     7
100
AcDbLine
 10
34.34995946334493
 20
3466.800021972661
 30
0.0
 11
34.64995946333511
 21
3466.500021972651
 31
0.0
  0
LINE
  5
F46
330
2
100
AcDbEntity
  8
0
  6
Continuous
 62
     7
100
AcDbLine
 10
36.14995946333511
 20
3466.5000219726
 30
0.0
 11
36.4499594633453
 21
3466.800021972589
 31
0.0
  0
LINE
  5
F47
330
2
100
AcDbEntity
  8
0
  6
Continuous
 62
     7
100
AcDbLine
 10
12.99995946259514
 20
3444.500021926366
 30
0.0
 11
13.99995946259514
 21
3444.500021926333
 31
0.0
  0
LINE
  5
F48
330
2
100
AcDbEntity
  8
0
  6
Continuous
 62
     7
100
AcDbLine
 10
13.99995946340459
 20
3468.500021926321
 30
0.0
 11
12.99995946340459
 21
3468.500021926356
 31
0.0
  0
LINE
  5
F49
330
2
100
AcDbEntity
  8
0
  6
Continuous
 62
     7
100
AcDbLine
 10
7.299959463425693
 20
3469.000021926546
 30
0.0
 11
6.999959463415507
 21
3468.700021926557
 31
0.0
  0
LINE
  5
F4A
330
2
100
AcDbEntity
  8
0
  6
Continuous
 62
     7
100
AcDbLine
 10
6.999959462595143
 20
3444.300021926568
 30
0.0
 11
7.299959462583501
 21
3444.000021926559
 31
0.0
  0
LINE
  5
F4B
330
2
100
AcDbEntity
  8
0
  6
Continuous
 62
     7
100
AcDbLine
 10
12.99995946341551
 20
3469.000021926356
 30
0.0
 11
7.299959463425693
 21
3469.000021926546
 31
0.0
  0
LINE
  5
F4C
330
2
100
AcDbEntity
  8
0
  6
Continuous
 62
     7
100
AcDbLine
 10
7.299959462583501
 20
3444.000021926559
 30
0.0
 11
12.99995946258423
 21
3444.000021926367
 31
0.0
  0
LINE
  5
F4D
330
2
100
AcDbEntity
  8
0
  6
Continuous
 62
     7
100
AcDbLine
 10
36.51351246229388
 20
3459.500021925572
 30
0.0
 11
36.29997883753458
 21
3459.500021925579
 31
0.0
  0
LINE
  5
F4E
330
2
100
AcDbEntity
  8
0
  6
Continuous
 62
     7
100
AcDbLine
 10
36.29997881320378
 20
3453.500021925582
 30
0.0
 11
36.51351220879405
 21
3453.500021925574
 31
0.0
  0
LINE
  5
F4F
330
2
100
AcDbEntity
  8
0
  6
Continuous
 62
     7
100
AcDbLine
 10
23.49995946410491
 20
3469.000021926802
 30
0.0
 11
21.9999594641049
 21
3469.000021926936
 31
0.0
  0
LINE
  5
F50
330
2
100
AcDbEntity
  8
0
  6
Continuous
 62
     7
100
AcDbLine
 10
21.99995946189483
 20
3444.000021926947
 30
0.0
 11
23.49995946189483
 21
3444.000021926814
 31
0.0
  0
LINE
  5
F51
330
2
100
AcDbEntity
  8
0
  6
Continuous
 62
     7
100
AcDbLine
 10
23.49995946189483
 20
3444.000021926814
 30
0.0
 11
24.99995946237504
 21
3449.500021926679
 31
0.0
  0
LINE
  5
F52
330
2
100
AcDbEntity
  8
0
  6
Continuous
 62
     7
100
AcDbLine
 10
23.84460184549425
 20
3467.736333194603
 30
0.0
 11
23.49995946410491
 21
3469.000021926802
 31
0.0
  0
LINE
  5
F53
330
2
100
AcDbEntity
  8
0
  6
Continuous
 62
     7
100
AcDbLine
 10
24.99995946237504
 20
3449.500021926679
 30
0.0
 11
25.65316515124505
 21
3449.50002192662
 31
0.0
  0
LINE
  5
F54
330
2
100
AcDbEntity
  8
0
  6
Continuous
 62
     7
100
AcDbLine
 10
27.85784999369389
 20
3463.500021926419
 30
0.0
 11
26.39995946323506
 21
3463.500021926549
 31
0.0
  0
LINE
  5
F55
330
2
100
AcDbEntity
  8
0
  6
Continuous
 62
     7
100
AcDbLine
 10
58.49995944229522
 20
3426.000021971809
 30
0.0
 11
62.69995946184462
 21
3426.000021971668
 31
0.0
  0
LINE
  5
F56
330
2
100
AcDbEntity
  8
0
  6
Continuous
 62
     7
100
AcDbLine
 10
62.69995946268318
 20
3451.000021971668
 30
0.0
 11
58.49995944313377
 21
3451.000021971807
 31
0.0
  0
LINE
  5
F57
330
2
100
AcDbEntity
  8
0
  6
Continuous
 62
     7
100
AcDbLine
 10
62.69995946184462
 20
3426.000021971668
 30
0.0
 11
62.99995946185299
 21
3426.300021971658
 31
0.0
  0
LINE
  5
F58
330
2
100
AcDbEntity
  8
0
  6
Continuous
 62
     7
100
AcDbLine
 10
62.99995946267336
 20
3450.700021971658
 30
0.0
 11
62.69995946268318
 21
3451.000021971668
 31
0.0
  0
LINE
  5
F59
330
2
100
AcDbEntity
  8
0
  6
Continuous
 62
     7
100
AcDbLine
 10
58.49995944356487
 20
3464.000021971872
 30
0.0
 11
62.69995946311428
 21
3464.000021971732
 31
0.0
  0
LINE
  5
F5A
330
2
100
AcDbEntity
  8
0
  6
Continuous
 62
     7
100
AcDbLine
 10
62.69995946395465
 20
3489.00002197173
 30
0.0
 11
58.49995944440343
 21
3489.000021971873
 31
0.0
  0
LINE
  5
F5B
330
2
100
AcDbEntity
  8
0
  6
Continuous
 62
     7
100
AcDbLine
 10
62.69995946311428
 20
3464.000021971732
 30
0.0
 11
62.99995946312447
 21
3464.300021971722
 31
0.0
  0
LINE
  5
F5C
330
2
100
AcDbEntity
  8
0
  6
Continuous
 62
     7
100
AcDbLine
 10
62.99995946394483
 20
3488.700021971722
 30
0.0
 11
62.69995946395465
 21
3489.00002197173
 31
0.0
  0
LINE
  5
F5D
330
2
100
AcDbEntity
  8
0
  6
Continuous
 62
     7
100
AcDbLine
 10
58.12219915386595
 20
1509.500021975396
 30
0.0
 11
58.12219915397327
 21
1512.877782244632
 31
0.0
  0
LINE
  5
F5E
330
2
100
AcDbEntity
  8
0
  6
Continuous
 62
     7
100
AcDbLine
 10
58.12219915421519
 20
1520.122261762072
 30
0.0
 11
58.12219915445348
 21
1527.500021971872
 31
0.0
  0
LINE
  5
F5F
330
2
100
AcDbEntity
  8
0
  6
Continuous
 62
     7
100
AcDbLine
 10
46.49995939651489
 20
1511.000021974651
 30
0.0
 11
47.99995939652399
 21
1511.000021974747
 31
0.0
  0
LINE
  5
F60
330
2
100
AcDbEntity
  8
0
  6
Continuous
 62
     7
100
AcDbLine
 10
47.99995939581458
 20
1522.000021974747
 30
0.0
 11
46.49995939581458
 21
1522.000021974651
 31
0.0
  0
LINE
  5
F61
330
2
100
AcDbEntity
  8
0
  6
Continuous
 62
     7
100
AcDbLine
 10
22.49995939454493
 20
1522.000021973145
 30
0.0
 11
21.99995939818473
 21
1522.000021973082
 31
0.0
  0
LINE
  5
F62
330
2
100
AcDbEntity
  8
0
  6
Continuous
 62
     7
100
AcDbLine
 10
21.99995939782457
 20
1511.000021973082
 30
0.0
 11
22.49995939524524
 21
1511.000021973145
 31
0.0
  0
LINE
  5
F63
330
2
100
AcDbEntity
  8
0
  6
Continuous
 62
     7
100
AcDbLine
 10
65.49995939538348
 20
1520.500022003221
 30
0.0
 11
63.49995939464498
 21
1520.500022003226
 31
0.0
  0
LINE
  5
F64
330
2
100
AcDbEntity
  8
0
  6
Continuous
 62
     7
100
AcDbLine
 10
63.49995939515429
 20
1512.500022003226
 30
0.0
 11
65.49995939536529
 21
1512.500022003221
 31
0.0
  0
LINE
  5
F65
330
2
100
AcDbEntity
  8
0
  6
Continuous
 62
     7
100
AcDbLine
 10
58.49995939538349
 20
1520.500022003239
 30
0.0
 11
57.87495939538349
 21
1519.875022003241
 31
0.0
  0
LINE
  5
F66
330
2
100
AcDbEntity
  8
0
  6
Continuous
 62
     7
100
AcDbLine
 10
57.87495939538349
 20
1519.875022003241
 30
0.0
 11
57.49995939538348
 21
1519.500022003242
 31
0.0
  0
LINE
  5
F67
330
2
100
AcDbEntity
  8
0
  6
Continuous
 62
     7
100
AcDbLine
 10
57.49995939536529
 20
1513.500022003241
 30
0.0
 11
57.8749593953653
 21
1513.125022003239
 31
0.0
  0
LINE
  5
F68
330
2
100
AcDbEntity
  8
0
  6
Continuous
 62
     7
100
AcDbLine
 10
57.8749593953653
 20
1513.125022003239
 30
0.0
 11
58.4999593953653
 21
1512.500022003239
 31
0.0
  0
LINE
  5
F69
330
2
100
AcDbEntity
  8
0
  6
Continuous
 62
     7
100
AcDbLine
 10
1558.299959594183
 20
3448.500021972638
 30
0.0
 11
1558.299959594183
 21
3456.498246598743
 31
0.0
  0
LINE
  5
F6A
330
2
100
AcDbEntity
  8
0
  6
Continuous
 62
     7
100
AcDbLine
 10
1558.299959594183
 20
3456.498246598743
 30
0.0
 11
1558.299959594183
 21
3464.500021972638
 31
0.0
  0
LINE
  5
F6B
330
2
100
AcDbEntity
  8
0
  6
Continuous
 62
     7
100
AcDbLine
 10
1558.299959594183
 20
3448.500021972638
 30
0.0
 11
1558.299959594183
 21
3456.498246598743
 31
0.0
  0
LINE
  5
F6C
330
2
100
AcDbEntity
  8
0
  6
Continuous
 62
     7
100
AcDbLine
 10
1558.299959594183
 20
3456.498246598743
 30
0.0
 11
1558.299959594183
 21
3464.500021972638
 31
0.0
  0
LINE
  5
F6D
330
2
100
AcDbEntity
  8
0
  6
Continuous
 62
     7
100
AcDbLine
 10
1558.49995959419
 20
3452.20516418788
 30
0.0
 11
1558.49995959419
 21
3455.544358555994
 31
0.0
  0
LINE
  5
F6E
330
2
100
AcDbEntity
  8
0
  6
Continuous
 62
     7
100
AcDbLine
 10
1558.49995959419
 20
3460.929223331115
 30
0.0
 11
1558.49995959419
 21
3463.500021972641
 31
0.0
  0
LINE
  5
F6F
330
2
100
AcDbEntity
  8
0
  6
Continuous
 62
     7
100
AcDbLine
 10
1558.499959594184
 20
3468.500021972636
 30
0.0
 11
1558.499959594184
 21
3444.500021972635
 31
0.0
  0
LINE
  5
F70
330
2
100
AcDbEntity
  8
0
  6
Continuous
 62
     7
100
AcDbLine
 10
1553.099959594185
 20
3469.000021972635
 30
0.0
 11
1553.099959594185
 21
3444.000021972636
 31
0.0
  0
LINE
  5
F71
330
2
100
AcDbEntity
  8
0
  6
Continuous
 62
     7
100
AcDbLine
 10
1552.099959594183
 20
3445.000021972637
 30
0.0
 11
1552.099959594181
 21
3468.000021972636
 31
0.0
  0
LINE
  5
F72
330
2
100
AcDbEntity
  8
0
  6
Continuous
 62
     7
100
AcDbLine
 10
1558.099959594183
 20
3469.000021972636
 30
0.0
 11
1558.099959594185
 21
3444.000021972636
 31
0.0
  0
LINE
  5
F73
330
2
100
AcDbEntity
  8
0
  6
Continuous
 62
     7
100
AcDbLine
 10
1570.499959594475
 20
3468.500021972636
 30
0.0
 11
1570.499959594475
 21
3456.493215435715
 31
0.0
  0
LINE
  5
F74
330
2
100
AcDbEntity
  8
0
  6
Continuous
 62
     7
100
AcDbLine
 10
1570.499959594475
 20
3456.493215435714
 30
0.0
 11
1570.499959594475
 21
3444.500021972635
 31
0.0
  0
LINE
  5
F75
330
2
100
AcDbEntity
  8
0
  6
Continuous
 62
     7
100
AcDbLine
 10
1569.499959594472
 20
3468.500021972636
 30
0.0
 11
1569.499959594472
 21
3444.500021972636
 31
0.0
  0
LINE
  5
F76
330
2
100
AcDbEntity
  8
0
  6
Continuous
 62
     9
100
AcDbLine
 10
1570.999959594472
 20
3469.000021972636
 30
0.0
 11
1570.999959594472
 21
3456.497247950107
 31
0.0
  0
LINE
  5
F77
330
2
100
AcDbEntity
  8
0
  6
Continuous
 62
     7
100
AcDbLine
 10
1570.499959594475
 20
3468.500021972636
 30
0.0
 11
1570.499959594475
 21
3456.497358911008
 31
0.0
  0
LINE
  5
F78
330
2
100
AcDbEntity
  8
0
  6
Continuous
 62
     7
100
AcDbLine
 10
1570.499959594475
 20
3456.497358911008
 30
0.0
 11
1570.499959594475
 21
3444.500021972636
 31
0.0
  0
LINE
  5
F79
330
2
100
AcDbEntity
  8
0
  6
Continuous
 62
     9
100
AcDbLine
 10
1570.999959594472
 20
3456.497247950107
 30
0.0
 11
1570.999959594472
 21
3444.000021972636
 31
0.0
  0
LINE
  5
F7A
330
2
100
AcDbEntity
  8
0
  6
Continuous
 62
     7
100
AcDbLine
 10
1573.999959594472
 20
3469.000021972636
 30
0.0
 11
1573.999959594472
 21
3456.497247950107
 31
0.0
  0
LINE
  5
F7B
330
2
100
AcDbEntity
  8
0
  6
Continuous
 62
     7
100
AcDbLine
 10
1573.999959594472
 20
3456.497247950107
 30
0.0
 11
1573.999959594472
 21
3444.000021972636
 31
0.0
  0
LINE
  5
F7C
330
2
100
AcDbEntity
  8
0
  6
Continuous
 62
     7
100
AcDbLine
 10
1575.499959594472
 20
3467.500021972637
 30
0.0
 11
1575.499959594472
 21
3456.497580832811
 31
0.0
  0
LINE
  5
F7D
330
2
100
AcDbEntity
  8
0
  6
Continuous
 62
     7
100
AcDbLine
 10
1575.499959594472
 20
3456.497580832811
 30
0.0
 11
1575.499959594472
 21
3445.500021972637
 31
0.0
  0
LINE
  5
F7E
330
2
100
AcDbEntity
  8
0
  6
Continuous
 62
     7
100
AcDbLine
 10
1567.99995959397
 20
1671.500022020281
 30
0.0
 11
1567.999959597751
 21
1641.50002202028
 31
0.0
  0
LINE
  5
F7F
330
2
100
AcDbEntity
  8
0
  6
Continuous
 62
     7
100
AcDbLine
 10
1567.999959594983
 20
3371.500022020266
 30
0.0
 11
1567.999959598765
 21
3341.500022020266
 31
0.0
  0
LINE
  5
F80
330
2
100
AcDbEntity
  8
0
  6
Continuous
 62
     7
100
AcDbLine
 10
2699.584390770633
 20
1644.2539588022
 30
0.0
 11
2699.960468302103
 21
1644.90534419439
 31
0.0
  0
ARC
  5
F81
330
2
100
AcDbEntity
  8
0
  6
Continuous
 62
     7
100
AcDbCircle
 10
2705.499958099341
 20
1656.500021972849
 30
0.0
 40
13.59999999999988
100
AcDbArc
 50
235.7832695248425
 51
244.2167304824885
  0
LINE
  5
F82
330
2
100
AcDbEntity
  8
0
  6
Continuous
 62
     7
100
AcDbLine
 10
2698.22841749447
 20
1645.905344194279
 30
0.0
 11
2697.852339962999
 21
1645.253958802089
 31
0.0
  0
ARC
  5
F83
330
2
100
AcDbEntity
  8
0
  6
Continuous
 62
     7
100
AcDbCircle
 10
2705.499958099341
 20
1656.500021972849
 30
0.0
 40
12.85000000000012
100
AcDbArc
 50
124.4633283521834
 51
235.5366716551373
  0
LINE
  5
F84
330
2
100
AcDbEntity
  8
0
  6
Continuous
 62
     7
100
AcDbLine
 10
2698.228417493119
 20
1667.094699750492
 30
0.0
 11
2697.852339961567
 21
1667.746085142632
 31
0.0
  0
ARC
  5
F85
330
2
100
AcDbEntity
  8
0
  6
Continuous
 62
     7
100
AcDbCircle
 10
2705.499958099341
 20
1656.500021972849
 30
0.0
 40
13.60000000000006
100
AcDbArc
 50
115.7832695248063
 51
124.2167304824636
  0
LINE
  5
F86
330
2
100
AcDbEntity
  8
0
  6
Continuous
 62
     7
100
AcDbLine
 10
2699.584390769071
 20
1668.746085142743
 30
0.0
 11
2699.960468300625
 21
1668.094699750603
 31
0.0
  0
ARC
  5
F87
330
2
100
AcDbEntity
  8
0
  6
Continuous
 62
     7
100
AcDbCircle
 10
2705.499958099341
 20
1656.500021972849
 30
0.0
 40
12.85000000000002
100
AcDbArc
 50
4.463328352151958
 51
115.5366716551128
  0
LINE
  5
F88
330
2
100
AcDbEntity
  8
0
  6
Continuous
 62
     7
100
AcDbLine
 10
2718.310988502801
 20
1657.500021973666
 30
0.0
 11
2719.063143565826
 21
1657.500021973714
 31
0.0
  0
ARC
  5
F89
330
2
100
AcDbEntity
  8
0
  6
Continuous
 62
     7
100
AcDbCircle
 10
2705.499958099341
 20
1656.500021972849
 30
0.0
 40
13.60000000000026
100
AcDbArc
 50
355.7832695247928
 51
4.21673048250826
  0
LINE
  5
F8A
330
2
100
AcDbEntity
  8
0
  6
Continuous
 62
     7
100
AcDbLine
 10
2719.063143565954
 20
1655.500021973714
 30
0.0
 11
2718.310988502928
 21
1655.500021973666
 31
0.0
  0
ARC
  5
F8B
330
2
100
AcDbEntity
  8
0
  6
Continuous
 62
     7
100
AcDbCircle
 10
2705.499958099341
 20
1656.500021972849
 30
0.0
 40
12.85000000000021
100
AcDbArc
 50
244.4633283521707
 51
355.5366716551489
  0
CIRCLE
  5
F8C
330
2
100
AcDbEntity
  8
0
  6
Continuous
 62
     7
100
AcDbCircle
 10
2705.499958099692
 20
1651.000021972849
 30
0.0
 40
1.249999999999751
  0
CIRCLE
  5
F8D
330
2
100
AcDbEntity
  8
0
  6
Continuous
 62
     7
100
AcDbCircle
 10
2705.49995809899
 20
1662.000021972849
 30
0.0
 40
1.249999999999751
  0
ARC
  5
F8E
330
2
100
AcDbEntity
  8
0
  6
Continuous
 62
     7
100
AcDbCircle
 10
2705.499958099328
 20
1656.500021972858
 30
0.0
 40
12.99999999999996
100
AcDbArc
 50
127.9191486695211
 51
232.0153978082266
  0
ARC
  5
F8F
330
2
100
AcDbEntity
  8
0
  6
Continuous
 62
     7
100
AcDbCircle
 10
2699.494023100568
 20
1646.111145960958
 30
0.0
 40
2.000000000000051
100
AcDbArc
 50
175.9117530112243
 51
304.0227934664492
  0
ARC
  5
F90
330
2
100
AcDbEntity
  8
0
  6
Continuous
 62
     7
100
AcDbCircle
 10
2705.499958099328
 20
1656.500021972858
 30
0.0
 40
13.00000000000002
100
AcDbArc
 50
247.919148669468
 51
352.0153978081919
  0
ARC
  5
F91
330
2
100
AcDbEntity
  8
0
  6
Continuous
 62
     7
100
AcDbCircle
 10
2717.499956141777
 20
1656.493167696404
 30
0.0
 40
1.999999999999968
100
AcDbArc
 50
295.9117530111758
 51
359.967273238839
  0
ARC
  5
F92
330
2
100
AcDbEntity
  8
0
  6
Continuous
 62
     7
100
AcDbCircle
 10
2717.499956141777
 20
1656.493167696404
 30
0.0
 40
2.000000000000241
100
AcDbArc
 50
359.967273238839
 51
64.02279346644959
  0
ARC
  5
F93
330
2
100
AcDbEntity
  8
0
  6
Continuous
 62
     7
100
AcDbCircle
 10
2705.499958099328
 20
1656.500021972858
 30
0.0
 40
12.99999999999975
100
AcDbArc
 50
7.919148669509206
 51
112.0153978082316
  0
ARC
  5
F94
330
2
100
AcDbEntity
  8
0
  6
Continuous
 62
     7
100
AcDbCircle
 10
2699.505895055637
 20
1666.895752261215
 30
0.0
 40
2.000000000000164
100
AcDbArc
 50
55.91175301125026
 51
184.0227934664821
  0
ARC
  5
F95
330
2
100
AcDbEntity
  8
0
  6
Continuous
 62
     7
100
AcDbCircle
 10
2705.499958099328
 20
1656.500021972858
 30
0.0
 40
15.00000000000003
100
AcDbArc
 50
89.99999429007607
 51
269.9672732388389
  0
ARC
  5
F96
330
2
100
AcDbEntity
  8
0
  6
Continuous
 62
     7
100
AcDbCircle
 10
2705.499958099328
 20
1656.500021972858
 30
0.0
 40
14.99999999999975
100
AcDbArc
 50
269.9672732388389
 51
89.99999429007607
  0
LINE
  5
F97
330
2
100
AcDbEntity
  8
0
  6
Continuous
 62
     7
100
AcDbLine
 10
2699.58439077064
 20
3344.253958802806
 30
0.0
 11
2699.960468302112
 21
3344.905344194994
 31
0.0
  0
ARC
  5
F98
330
2
100
AcDbEntity
  8
0
  6
Continuous
 62
     7
100
AcDbCircle
 10
2705.49995809935
 20
3356.500021973455
 30
0.0
 40
13.59999999999952
100
AcDbArc
 50
235.7832695247563
 51
244.2167304824885
  0
LINE
  5
F99
330
2
100
AcDbEntity
  8
0
  6
Continuous
 62
     7
100
AcDbLine
 10
2698.228417494477
 20
3345.905344194886
 30
0.0
 11
2697.852339963006
 21
3345.253958802696
 31
0.0
  0
ARC
  5
F9A
330
2
100
AcDbEntity
  8
0
  6
Continuous
 62
     7
100
AcDbCircle
 10
2705.49995809935
 20
3356.500021973455
 30
0.0
 40
12.84999999999975
100
AcDbArc
 50
124.4633283521834
 51
235.5366716551373
  0
LINE
  5
F9B
330
2
100
AcDbEntity
  8
0
  6
Continuous
 62
     7
100
AcDbLine
 10
2698.228417493127
 20
3367.094699751095
 30
0.0
 11
2697.852339961574
 21
3367.746085143237
 31
0.0
  0
ARC
  5
F9C
330
2
100
AcDbEntity
  8
0
  6
Continuous
 62
     7
100
AcDbCircle
 10
2705.49995809935
 20
3356.500021973455
 30
0.0
 40
13.5999999999997
100
AcDbArc
 50
115.7832695248063
 51
124.2167304824636
  0
LINE
  5
F9D
330
2
100
AcDbEntity
  8
0
  6
Continuous
 62
     7
100
AcDbLine
 10
2699.584390769078
 20
3368.746085143348
 30
0.0
 11
2699.960468300633
 21
3368.094699751207
 31
0.0
  0
ARC
  5
F9E
330
2
100
AcDbEntity
  8
0
  6
Continuous
 62
     7
100
AcDbCircle
 10
2705.49995809935
 20
3356.500021973455
 30
0.0
 40
12.85000000000002
100
AcDbArc
 50
4.463328352151958
 51
115.5366716551128
  0
LINE
  5
F9F
330
2
100
AcDbEntity
  8
0
  6
Continuous
 62
     7
100
AcDbLine
 10
2718.310988502807
 20
3357.500021974271
 30
0.0
 11
2719.063143565836
 21
3357.50002197432
 31
0.0
  0
ARC
  5
FA0
330
2
100
AcDbEntity
  8
0
  6
Continuous
 62
     7
100
AcDbCircle
 10
2705.49995809935
 20
3356.500021973455
 30
0.0
 40
13.60000000000023
100
AcDbArc
 50
355.7832695247928
 51
4.21673048250826
  0
LINE
  5
FA1
330
2
100
AcDbEntity
  8
0
  6
Continuous
 62
     7
100
AcDbLine
 10
2719.063143565962
 20
3355.500021974318
 30
0.0
 11
2718.310988502938
 21
3355.500021974272
 31
0.0
  0
ARC
  5
FA2
330
2
100
AcDbEntity
  8
0
  6
Continuous
 62
     7
100
AcDbCircle
 10
2705.49995809935
 20
3356.500021973455
 30
0.0
 40
12.85000000000021
100
AcDbArc
 50
244.4633283521707
 51
355.5366716551489
  0
CIRCLE
  5
FA3
330
2
100
AcDbEntity
  8
0
  6
Continuous
 62
     7
100
AcDbCircle
 10
2705.499958099701
 20
3351.000021973454
 30
0.0
 40
1.249999999999751
  0
CIRCLE
  5
FA4
330
2
100
AcDbEntity
  8
0
  6
Continuous
 62
     7
100
AcDbCircle
 10
2705.499958099
 20
3362.000021973454
 30
0.0
 40
1.249999999999751
  0
ARC
  5
FA5
330
2
100
AcDbEntity
  8
0
  6
Continuous
 62
     7
100
AcDbCircle
 10
2705.499958099335
 20
3356.500021973464
 30
0.0
 40
12.99999999999996
100
AcDbArc
 50
127.9191486695211
 51
232.0153978082266
  0
ARC
  5
FA6
330
2
100
AcDbEntity
  8
0
  6
Continuous
 62
     7
100
AcDbCircle
 10
2699.494023100575
 20
3346.111145961563
 30
0.0
 40
2.000000000000083
100
AcDbArc
 50
175.9117530112114
 51
304.0227934664419
  0
ARC
  5
FA7
330
2
100
AcDbEntity
  8
0
  6
Continuous
 62
     7
100
AcDbCircle
 10
2705.499958099335
 20
3356.500021973464
 30
0.0
 40
13.00000000000002
100
AcDbArc
 50
247.919148669468
 51
352.0153978081919
  0
ARC
  5
FA8
330
2
100
AcDbEntity
  8
0
  6
Continuous
 62
     7
100
AcDbCircle
 10
2717.499956141784
 20
3356.493167697009
 30
0.0
 40
1.999999999999968
100
AcDbArc
 50
295.9117530111758
 51
359.967273238839
  0
ARC
  5
FA9
330
2
100
AcDbEntity
  8
0
  6
Continuous
 62
     7
100
AcDbCircle
 10
2717.499956141784
 20
3356.493167697009
 30
0.0
 40
2.000000000000241
100
AcDbArc
 50
359.967273238852
 51
64.02279346644959
  0
ARC
  5
FAA
330
2
100
AcDbEntity
  8
0
  6
Continuous
 62
     7
100
AcDbCircle
 10
2705.499958099335
 20
3356.500021973464
 30
0.0
 40
13.00000000000016
100
AcDbArc
 50
7.919148669509206
 51
112.0153978081301
  0
ARC
  5
FAB
330
2
100
AcDbEntity
  8
0
  6
Continuous
 62
     7
100
AcDbCircle
 10
2699.505895055645
 20
3366.895752261822
 30
0.0
 40
1.999999999999796
100
AcDbArc
 50
55.91175301125026
 51
184.0227934664821
  0
ARC
  5
FAC
330
2
100
AcDbEntity
  8
0
  6
Continuous
 62
     7
100
AcDbCircle
 10
2705.499958099335
 20
3356.500021973464
 30
0.0
 40
15.00000000000003
100
AcDbArc
 50
89.9999942901803
 51
269.9672732388389
  0
ARC
  5
FAD
330
2
100
AcDbEntity
  8
0
  6
Continuous
 62
     7
100
AcDbCircle
 10
2705.499958099335
 20
3356.500021973464
 30
0.0
 40
14.99999999999975
100
AcDbArc
 50
269.9672732388389
 51
89.9999942901803
  0
CIRCLE
  5
FAE
330
2
100
AcDbEntity
  8
0
  6
Continuous
 62
     7
100
AcDbCircle
 10
2682.49995959434
 20
3456.500021926552
 30
0.0
 40
12.49999999999573
  0
CIRCLE
  5
FAF
330
2
100
AcDbEntity
  8
0
  6
Continuous
 62
     7
100
AcDbCircle
 10
2682.49995959434
 20
3456.500021926564
 30
0.0
 40
12.19999999999554
  0
CIRCLE
  5
FB0
330
2
100
AcDbEntity
  8
0
  6
Continuous
 62
     7
100
AcDbCircle
 10
2682.540230233593
 20
3461.999874495094
 30
0.0
 40
1.249999999999751
  0
CIRCLE
  5
FB1
330
2
100
AcDbEntity
  8
0
  6
Continuous
 62
     7
100
AcDbCircle
 10
2682.45968895509
 20
3451.000169358031
 30
0.0
 40
1.249999999999751
  0
CIRCLE
  5
FB2
330
2
100
AcDbEntity
  8
0
  6
Continuous
 62
     7
100
AcDbCircle
 10
2182.499959594194
 20
3456.500021926552
 30
0.0
 40
12.49999999999573
  0
CIRCLE
  5
FB3
330
2
100
AcDbEntity
  8
0
  6
Continuous
 62
     7
100
AcDbCircle
 10
2182.499959594194
 20
3456.500021926565
 30
0.0
 40
12.19999999999554
  0
CIRCLE
  5
FB4
330
2
100
AcDbEntity
  8
0
  6
Continuous
 62
     7
100
AcDbCircle
 10
2182.557391655633
 20
3461.999722060053
 30
0.0
 40
1.249999999999751
  0
CIRCLE
  5
FB5
330
2
100
AcDbEntity
  8
0
  6
Continuous
 62
     7
100
AcDbCircle
 10
2182.442527532755
 20
3451.000321793073
 30
0.0
 40
1.249999999999751
  0
ARC
  5
FB6
330
2
100
AcDbEntity
  8
0
  6
Continuous
 62
     7
100
AcDbCircle
 10
2069.499959596654
 20
3438.500021972888
 30
0.0
 40
7.500000000000283
100
AcDbArc
 50
180.0000000013027
 51
0.0000000013027552
  0
CIRCLE
  5
FB7
330
2
100
AcDbEntity
  8
0
  6
Continuous
 62
     9
100
AcDbCircle
 10
2069.499959596687
 20
3438.500021972908
 30
0.0
 40
6.999999999999673
  0
ARC
  5
FB8
330
2
100
AcDbEntity
  8
0
  6
Continuous
 62
     7
100
AcDbCircle
 10
2069.499959596654
 20
3438.500021972888
 30
0.0
 40
7.500000000000283
100
AcDbArc
 50
0.0000000013027552
 51
180.0000000013027
  0
LINE
  5
FB9
330
2
100
AcDbEntity
  8
0
  6
Continuous
 62
     7
100
AcDbLine
 10
2070.249959596801
 20
3433.501916347306
 30
0.0
 11
2070.249959596573
 21
3443.49812759854
 31
0.0
  0
LINE
  5
FBA
330
2
100
AcDbEntity
  8
0
  6
Continuous
 62
     7
100
AcDbLine
 10
2070.249959596573
 20
3443.49812759854
 30
0.0
 11
2068.749959596573
 21
3443.498127598508
 31
0.0
  0
LINE
  5
FBB
330
2
100
AcDbEntity
  8
0
  6
Continuous
 62
     7
100
AcDbLine
 10
2068.749959596801
 20
3433.501916347273
 30
0.0
 11
2068.749959596573
 21
3443.498127598508
 31
0.0
  0
LINE
  5
FBC
330
2
100
AcDbEntity
  8
0
  6
Continuous
 62
     7
100
AcDbLine
 10
2068.749959596801
 20
3433.501916347273
 30
0.0
 11
2070.249959596801
 21
3433.501916347306
 31
0.0
  0
LINE
  5
FBD
330
2
100
AcDbEntity
  8
0
  6
Continuous
 62
     9
100
AcDbLine
 10
2068.749959596579
 20
3437.625021972823
 30
0.0
 11
2070.249959596579
 21
3437.625021972856
 31
0.0
  0
LINE
  5
FBE
330
2
100
AcDbEntity
  8
0
  6
Continuous
 62
     9
100
AcDbLine
 10
2068.749959596539
 20
3439.375021972823
 30
0.0
 11
2070.249959596539
 21
3439.375021972856
 31
0.0
  0
ARC
  5
FBF
330
2
100
AcDbEntity
  8
0
  6
Continuous
 62
     7
100
AcDbCircle
 10
2069.499959595452
 20
3438.500021972258
 30
0.0
 40
9.999999999999786
100
AcDbArc
 50
126.8698976422302
 51
180.0000000013027
  0
ARC
  5
FC0
330
2
100
AcDbEntity
  8
0
  6
Continuous
 62
     7
100
AcDbCircle
 10
2069.499959595452
 20
3438.500021972258
 30
0.0
 40
9.999999999999786
100
AcDbArc
 50
180.0000000013027
 51
53.13010235776983
  0
CIRCLE
  5
FC1
330
2
100
AcDbEntity
  8
0
  6
Continuous
 62
     7
100
AcDbCircle
 10
2069.499959594459
 20
3476.500021973021
 30
0.0
 40
10.5000000000004
  0
CIRCLE
  5
FC2
330
2
100
AcDbEntity
  8
0
  6
Continuous
 62
     7
100
AcDbCircle
 10
2069.499959594459
 20
3476.500021973004
 30
0.0
 40
12.49999999999929
  0
LINE
  5
FC3
330
2
100
AcDbEntity
  8
0
  6
Continuous
 62
     7
100
AcDbLine
 10
2070.249959594571
 20
3471.501916347421
 30
0.0
 11
2070.249959594343
 21
3481.498127598655
 31
0.0
  0
LINE
  5
FC4
330
2
100
AcDbEntity
  8
0
  6
Continuous
 62
     7
100
AcDbLine
 10
2070.249959594343
 20
3481.498127598655
 30
0.0
 11
2068.749959594343
 21
3481.498127598622
 31
0.0
  0
LINE
  5
FC5
330
2
100
AcDbEntity
  8
0
  6
Continuous
 62
     7
100
AcDbLine
 10
2068.74995959457
 20
3471.501916347387
 30
0.0
 11
2068.749959594343
 21
3481.498127598622
 31
0.0
  0
LINE
  5
FC6
330
2
100
AcDbEntity
  8
0
  6
Continuous
 62
     7
100
AcDbLine
 10
2068.74995959457
 20
3471.501916347387
 30
0.0
 11
2070.249959594571
 21
3471.501916347421
 31
0.0
  0
LINE
  5
FC7
330
2
100
AcDbEntity
  8
0
  6
Continuous
 62
     9
100
AcDbLine
 10
2068.749959594475
 20
3475.625021972938
 30
0.0
 11
2070.249959594475
 21
3475.625021972971
 31
0.0
  0
LINE
  5
FC8
330
2
100
AcDbEntity
  8
0
  6
Continuous
 62
     9
100
AcDbLine
 10
2068.749959594436
 20
3477.375021972937
 30
0.0
 11
2070.249959594436
 21
3477.37502197297
 31
0.0
  0
ARC
  5
FC9
330
2
100
AcDbEntity
  8
0
  6
Continuous
 62
     7
100
AcDbCircle
 10
1627.499959596229
 20
3438.500021971112
 30
0.0
 40
7.500000000000283
100
AcDbArc
 50
180.0000000006644
 51
0.0000000006644052
  0
CIRCLE
  5
FCA
330
2
100
AcDbEntity
  8
0
  6
Continuous
 62
     9
100
AcDbCircle
 10
1627.49995959626
 20
3438.500021971098
 30
0.0
 40
6.999999999996119
  0
ARC
  5
FCB
330
2
100
AcDbEntity
  8
0
  6
Continuous
 62
     7
100
AcDbCircle
 10
1627.499959596229
 20
3438.500021971112
 30
0.0
 40
7.500000000000283
100
AcDbArc
 50
0.0000000006644052
 51
180.0000000006644
  0
LINE
  5
FCC
330
2
100
AcDbEntity
  8
0
  6
Continuous
 62
     7
100
AcDbLine
 10
1628.249959596318
 20
3433.501916345489
 30
0.0
 11
1628.249959596203
 21
3443.498127596721
 31
0.0
  0
LINE
  5
FCD
330
2
100
AcDbEntity
  8
0
  6
Continuous
 62
     7
100
AcDbLine
 10
1628.249959596203
 20
3443.498127596721
 30
0.0
 11
1626.749959596203
 21
3443.498127596704
 31
0.0
  0
LINE
  5
FCE
330
2
100
AcDbEntity
  8
0
  6
Continuous
 62
     7
100
AcDbLine
 10
1626.749959596318
 20
3433.501916345472
 30
0.0
 11
1626.749959596203
 21
3443.498127596704
 31
0.0
  0
LINE
  5
FCF
330
2
100
AcDbEntity
  8
0
  6
Continuous
 62
     7
100
AcDbLine
 10
1626.749959596318
 20
3433.501916345472
 30
0.0
 11
1628.249959596318
 21
3433.501916345489
 31
0.0
  0
LINE
  5
FD0
330
2
100
AcDbEntity
  8
0
  6
Continuous
 62
     9
100
AcDbLine
 10
1626.749959596125
 20
3439.37502197115
 30
0.0
 11
1628.249959596125
 21
3439.375021971166
 31
0.0
  0
LINE
  5
FD1
330
2
100
AcDbEntity
  8
0
  6
Continuous
 62
     9
100
AcDbLine
 10
1626.749959596143
 20
3437.62502197115
 30
0.0
 11
1628.249959596143
 21
3437.625021971167
 31
0.0
  0
ARC
  5
FD2
330
2
100
AcDbEntity
  8
0
  6
Continuous
 62
     7
100
AcDbCircle
 10
1627.499959595028
 20
3438.500021971693
 30
0.0
 40
9.999999999999786
100
AcDbArc
 50
126.869897636881
 51
180.0000000006644
  0
ARC
  5
FD3
330
2
100
AcDbEntity
  8
0
  6
Continuous
 62
     7
100
AcDbCircle
 10
1627.499959595028
 20
3438.500021971693
 30
0.0
 40
9.999999999999786
100
AcDbArc
 50
180.0000000006644
 51
53.13010236311893
  0
CIRCLE
  5
FD4
330
2
100
AcDbEntity
  8
0
  6
Continuous
 62
     7
100
AcDbCircle
 10
1627.499959594457
 20
3476.500021971073
 30
0.0
 40
10.49999999999329
  0
CIRCLE
  5
FD5
330
2
100
AcDbEntity
  8
0
  6
Continuous
 62
     7
100
AcDbCircle
 10
1627.499959594457
 20
3476.500021971089
 30
0.0
 40
12.49999999999218
  0
LINE
  5
FD6
330
2
100
AcDbEntity
  8
0
  6
Continuous
 62
     7
100
AcDbLine
 10
1628.249959594513
 20
3471.501916345465
 30
0.0
 11
1628.249959594401
 21
3481.498127596696
 31
0.0
  0
LINE
  5
FD7
330
2
100
AcDbEntity
  8
0
  6
Continuous
 62
     7
100
AcDbLine
 10
1628.249959594401
 20
3481.498127596696
 30
0.0
 11
1626.749959594401
 21
3481.498127596682
 31
0.0
  0
LINE
  5
FD8
330
2
100
AcDbEntity
  8
0
  6
Continuous
 62
     7
100
AcDbLine
 10
1626.749959594512
 20
3471.501916345448
 30
0.0
 11
1626.749959594401
 21
3481.498127596682
 31
0.0
  0
LINE
  5
FD9
330
2
100
AcDbEntity
  8
0
  6
Continuous
 62
     7
100
AcDbLine
 10
1626.749959594512
 20
3471.501916345448
 30
0.0
 11
1628.249959594513
 21
3471.501916345465
 31
0.0
  0
LINE
  5
FDA
330
2
100
AcDbEntity
  8
0
  6
Continuous
 62
     9
100
AcDbLine
 10
1626.749959594448
 20
3477.375021971125
 30
0.0
 11
1628.249959594448
 21
3477.375021971142
 31
0.0
  0
LINE
  5
FDB
330
2
100
AcDbEntity
  8
0
  6
Continuous
 62
     9
100
AcDbLine
 10
1626.749959594466
 20
3475.625021971125
 30
0.0
 11
1628.249959594466
 21
3475.625021971143
 31
0.0
  0
LINE
  5
FDC
330
2
100
AcDbEntity
  8
0
  6
Continuous
 62
     4
100
AcDbLine
 10
1567.499959594173
 20
1506.500022022119
 30
0.0
 11
1567.499959594173
 21
3506.50002202212
 31
0.0
  0
LINE
  5
FDD
330
2
100
AcDbEntity
  8
0
  6
Continuous
 62
     4
100
AcDbLine
 10
1559.499959594173
 20
3506.50002202212
 30
0.0
 11
1567.499959594173
 21
3506.50002202212
 31
0.0
  0
LINE
  5
FDE
330
2
100
AcDbEntity
  8
0
  6
Continuous
 62
     4
100
AcDbLine
 10
1559.499959594173
 20
1506.500022022119
 30
0.0
 11
1559.499959594173
 21
3506.50002202212
 31
0.0
  0
LINE
  5
FDF
330
2
100
AcDbEntity
  8
0
  6
Continuous
 62
     7
100
AcDbLine
 10
1608.499959594615
 20
1525.500021976982
 30
0.0
 11
1608.499959594421
 21
1527.500021977109
 31
0.0
  0
LINE
  5
FE0
330
2
100
AcDbEntity
  8
0
  6
Continuous
 62
     9
100
AcDbLine
 10
1608.499959594615
 20
1525.500021976982
 30
0.0
 11
1568.499959594614
 21
1525.500021973112
 31
0.0
  0
ARC
  5
FE1
330
2
100
AcDbEntity
  8
0
  6
Continuous
 62
     7
100
AcDbCircle
 10
1570.499959594614
 20
1525.500021973433
 30
0.0
 40
2.000000000063284
100
AcDbArc
 50
90.00000000552368
 51
180.0000000092104
  0
LINE
  5
FE2
330
2
100
AcDbEntity
  8
0
  6
Continuous
 62
     7
100
AcDbLine
 10
1608.499959594421
 20
1527.500021977109
 30
0.0
 11
1570.499959594421
 21
1527.500021973433
 31
0.0
  0
LINE
  5
FE3
330
2
100
AcDbEntity
  8
0
  6
Continuous
 62
     7
100
AcDbLine
 10
1568.499959594615
 20
1525.500021973112
 30
0.0
 11
1568.499959596456
 21
1506.500021973112
 31
0.0
  0
LINE
  5
FE4
330
2
100
AcDbEntity
  8
0
  6
Continuous
 62
     7
100
AcDbLine
 10
1608.499959596455
 20
1506.500021976982
 30
0.0
 11
1608.499959594615
 21
1525.500021976982
 31
0.0
  0
LINE
  5
FE5
330
2
100
AcDbEntity
  8
0
  6
Continuous
 62
     7
100
AcDbLine
 10
1568.499961188044
 20
3506.500021972544
 30
0.0
 11
1568.499961188037
 21
3460.500021972637
 31
0.0
  0
LINE
  5
FE6
330
2
100
AcDbEntity
  8
0
  6
Continuous
 62
     7
100
AcDbLine
 10
1568.499961188036
 20
3452.500021972637
 30
0.0
 11
1568.499961187757
 21
1525.500021974458
 31
0.0
  0
LINE
  5
FE7
330
2
100
AcDbEntity
  8
0
  6
Continuous
 62
     7
100
AcDbLine
 10
1574.29995950231
 20
3506.500021972631
 30
0.0
 11
1574.299959502305
 21
3468.700022064805
 31
0.0
  0
LINE
  5
FE8
330
2
100
AcDbEntity
  8
0
  6
Continuous
 62
     7
100
AcDbLine
 10
1574.299959502303
 20
3444.300021880464
 30
0.0
 11
1574.299959502028
 21
1527.500021973801
 31
0.0
  0
LINE
  5
FE9
330
2
100
AcDbEntity
  8
0
  6
Continuous
 62
     7
100
AcDbLine
 10
1574.29995950231
 20
3506.500021972516
 30
0.0
 11
1568.499961188043
 21
3506.500021972517
 31
0.0
  0
LINE
  5
FEA
330
2
100
AcDbEntity
  8
0
  6
Continuous
 62
     9
100
AcDbLine
 10
1586.699957035265
 20
3506.500021972629
 30
0.0
 11
1586.69995703526
 21
3466.500021972624
 31
0.0
  0
LINE
  5
FEB
330
2
100
AcDbEntity
  8
0
  6
Continuous
 62
     9
100
AcDbLine
 10
1586.699957035258
 20
3446.500021972631
 30
0.0
 11
1586.69995703498
 21
1527.500021975001
 31
0.0
  0
LINE
  5
FEC
330
2
100
AcDbEntity
  8
0
  6
Continuous
 62
     7
100
AcDbLine
 10
1586.699957035265
 20
3506.500021972629
 30
0.0
 11
1574.29995950231
 21
3506.500021972631
 31
0.0
  0
LINE
  5
FED
330
2
100
AcDbEntity
  8
0
  6
Continuous
 62
     9
100
AcDbLine
 10
1587.499957082111
 20
3506.500021972601
 30
0.0
 11
1587.499957082105
 21
3466.500021972622
 31
0.0
  0
LINE
  5
FEE
330
2
100
AcDbEntity
  8
0
  6
Continuous
 62
     9
100
AcDbLine
 10
1587.4999570821
 20
3446.500021972633
 30
0.0
 11
1587.499957081825
 21
1527.500021975078
 31
0.0
  0
LINE
  5
FEF
330
2
100
AcDbEntity
  8
0
  6
Continuous
 62
     7
100
AcDbLine
 10
1587.499957082111
 20
3506.500021972601
 30
0.0
 11
1586.699957035265
 21
3506.500021972601
 31
0.0
  0
LINE
  5
FF0
330
2
100
AcDbEntity
  8
0
  6
Continuous
 62
     7
100
AcDbLine
 10
1587.499957128957
 20
3506.500021972573
 30
0.0
 11
1587.499957128952
 21
3466.500021972624
 31
0.0
  0
LINE
  5
FF1
330
2
100
AcDbEntity
  8
0
  6
Continuous
 62
     7
100
AcDbLine
 10
1587.499957128948
 20
3446.500021972631
 30
0.0
 11
1587.499957128671
 21
1527.500021975078
 31
0.0
  0
LINE
  5
FF2
330
2
100
AcDbEntity
  8
0
  6
Continuous
 62
     7
100
AcDbLine
 10
1568.499960837767
 20
3506.500021972344
 30
0.0
 11
1568.499960837762
 21
3460.500021972637
 31
0.0
  0
LINE
  5
FF3
330
2
100
AcDbEntity
  8
0
  6
Continuous
 62
     7
100
AcDbLine
 10
1568.499960837762
 20
3452.500021972637
 30
0.0
 11
1568.499960837484
 21
1525.500021974458
 31
0.0
  0
LINE
  5
FF4
330
2
100
AcDbEntity
  8
0
  6
Continuous
 62
     9
100
AcDbLine
 10
1614.499959593566
 20
2501.500021973682
 30
0.0
 11
1615.499959593602
 21
2501.500021973682
 31
0.0
  0
ARC
  5
FF5
330
2
100
AcDbEntity
  8
0
  6
Continuous
 62
     7
100
AcDbCircle
 10
1614.499959593602
 20
2501.500021973682
 30
0.0
 40
0.9999999999994455
100
AcDbArc
 50
270.0
 51
0.0
  0
LINE
  5
FF6
330
2
100
AcDbEntity
  8
0
  6
Continuous
 62
     9
100
AcDbLine
 10
1614.499959593602
 20
2501.500021973753
 30
0.0
 11
1614.499959593602
 21
2500.500021973683
 31
0.0
  0
LINE
  5
FF7
330
2
100
AcDbEntity
  8
0
  6
Continuous
 62
     9
100
AcDbLine
 10
1596.499959593568
 20
2501.500021973755
 30
0.0
 11
1614.49995959357
 21
2501.500021973751
 31
0.0
  0
LINE
  5
FF8
330
2
100
AcDbEntity
  8
0
  6
Continuous
 62
     7
100
AcDbLine
 10
1614.499959593602
 20
2500.500021973682
 30
0.0
 11
1596.499959593602
 21
2500.500021973685
 31
0.0
  0
LINE
  5
FF9
330
2
100
AcDbEntity
  8
0
  6
Continuous
 62
     9
100
AcDbLine
 10
1596.499959593604
 20
2501.500021973755
 30
0.0
 11
1596.499959593604
 21
2500.500021973685
 31
0.0
  0
LINE
  5
FFA
330
2
100
AcDbEntity
  8
0
  6
Continuous
 62
     9
100
AcDbLine
 10
1614.499959593566
 20
2501.500021973753
 30
0.0
 11
1614.49995959357
 21
2519.500021973753
 31
0.0
  0
LINE
  5
FFB
330
2
100
AcDbEntity
  8
0
  6
Continuous
 62
     9
100
AcDbLine
 10
1614.49995959357
 20
2519.500021973682
 30
0.0
 11
1615.499959593604
 21
2519.500021973682
 31
0.0
  0
LINE
  5
FFC
330
2
100
AcDbEntity
  8
0
  6
Continuous
 62
     7
100
AcDbLine
 10
1615.499959593604
 20
2519.500021973682
 30
0.0
 11
1615.499959593604
 21
2501.500021973681
 31
0.0
  0
LINE
  5
FFD
330
2
100
AcDbEntity
  8
0
  6
Continuous
 62
     9
100
AcDbLine
 10
1596.499959593569
 20
2519.500021973755
 30
0.0
 11
1596.499959593568
 21
2501.500021973755
 31
0.0
  0
LINE
  5
FFE
330
2
100
AcDbEntity
  8
0
  6
Continuous
 62
     9
100
AcDbLine
 10
1614.49995959357
 20
2519.500021973753
 30
0.0
 11
1596.499959593569
 21
2519.500021973755
 31
0.0
  0
ARC
  5
FFF
330
2
100
AcDbEntity
  8
0
  6
Continuous
 62
     7
100
AcDbCircle
 10
1596.499959593604
 20
2501.500021973685
 30
0.0
 40
0.9999999999994455
100
AcDbArc
 50
180.0
 51
270.0
  0
LINE
  5
1000
330
2
100
AcDbEntity
  8
0
  6
Continuous
 62
     9
100
AcDbLine
 10
1595.499959593602
 20
2501.500021973685
 30
0.0
 11
1596.499959593566
 21
2501.500021973685
 31
0.0
  0
LINE
  5
1001
330
2
100
AcDbEntity
  8
0
  6
Continuous
 62
     7
100
AcDbLine
 10
1595.499959593602
 20
2501.500021973685
 30
0.0
 11
1595.499959593602
 21
2519.500021973685
 31
0.0
  0
LINE
  5
1002
330
2
100
AcDbEntity
  8
0
  6
Continuous
 62
     9
100
AcDbLine
 10
1595.499959593606
 20
2519.500021973685
 30
0.0
 11
1596.499959593569
 21
2519.500021973685
 31
0.0
  0
ARC
  5
1003
330
2
100
AcDbEntity
  8
0
  6
Continuous
 62
     7
100
AcDbCircle
 10
1614.499959593608
 20
2519.500021973682
 30
0.0
 40
1.000000000000333
100
AcDbArc
 50
0.0
 51
90.0
  0
LINE
  5
1004
330
2
100
AcDbEntity
  8
0
  6
Continuous
 62
     9
100
AcDbLine
 10
1614.499959593608
 20
2520.50002197368
 30
0.0
 11
1614.499959593608
 21
2519.500021973753
 31
0.0
  0
LINE
  5
1005
330
2
100
AcDbEntity
  8
0
  6
Continuous
 62
     7
100
AcDbLine
 10
1596.499959593606
 20
2520.500021973684
 30
0.0
 11
1614.499959593608
 21
2520.50002197368
 31
0.0
  0
LINE
  5
1006
330
2
100
AcDbEntity
  8
0
  6
Continuous
 62
     9
100
AcDbLine
 10
1596.499959593606
 20
2520.500021973684
 30
0.0
 11
1596.499959593606
 21
2519.500021973755
 31
0.0
  0
ARC
  5
1007
330
2
100
AcDbEntity
  8
0
  6
Continuous
 62
     7
100
AcDbCircle
 10
1596.499959593606
 20
2519.500021973685
 30
0.0
 40
0.9999999999994455
100
AcDbArc
 50
90.0
 51
180.0
  0
LINE
  5
1008
330
2
100
AcDbEntity
  8
0
  6
Continuous
 62
     4
100
AcDbLine
 10
2118.499959594174
 20
3506.500021972216
 30
0.0
 11
1587.499957644257
 21
3506.500021972293
 31
0.0
  0
LINE
  5
1009
330
2
100
AcDbEntity
  8
0
  6
Continuous
 62
     9
100
AcDbLine
 10
2113.499959594106
 20
1524.000022055399
 30
0.0
 11
1608.499959594761
 21
1524.000022006549
 31
0.0
  0
LINE
  5
100A
330
2
100
AcDbEntity
  8
0
  6
Continuous
 62
     7
100
AcDbLine
 10
2113.499959594022
 20
1526.50002205556
 30
0.0
 11
1608.499959594499
 21
1526.500022006709
 31
0.0
  0
LINE
  5
100B
330
2
100
AcDbEntity
  8
0
  6
Continuous
 62
     9
100
AcDbLine
 10
2113.49995959556
 20
1509.0000220554
 30
0.0
 11
1608.499959596213
 21
1509.00002200655
 31
0.0
  0
LINE
  5
100C
330
2
100
AcDbEntity
  8
0
  6
Continuous
 62
     7
100
AcDbLine
 10
2113.499959594678
 20
1526.500021973173
 30
0.0
 11
2113.499959594678
 21
1529.000021973172
 31
0.0
  0
LINE
  5
100D
330
2
100
AcDbEntity
  8
0
  6
Continuous
 62
     7
100
AcDbLine
 10
2113.499959594678
 20
1529.000021973172
 30
0.0
 11
2118.499959594174
 21
1529.000021973172
 31
0.0
  0
LINE
  5
100E
330
2
100
AcDbEntity
  8
0
  6
Continuous
 62
     7
100
AcDbLine
 10
2153.499959593715
 20
1506.500021972215
 30
0.0
 11
2153.499959593715
 21
1526.500021972214
 31
0.0
  0
LINE
  5
100F
330
2
100
AcDbEntity
  8
0
  6
Continuous
 62
     9
100
AcDbLine
 10
2115.499959593714
 20
1526.500021972214
 30
0.0
 11
2115.499959593714
 21
1506.500021972215
 31
0.0
  0
LINE
  5
1010
330
2
100
AcDbEntity
  8
0
  6
Continuous
 62
     7
100
AcDbLine
 10
2153.499959593715
 20
1526.500021972214
 30
0.0
 11
2115.499959593714
 21
1526.500021972214
 31
0.0
  0
LINE
  5
1011
330
2
100
AcDbEntity
  8
0
  6
Continuous
 62
     7
100
AcDbLine
 10
2113.499959593843
 20
1506.500021972343
 30
0.0
 11
2113.499959593843
 21
1526.500021972343
 31
0.0
  0
LINE
  5
1012
330
2
100
AcDbEntity
  8
0
  6
Continuous
 62
     7
100
AcDbLine
 10
2113.499959593843
 20
1526.500021972343
 30
0.0
 11
2115.499959593714
 21
1526.500021972343
 31
0.0
  0
LINE
  5
1013
330
2
100
AcDbEntity
  8
0
  6
Continuous
 62
     4
100
AcDbLine
 10
2118.499959594174
 20
3506.500021973348
 30
0.0
 11
2746.499959594174
 21
3506.500021973348
 31
0.0
  0
ARC
  5
1014
330
2
100
AcDbEntity
  8
0
  6
Continuous
 62
     4
100
AcDbCircle
 10
2705.499959594174
 20
3356.500021973346
 30
0.0
 40
14.99999999999968
100
AcDbArc
 50
269.9672675290183
 51
90.0
  0
ARC
  5
1015
330
2
100
AcDbEntity
  8
0
  6
Continuous
 62
     4
100
AcDbCircle
 10
2705.499959594174
 20
3356.500021973346
 30
0.0
 40
15.00000000000041
100
AcDbArc
 50
90.0
 51
269.9672675290183
  0
ARC
  5
1016
330
2
100
AcDbEntity
  8
0
  6
Continuous
 62
     4
100
AcDbCircle
 10
2705.499959594174
 20
1656.500021973347
 30
0.0
 40
15.00000000000012
100
AcDbArc
 50
269.9672675289141
 51
90.0
  0
ARC
  5
1017
330
2
100
AcDbEntity
  8
0
  6
Continuous
 62
     4
100
AcDbCircle
 10
2705.499959594174
 20
1656.500021973347
 30
0.0
 40
14.99999999999996
100
AcDbArc
 50
90.0
 51
269.9672675289141
  0
LINE
  5
1018
330
2
100
AcDbEntity
  8
0
  6
Continuous
 62
     4
100
AcDbLine
 10
2118.499959594174
 20
1526.500021973112
 30
0.0
 11
2118.499959594174
 21
3506.500021973348
 31
0.0
  0
LINE
  5
1019
330
2
100
AcDbEntity
  8
0
  6
Continuous
 62
     4
100
AcDbLine
 10
2746.499959594174
 20
1506.500021973349
 30
0.0
 11
2746.499959594174
 21
3506.500021973348
 31
0.0
  0
LINE
  5
101A
330
2
100
AcDbEntity
  8
0
  6
Continuous
 62
     7
100
AcDbLine
 10
2746.499959594174
 20
1456.500021971671
 30
0.0
 11
1546.499959594173
 21
1456.500021971671
 31
0.0
  0
LINE
  5
101B
330
2
100
AcDbEntity
  8
0
  6
Continuous
 62
     7
100
AcDbLine
 10
2746.499959594174
 20
1506.500021971671
 30
0.0
 11
1546.499959594173
 21
1506.500021971671
 31
0.0
  0
LINE
  5
101C
330
2
100
AcDbEntity
  8
0
  6
Continuous
 62
     7
100
AcDbLine
 10
2746.499959594174
 20
1456.500021971671
 30
0.0
 11
2746.499959594174
 21
1506.500021971671
 31
0.0
  0
LINE
  5
101D
330
2
100
AcDbEntity
  8
0
  6
Continuous
 62
     7
100
AcDbLine
 10
1546.499959594173
 20
1456.500021971671
 30
0.0
 11
1546.499959594173
 21
1506.500021971671
 31
0.0
  0
LINE
  5
101E
330
2
100
AcDbEntity
  8
0
  6
Continuous
 62
     9
100
AcDbLine
 10
1567.499959594173
 20
3453.125021972636
 30
0.0
 11
1569.499959595232
 21
3453.125021972636
 31
0.0
  0
LINE
  5
101F
330
2
100
AcDbEntity
  8
0
  6
Continuous
 62
     9
100
AcDbLine
 10
1569.499959595232
 20
3459.875021972637
 30
0.0
 11
1567.499959594173
 21
3459.875021972637
 31
0.0
  0
LINE
  5
1020
330
2
100
AcDbEntity
  8
0
  6
Continuous
 62
     7
100
AcDbLine
 10
1558.299959594183
 20
3448.500021972638
 30
0.0
 11
1558.499959594184
 21
3448.500021972638
 31
0.0
  0
LINE
  5
1021
330
2
100
AcDbEntity
  8
0
  6
Continuous
 62
     7
100
AcDbLine
 10
1558.499959594184
 20
3464.500021972637
 30
0.0
 11
1558.299959594183
 21
3464.500021972637
 31
0.0
  0
LINE
  5
1022
330
2
100
AcDbEntity
  8
0
  6
Continuous
 62
     7
100
AcDbLine
 10
1558.099959594185
 20
3448.500021972638
 30
0.0
 11
1558.299959594183
 21
3448.500021972638
 31
0.0
  0
LINE
  5
1023
330
2
100
AcDbEntity
  8
0
  6
Continuous
 62
     7
100
AcDbLine
 10
1558.299959594183
 20
3464.500021972637
 30
0.0
 11
1558.099959594185
 21
3464.500021972637
 31
0.0
  0
LINE
  5
1024
330
2
100
AcDbEntity
  8
0
  6
Continuous
 62
     7
100
AcDbLine
 10
1559.499959594182
 20
3468.500021972636
 30
0.0
 11
1558.499959594184
 21
3468.500021972636
 31
0.0
  0
LINE
  5
1025
330
2
100
AcDbEntity
  8
0
  6
Continuous
 62
     7
100
AcDbLine
 10
1558.499959594184
 20
3444.500021972635
 30
0.0
 11
1559.499959594182
 21
3444.500021972635
 31
0.0
  0
LINE
  5
1026
330
2
100
AcDbEntity
  8
0
  6
Continuous
 62
     7
100
AcDbLine
 10
1567.499959594173
 20
3452.500021972637
 30
0.0
 11
1569.499959594472
 21
3452.500021972637
 31
0.0
  0
LINE
  5
1027
330
2
100
AcDbEntity
  8
0
  6
Continuous
 62
     7
100
AcDbLine
 10
1569.499959594472
 20
3460.500021972637
 30
0.0
 11
1567.499959594173
 21
3460.500021972634
 31
0.0
  0
LINE
  5
1028
330
2
100
AcDbEntity
  8
0
  6
Continuous
 62
     7
100
AcDbLine
 10
1553.099959594185
 20
3469.000021972635
 30
0.0
 11
1552.099959594183
 21
3468.000021972636
 31
0.0
  0
LINE
  5
1029
330
2
100
AcDbEntity
  8
0
  6
Continuous
 62
     7
100
AcDbLine
 10
1552.099959594183
 20
3445.000021972637
 30
0.0
 11
1553.099959594185
 21
3444.000021972637
 31
0.0
  0
LINE
  5
102A
330
2
100
AcDbEntity
  8
0
  6
Continuous
 62
     7
100
AcDbLine
 10
1553.099959594185
 20
3444.000021972636
 30
0.0
 11
1558.099959594185
 21
3444.000021972636
 31
0.0
  0
LINE
  5
102B
330
2
100
AcDbEntity
  8
0
  6
Continuous
 62
     7
100
AcDbLine
 10
1558.099959594183
 20
3469.000021972635
 30
0.0
 11
1553.099959594181
 21
3469.000021972635
 31
0.0
  0
LINE
  5
102C
330
2
100
AcDbEntity
  8
0
  6
Continuous
 62
     7
100
AcDbLine
 10
1570.499959594475
 20
3468.500021972636
 30
0.0
 11
1569.499959594475
 21
3468.500021972636
 31
0.0
  0
LINE
  5
102D
330
2
100
AcDbEntity
  8
0
  6
Continuous
 62
     7
100
AcDbLine
 10
1569.499959594475
 20
3444.500021972635
 30
0.0
 11
1570.499959594475
 21
3444.500021972635
 31
0.0
  0
ARC
  5
102E
330
2
100
AcDbEntity
  8
0
  6
Continuous
 62
     7
100
AcDbCircle
 10
1570.999959594472
 20
3468.500021972636
 30
0.0
 40
0.5000000000006111
100
AcDbArc
 50
90.0
 51
180.0
  0
ARC
  5
102F
330
2
100
AcDbEntity
  8
0
  6
Continuous
 62
     7
100
AcDbCircle
 10
1570.999959594475
 20
3444.500021972635
 30
0.0
 40
0.5000000000006111
100
AcDbArc
 50
180.0
 51
270.0
  0
LINE
  5
1030
330
2
100
AcDbEntity
  8
0
  6
Continuous
 62
     7
100
AcDbLine
 10
1573.999959594472
 20
3469.000021972636
 30
0.0
 11
1570.999959594472
 21
3469.000021972636
 31
0.0
  0
LINE
  5
1031
330
2
100
AcDbEntity
  8
0
  6
Continuous
 62
     7
100
AcDbLine
 10
1570.999959594475
 20
3444.000021972636
 30
0.0
 11
1573.999959594477
 21
3444.000021972637
 31
0.0
  0
LINE
  5
1032
330
2
100
AcDbEntity
  8
0
  6
Continuous
 62
     7
100
AcDbLine
 10
1573.999959594472
 20
3444.000021972637
 30
0.0
 11
1575.499959594472
 21
3445.500021972637
 31
0.0
  0
LINE
  5
1033
330
2
100
AcDbEntity
  8
0
  6
Continuous
 62
     7
100
AcDbLine
 10
1575.499959594472
 20
3467.500021972637
 30
0.0
 11
1573.999959594472
 21
3469.000021972636
 31
0.0
  0
LINE
  5
1034
330
2
100
AcDbEntity
  8
0
  6
Continuous
 62
     7
100
AcDbLine
 10
1567.99995959407
 20
1670.750022020281
 30
0.0
 11
1567.499959594062
 21
1670.750022020217
 31
0.0
  0
LINE
  5
1035
330
2
100
AcDbEntity
  8
0
  6
Continuous
 62
     7
100
AcDbLine
 10
1567.499959597657
 20
1642.250022020218
 30
0.0
 11
1567.999959597666
 21
1642.25002202028
 31
0.0
  0
LINE
  5
1036
330
2
100
AcDbEntity
  8
0
  6
Continuous
 62
     7
100
AcDbLine
 10
1568.499960837505
 20
1671.500022020344
 30
0.0
 11
1567.99995959397
 21
1671.500022020281
 31
0.0
  0
LINE
  5
1037
330
2
100
AcDbEntity
  8
0
  6
Continuous
 62
     7
100
AcDbLine
 10
1567.999959597751
 20
1641.50002202028
 30
0.0
 11
1568.499960837502
 21
1641.500022020344
 31
0.0
  0
LINE
  5
1038
330
2
100
AcDbEntity
  8
0
  6
Continuous
 62
     7
100
AcDbLine
 10
1567.999959595085
 20
3370.750022020266
 30
0.0
 11
1567.499959595077
 21
3370.750022020203
 31
0.0
  0
LINE
  5
1039
330
2
100
AcDbEntity
  8
0
  6
Continuous
 62
     7
100
AcDbLine
 10
1567.49995959867
 20
3342.250022020202
 30
0.0
 11
1567.999959598679
 21
3342.250022020266
 31
0.0
  0
LINE
  5
103A
330
2
100
AcDbEntity
  8
0
  6
Continuous
 62
     7
100
AcDbLine
 10
1568.499960837749
 20
3371.500022020327
 30
0.0
 11
1567.999959594983
 21
3371.500022020266
 31
0.0
  0
LINE
  5
103B
330
2
100
AcDbEntity
  8
0
  6
Continuous
 62
     7
100
AcDbLine
 10
1567.999959598765
 20
3341.500022020266
 30
0.0
 11
1568.499960837744
 21
3341.500022020329
 31
0.0
  0
LINE
  5
103C
330
2
100
AcDbEntity
  8
0
  6
Continuous
 62
     7
100
AcDbLine
 10
2118.499959594174
 20
3466.500021972625
 30
0.0
 11
2076.999959593786
 21
3466.500021972625
 31
0.0
  0
LINE
  5
103D
330
2
100
AcDbEntity
  8
0
  6
Continuous
 62
     7
100
AcDbLine
 10
2061.999959593208
 20
3466.500021972625
 30
0.0
 11
1634.999959595198
 21
3466.500021972624
 31
0.0
  0
LINE
  5
103E
330
2
100
AcDbEntity
  8
0
  6
Continuous
 62
     7
100
AcDbLine
 10
1619.999959592604
 20
3466.500021972624
 30
0.0
 11
1575.499959594452
 21
3466.500021972624
 31
0.0
  0
LINE
  5
103F
330
2
100
AcDbEntity
  8
0
  6
Continuous
 62
     7
100
AcDbLine
 10
1575.499959594448
 20
3446.500021972631
 30
0.0
 11
2118.499959594174
 21
3446.500021972634
 31
0.0
  0
ENDSEC
  0
SECTION
  2
OBJECTS
  0
DICTIONARY
  5
7
330
0
100
AcDbDictionary
281
     1
  3
ACAD_COLOR
350
65C
  3
ACAD_GROUP
350
20
  3
ACAD_LAYOUT
350
B
  3
ACAD_MATERIAL
350
632
  3
ACAD_MLEADERSTYLE
350
681
  3
ACAD_MLINESTYLE
350
21
  3
ACAD_PLOTSETTINGS
350
22
  3
ACAD_PLOTSTYLENAME
350
6
  3
ACAD_SCALELIST
350
65F
  3
ACAD_TABLESTYLE
350
65D
  3
ACAD_VISUALSTYLE
350
64B
  3
ACDB_RECOMPOSE_DATA
350
6A0
  3
AcDbVariableDictionary
350
6A1
  3
ASE_INDEX_DICTIONARY
350
69B
  3
DWGPROPS
350
106F
  0
DICTIONARY
  5
68A
330
4
100
AcDbDictionary
280
     1
281
     1
  3
ADSK_XREC_LAYER_RECONCILED
360
68B
  0
DICTIONARY
  5
B8D
330
2
100
AcDbDictionary
280
     1
281
     1
  3
ACAD_SORTENTS
360
B8E
  0
DICTIONARY
  5
65C
102
{ACAD_REACTORS
330
7
102
}
330
7
100
AcDbDictionary
281
     1
  0
DICTIONARY
  5
20
102
{ACAD_REACTORS
330
7
102
}
330
7
100
AcDbDictionary
281
     1
  0
DICTIONARY
  5
B
102
{ACAD_REACTORS
330
7
102
}
330
7
100
AcDbDictionary
281
     1
  3
Layout1
350
F
  3
Model
350
A
  0
DICTIONARY
  5
632
102
{ACAD_REACTORS
330
7
102
}
330
7
100
AcDbDictionary
281
     1
  3
ByBlock
350
63B
  3
ByLayer
350
633
  3
Global
350
643
  0
DICTIONARY
  5
681
102
{ACAD_REACTORS
330
7
102
}
330
7
100
AcDbDictionary
281
     1
  3
Standard
350
682
  0
DICTIONARY
  5
21
102
{ACAD_REACTORS
330
7
102
}
330
7
100
AcDbDictionary
281
     1
  3
Standard
350
23
  0
DICTIONARY
  5
22
102
{ACAD_REACTORS
330
7
102
}
330
7
100
AcDbDictionary
281
     1
  0
ACDBDICTIONARYWDFLT
  5
6
102
{ACAD_REACTORS
330
7
102
}
330
7
100
AcDbDictionary
281
     1
  3
Normal
350
5
100
AcDbDictionaryWithDefault
340
5
  0
DICTIONARY
  5
65F
102
{ACAD_REACTORS
330
7
102
}
330
7
100
AcDbDictionary
281
     1
  3
A0
350
660
  3
A1
350
661
  3
A2
350
662
  3
A3
350
663
  3
A4
350
664
  3
A5
350
665
  3
A6
350
666
  3
A7
350
667
  3
A8
350
668
  3
A9
350
669
  3
B0
350
66A
  3
B1
350
66B
  3
B2
350
66C
  3
B3
350
66D
  3
B4
350
66E
  3
B5
350
66F
  3
B6
350
670
  3
B7
350
671
  3
B8
350
672
  3
B9
350
673
  3
C0
350
674
  3
C1
350
675
  3
C2
350
676
  3
C3
350
677
  3
C4
350
678
  3
C5
350
679
  3
C6
350
67A
  3
C7
350
67B
  3
C8
350
67C
  3
C9
350
67D
  3
D0
350
67E
  3
D1
350
67F
  3
D2
350
680
  0
DICTIONARY
  5
65D
102
{ACAD_REACTORS
330
7
102
}
330
7
100
AcDbDictionary
281
     1
  3
Standard
350
65E
  0
DICTIONARY
  5
64B
102
{ACAD_REACTORS
330
7
102
}
330
7
100
AcDbDictionary
281
     1
  3
2dWireframe
350
651
  3
3D Hidden
350
653
  3
3dWireframe
350
652
  3
Basic
350
650
  3
Brighten
350
657
  3
ColorChange
350
65B
  3
Conceptual
350
654
  3
Dim
350
656
  3
Facepattern
350
65A
  3
Flat
350
64C
  3
FlatWithEdges
350
64D
  3
Gouraud
350
64E
  3
GouraudWithEdges
350
64F
  3
Linepattern
350
659
  3
Realistic
350
655
  3
Thicken
350
658
  0
XRECORD
  5
6A0
102
{ACAD_REACTORS
330
7
102
}
330
7
100
AcDbXrecord
280
     1
 90
        1
330
65E
  0
DICTIONARY
  5
6A1
102
{ACAD_REACTORS
330
7
102
}
330
7
100
AcDbDictionary
281
     1
  3
CANNOSCALE
350
6A5
  3
CMLEADERSTYLE
350
6A3
  3
CTABLESTYLE
350
6A2
  3
DIMASSOC
350
B7F
  3
INDEXCTL
350
B7E
  3
LIGHTINGUNITS
350
6A6
  3
MSLTSCALE
350
6A4
  3
SORTENTS
350
B7D
  0
DICTIONARY
  5
69B
102
{ACAD_REACTORS
330
7
102
}
330
7
100
AcDbDictionary
281
     1
  3
ASEBlockHierarchyIndexRecord
350
69D
1001
DCO15
1040
1678078617.738
  0
XRECORD
  5
106F
102
{ACAD_REACTORS
330
7
102
}
330
7
100
AcDbXrecord
280
     1
  1
DWGPROPS COOKIE
  2

  3

  4

  6

  7

  8
renzo.ceresoli
  9

300
=
301
=
302
=
303
=
304
=
305
=
306
=
307
=
308
=
309
=
 40
0.0009325231481481
 41
2455315.376366447
 42
2455315.377298611
  1

 90
        0
  0
XRECORD
  5
68B
102
{ACAD_REACTORS
330
68A
102
}
330
68A
100
AcDbXrecord
280
     1
290
     1
  0
SORTENTSTABLE
  5
B8E
102
{ACAD_REACTORS
330
B8D
102
}
330
B8D
100
AcDbSortentsTable
330
2
331
D80
  5
FC8
331
F40
  5
D6C
331
C70
  5
EB8
331
DA2
  5
FEA
331
F62
  5
D8E
331
E91
  5
CBD
331
BA3
  5
DF3
331
C92
  5
EDA
331
DBC
  5
1004
331
CCD
  5
F15
331
CB4
  5
EFC
331
F84
  5
BA9
331
DDE
  5
1026
331
CEF
  5
F37
331
EAF
  5
CDB
331
F9E
  5
BC3
331
BC5
  5
E15
331
E00
  5
D9E
331
FC0
  5
BE5
331
D11
  5
F59
331
C01
  5
E51
331
E22
  5
DC0
331
FE2
  5
C07
331
D33
  5
F7B
331
EF3
  5
D1F
331
E3C
  5
DDA
331
1004
  5
C31
331
D4D
  5
F95
331
F15
  5
D41
331
D6F
  5
FB7
331
F2F
  5
D5B
331
E5E
  5
C8A
331
101E
  5
C4B
331
D91
  5
FD9
331
F51
  5
D7D
331
E80
  5
CAC
331
C5F
  5
EA7
331
C45
  5
E8D
331
B92
  5
DE2
331
EA2
  5
CCE
331
DB3
  5
FFB
331
CA3
  5
EEB
331
F73
  5
B98
331
DCD
  5
1015
331
F95
  5
BBA
331
CDE
  5
F26
331
CC5
  5
F0D
331
BB4
  5
E04
331
C81
  5
EC9
331
C23
  5
E6B
331
ED1
  5
CFD
331
BDF
  5
E2F
331
DEF
  5
1037
331
D00
  5
F48
331
EC0
  5
CEC
331
FAF
  5
BD4
331
E11
  5
DAF
331
FD1
  5
BF6
331
D22
  5
F6A
331
C12
  5
E5E
331
C34
  5
E7C
331
F04
  5
D30
331
FF3
  5
C20
331
D5E
  5
FA6
331
E6F
  5
C9B
331
102F
  5
C5C
331
E4D
  5
C79
331
EE2
  5
D0E
331
BF0
  5
E40
331
BD6
  5
E26
331
DA0
  5
FE8
331
F60
  5
D8C
331
C90
  5
ED8
331
BA1
  5
DF1
331
DBA
  5
1002
331
CCB
  5
F13
331
CB2
  5
EFA
331
F82
  5
BA7
331
BC3
  5
E13
331
DDC
  5
1024
331
CED
  5
F35
331
EAD
  5
CD9
331
F9C
  5
BC1
331
DFE
  5
D9C
331
FBE
  5
BE3
331
D0F
  5
F57
331
BFF
  5
E4F
331
E20
  5
DBE
331
FE0
  5
C05
331
D31
  5
F79
331
EF1
  5
D1D
331
E3A
  5
DD8
331
1002
  5
C2F
331
D4B
  5
F93
331
F13
  5
D3F
331
D6D
  5
FB5
331
F2D
  5
D59
331
E5C
  5
C88
331
101C
  5
C49
331
D8F
  5
FD7
331
F4F
  5
D7B
331
E7E
  5
CAA
331
103E
  5
C6B
331
C5D
  5
EA5
331
C43
  5
E8B
331
B90
  5
DE0
331
EA0
  5
CCC
331
DB1
  5
FF9
331
CA1
  5
EE9
331
F71
  5
B96
331
DCB
  5
1013
331
F93
  5
BB8
331
CDC
  5
F24
331
CC3
  5
F0B
331
BB2
  5
E02
331
C7F
  5
EC7
331
C21
  5
E69
331
ECF
  5
CFB
331
BDD
  5
E2D
331
DED
  5
1035
331
CFE
  5
F46
331
EBE
  5
CEA
331
FAD
  5
BD2
331
E0F
  5
DAD
331
FCF
  5
BF4
331
D20
  5
F68
331
C10
  5
E5C
331
C32
  5
E7A
331
F02
  5
D2E
331
FF1
  5
C1E
331
D5C
  5
FA4
331
D7E
  5
FC6
331
F3E
  5
D6A
331
E6D
  5
C99
331
102D
  5
C5A
331
E8F
  5
CBB
331
C6E
  5
EB6
331
E4B
  5
C77
331
EE0
  5
D0C
331
BEE
  5
E3E
331
BD4
  5
E24
331
DB8
  5
1000
331
F80
  5
BA5
331
CC9
  5
F11
331
CB0
  5
EF8
331
BC1
  5
E11
331
DDA
  5
1022
331
CEB
  5
F33
331
EAB
  5
CD7
331
F9A
  5
BBF
331
BDB
  5
E2B
331
DFC
  5
D9A
331
FBC
  5
BE1
331
D0D
  5
F55
331
BFD
  5
E4D
331
E1E
  5
DBC
331
FDE
  5
C03
331
D2F
  5
F77
331
EEF
  5
D1B
331
E38
  5
DD6
331
1000
  5
C2D
331
D49
  5
F91
331
F11
  5
D3D
331
D6B
  5
FB3
331
F2B
  5
D57
331
E5A
  5
C86
331
101A
  5
C47
331
D8D
  5
FD5
331
F4D
  5
D79
331
E7C
  5
CA8
331
103C
  5
C69
331
C5B
  5
EA3
331
C41
  5
E89
331
E9E
  5
CCA
331
DAF
  5
FF7
331
C9F
  5
EE7
331
BB0
  5
E00
331
F6F
  5
B94
331
DC9
  5
1011
331
CDA
  5
F22
331
CC1
  5
F09
331
BD2
  5
E22
331
DEB
  5
1033
331
CFC
  5
F44
331
EBC
  5
CE8
331
FAB
  5
BD0
331
F91
  5
BB6
331
C7D
  5
EC5
331
C1F
  5
E67
331
ECD
  5
CF9
331
E0D
  5
DAB
331
FCD
  5
BF2
331
D1E
  5
F66
331
E2F
  5
DCD
331
FEF
  5
C1C
331
C30
  5
E78
331
F00
  5
D2C
331
D5A
  5
FA2
331
D7C
  5
FC4
331
F3C
  5
D68
331
E6B
  5
C97
331
102B
  5
C58
331
D9E
  5
FE6
331
F5E
  5
D8A
331
E8D
  5
CB9
331
C6C
  5
EB4
331
E49
  5
C75
331
B9F
  5
DEF
331
C8E
  5
ED6
331
EDE
  5
D0A
331
BEC
  5
E3C
331
DD8
  5
1020
331
F98
  5
BBD
331
CE9
  5
F31
331
EA9
  5
CD5
331
BD9
  5
E29
331
DFA
  5
D98
331
FBA
  5
BDF
331
D0B
  5
F53
331
ECB
  5
CF7
331
E1C
  5
DBA
331
FDC
  5
C01
331
D2D
  5
F75
331
EED
  5
D19
331
BFB
  5
E4B
331
E36
  5
DD4
331
FFE
  5
C2B
331
D47
  5
F8F
331
F0F
  5
D3B
331
D69
  5
FB1
331
F29
  5
D55
331
E58
  5
C84
331
1018
  5
C45
331
D8B
  5
FD3
331
F4B
  5
D77
331
E7A
  5
CA6
331
103A
  5
C67
331
C59
  5
EA1
331
C3F
  5
E87
331
B8C
  5
103F
331
E9C
  5
CC8
331
DAD
  5
FF5
331
C9D
  5
EE5
331
F6D
  5
B92
331
BAE
  5
DFE
331
C7B
  5
EC3
331
C1D
  5
E65
331
DC7
  5
100F
331
CD8
  5
F20
331
CBF
  5
F07
331
BD0
  5
E20
331
DE9
  5
1031
331
CFA
  5
F42
331
EBA
  5
CE6
331
FA9
  5
BCE
331
E0B
  5
DA9
331
FCB
  5
BF0
331
D1C
  5
F64
331
E2D
  5
DCB
331
FED
  5
C1A
331
D3E
  5
F86
331
EFE
  5
D2A
331
D58
  5
FA0
331
E47
  5
C73
331
100F
  5
C3C
331
D7A
  5
FC2
331
F3A
  5
D66
331
E69
  5
C95
331
C6A
  5
EB2
331
D9C
  5
FE4
331
F5C
  5
D88
331
E8B
  5
CB7
331
1029
  5
C56
331
C2E
  5
E76
331
B9D
  5
DED
331
C8C
  5
ED4
331
EDC
  5
D08
331
BEA
  5
E3A
331
F8F
  5
BB4
331
CAE
  5
EF6
331
BBF
  5
E0F
331
F7E
  5
BA3
331
DF8
  5
D96
331
FB8
  5
BDD
331
D09
  5
F51
331
EC9
  5
CF5
331
BF9
  5
E49
331
E1A
  5
DB8
331
FDA
  5
BFF
331
D2B
  5
F73
331
EEB
  5
D17
331
E34
  5
DD2
331
FFC
  5
C29
331
D45
  5
F8D
331
F0D
  5
D39
331
C1B
  5
E63
331
D67
  5
FAF
331
F27
  5
D53
331
E56
  5
C82
331
1016
  5
C43
331
D89
  5
FD1
331
F49
  5
D75
331
E78
  5
CA4
331
1038
  5
C65
331
C57
  5
E9F
331
E9A
  5
CC6
331
C79
  5
EC1
331
DAB
  5
FF3
331
C9B
  5
EE3
331
BAC
  5
DFC
331
DC5
  5
100D
331
CD6
  5
F1E
331
CBD
  5
F05
331
F8D
  5
BB2
331
DE7
  5
102F
331
CF8
  5
F40
331
EB8
  5
CE4
331
FA7
  5
BCC
331
BCE
  5
E1E
331
F6B
  5
B90
331
C3D
  5
E85
331
E09
  5
DA7
331
FC9
  5
BEE
331
D1A
  5
F62
331
C0A
  5
E5A
331
E2B
  5
DC9
331
FEB
  5
C14
331
D3C
  5
F84
331
EFC
  5
D28
331
D56
  5
F9E
331
F1E
  5
D4A
331
E45
  5
C71
331
100D
  5
C3A
331
D78
  5
FC0
331
F38
  5
D64
331
E67
  5
C93
331
1027
  5
C54
331
C4E
  5
E96
331
D9A
  5
FE2
331
F5A
  5
D86
331
E89
  5
CB5
331
C68
  5
EB0
331
C2C
  5
E74
331
EDA
  5
D06
331
BE8
  5
E38
331
B9B
  5
DEB
331
CAC
  5
EF4
331
DD6
  5
101E
331
BBD
  5
E0D
331
F7C
  5
BA1
331
CE7
  5
F2F
331
C8A
  5
ED2
331
E18
  5
DB6
331
FD8
  5
BFD
331
D29
  5
F71
331
EE9
  5
D15
331
C19
  5
E61
331
E32
  5
DD0
331
FFA
  5
C27
331
D43
  5
F8B
331
F0B
  5
D37
331
D65
  5
FAD
331
F25
  5
D51
331
E54
  5
C80
331
1014
  5
C41
331
D87
  5
FCF
331
F47
  5
D73
331
E76
  5
CA2
331
1036
  5
C63
331
C55
  5
E9D
331
C3B
  5
E83
331
E98
  5
CC4
331
DA9
  5
FF1
331
C99
  5
EE1
331
BAA
  5
DFA
331
F69
  5
B8C
331
DC3
  5
100B
331
CD4
  5
F1C
331
CBB
  5
F03
331
BCC
  5
E1C
331
DE5
  5
102D
331
CF6
  5
F3E
331
EB6
  5
CE2
331
FA5
  5
BCA
331
F8B
  5
BB0
331
C77
  5
EBF
331
E07
  5
DA5
331
FC7
  5
BEC
331
D18
  5
F60
331
C08
  5
E58
331
E29
  5
DC7
331
FE9
  5
C12
331
D3A
  5
F82
331
EFA
  5
D26
331
D54
  5
F9C
331
F1C
  5
D48
331
E43
  5
C6F
331
100B
  5
C38
331
D76
  5
FBE
331
F36
  5
D62
331
E65
  5
C91
331
1025
  5
C52
331
C4C
  5
E94
331
D98
  5
FE0
331
F58
  5
D84
331
E87
  5
CB3
331
C66
  5
EAE
331
B99
  5
DE9
331
CAA
  5
EF2
331
DD4
  5
101C
331
BBB
  5
E0B
331
F7A
  5
B9F
331
DF6
  5
103E
331
FB6
  5
BDB
331
D07
  5
F4F
331
EC7
  5
CF3
331
CE5
  5
F2D
331
C88
  5
ED0
331
C2A
  5
E72
331
ED8
  5
D04
331
BE6
  5
E36
331
BF7
  5
E47
331
E30
  5
DCE
331
FF8
  5
C25
331
D41
  5
F89
331
F09
  5
D35
331
C39
  5
E81
331
D63
  5
FAB
331
F23
  5
D4F
331
E52
  5
C7E
331
1012
  5
C3F
331
D85
  5
FCD
331
F45
  5
D71
331
E74
  5
CA0
331
1034
  5
C61
331
C53
  5
E9B
331
DA7
  5
FEF
331
F67
  5
D93
331
E96
  5
CC2
331
C75
  5
EBD
331
BA8
  5
DF8
331
DC1
  5
1009
331
CD2
  5
F1A
331
CB9
  5
F01
331
F89
  5
BAE
331
DE3
  5
102B
331
CF4
  5
F3C
331
EB4
  5
CE0
331
FA3
  5
BC8
331
BCA
  5
E1A
331
C97
  5
EDF
331
E05
  5
DA3
331
FC5
  5
BEA
331
D16
  5
F5E
331
C06
  5
E56
331
E27
  5
DC5
331
FE7
  5
C10
331
D38
  5
F80
331
EF8
  5
D24
331
D52
  5
F9A
331
F1A
  5
D46
331
E41
  5
C6D
331
1009
  5
C36
331
D74
  5
FBC
331
F34
  5
D60
331
E63
  5
C8F
331
1023
  5
C50
331
C4A
  5
E92
331
D96
  5
FDE
331
F56
  5
D82
331
E85
  5
CB1
331
C64
  5
EAC
331
B97
  5
DE7
331
EA7
  5
CD3
331
CA8
  5
EF0
331
DD2
  5
101A
331
BB9
  5
E09
331
F78
  5
B9D
331
DF4
  5
103C
331
FB4
  5
BD9
331
D05
  5
F4D
331
EC5
  5
CF1
331
CE3
  5
F2B
331
C86
  5
ECE
331
C28
  5
E70
331
ED6
  5
D02
331
BE4
  5
E34
331
E16
  5
DB4
331
FD6
  5
BFB
331
D27
  5
F6F
331
EE7
  5
D13
331
BF5
  5
E45
331
D61
  5
FA9
331
F21
  5
D4D
331
E50
  5
C7C
331
1010
  5
C3D
331
C51
  5
E99
331
D83
  5
FCB
331
F43
  5
D6F
331
E72
  5
C9E
331
1032
  5
C5F
331
DA5
  5
FED
331
F65
  5
D91
331
E94
  5
CC0
331
C73
  5
EBB
331
BA6
  5
DF6
331
C95
  5
EDD
331
DBF
  5
1007
331
CD0
  5
F18
331
CB7
  5
EFF
331
BC8
  5
E18
331
DE1
  5
1029
331
CF2
  5
F3A
331
EB2
  5
CDE
331
FA1
  5
BC6
331
F87
  5
BAC
331
E03
  5
DA1
331
FC3
  5
BE8
331
D14
  5
F5C
331
C04
  5
E54
331
E25
  5
DC3
331
FE5
  5
C0A
331
D36
  5
F7E
331
EF6
  5
D22
331
E3F
  5
DDD
331
1007
  5
C34
331
D50
  5
F98
331
F18
  5
D44
331
D72
  5
FBA
331
F32
  5
D5E
331
E61
  5
C8D
331
1021
  5
C4E
331
D94
  5
FDC
331
F54
  5
D80
331
E83
  5
CAF
331
C62
  5
EAA
331
C48
  5
E90
331
B95
  5
DE5
331
EA5
  5
CD1
331
DB6
  5
FFE
331
CA6
  5
EEE
331
F76
  5
B9B
331
DD0
  5
1018
331
CE1
  5
F29
331
BB7
  5
E07
331
C84
  5
ECC
331
C26
  5
E6E
331
ED4
  5
D00
331
BE2
  5
E32
331
DF2
  5
103A
331
D03
  5
F4B
331
EC3
  5
CEF
331
BF3
  5
E43
331
E14
  5
DB2
331
D25
  5
F6D
331
EE5
  5
D11
331
C37
  5
E7F
331
F07
  5
D33
331
FF6
  5
C23
331
FD4
  5
BF9
331
FB2
  5
BD7
331
D81
  5
FC9
331
F41
  5
D6D
331
E70
  5
C9C
331
1030
  5
C5D
331
C71
  5
EB9
331
DA3
  5
FEB
331
F63
  5
D8F
331
E92
  5
CBE
331
BA4
  5
DF4
331
C93
  5
EDB
331
DBD
  5
1005
331
CCE
  5
F16
331
CB5
  5
EFD
331
F85
  5
BAA
331
DDF
  5
1027
331
CF0
  5
F38
331
EB0
  5
CDC
331
F9F
  5
BC4
331
BC6
  5
E16
331
E01
  5
D9F
331
FC1
  5
BE6
331
D12
  5
F5A
331
C02
  5
E52
331
E23
  5
DC1
331
FE3
  5
C08
331
D34
  5
F7C
331
EF4
  5
D20
331
E3D
  5
DDB
331
1005
  5
C32
331
D4E
  5
F96
331
F16
  5
D42
331
D70
  5
FB8
331
F30
  5
D5C
331
E5F
  5
C8B
331
101F
  5
C4C
331
D92
  5
FDA
331
F52
  5
D7E
331
E81
  5
CAD
331
C60
  5
EA8
331
C46
  5
E8E
331
B93
  5
DE3
331
EA3
  5
CCF
331
DB4
  5
FFC
331
CA4
  5
EEC
331
F74
  5
B99
331
DCE
  5
1016
331
F96
  5
BBB
331
CDF
  5
F27
331
CC6
  5
F0E
331
BB5
  5
E05
331
C82
  5
ECA
331
C24
  5
E6C
331
ED2
  5
CFE
331
BE0
  5
E30
331
DF0
  5
1038
331
D01
  5
F49
331
EC1
  5
CED
331
FB0
  5
BD5
331
E12
  5
DB0
331
FD2
  5
BF7
331
D23
  5
F6B
331
C13
  5
E5F
331
C35
  5
E7D
331
F05
  5
D31
331
FF4
  5
C21
331
D5F
  5
FA7
331
E4E
  5
C7A
331
EE3
  5
D0F
331
BF1
  5
E41
331
BD7
  5
E27
331
DA1
  5
FE9
331
F61
  5
D8D
331
E90
  5
CBC
331
C91
  5
ED9
331
BA2
  5
DF2
331
DBB
  5
1003
331
CCC
  5
F14
331
CB3
  5
EFB
331
F83
  5
BA8
331
BC4
  5
E14
331
DDD
  5
1025
331
CEE
  5
F36
331
EAE
  5
CDA
331
F9D
  5
BC2
331
DFF
  5
D9D
331
FBF
  5
BE4
331
D10
  5
F58
331
C00
  5
E50
331
E21
  5
DBF
331
FE1
  5
C06
331
D32
  5
F7A
331
EF2
  5
D1E
331
E3B
  5
DD9
331
1003
  5
C30
331
D4C
  5
F94
331
F14
  5
D40
331
D6E
  5
FB6
331
F2E
  5
D5A
331
E5D
  5
C89
331
101D
  5
C4A
331
D90
  5
FD8
331
F50
  5
D7C
331
E7F
  5
CAB
331
103F
  5
C6C
331
C5E
  5
EA6
331
C44
  5
E8C
331
B91
  5
DE1
331
EA1
  5
CCD
331
DB2
  5
FFA
331
CA2
  5
EEA
331
F72
  5
B97
331
DCC
  5
1014
331
F94
  5
BB9
331
CDD
  5
F25
331
CC4
  5
F0C
331
BB3
  5
E03
331
C80
  5
EC8
331
C22
  5
E6A
331
ED0
  5
CFC
331
BDE
  5
E2E
331
DEE
  5
1036
331
CFF
  5
F47
331
EBF
  5
CEB
331
FAE
  5
BD3
331
E10
  5
DAE
331
FD0
  5
BF5
331
D21
  5
F69
331
C11
  5
E5D
331
C33
  5
E7B
331
F03
  5
D2F
331
FF2
  5
C1F
331
D5D
  5
FA5
331
D7F
  5
FC7
331
F3F
  5
D6B
331
E6E
  5
C9A
331
102E
  5
C5B
331
C6F
  5
EB7
331
E4C
  5
C78
331
EE1
  5
D0D
331
BEF
  5
E3F
331
BD5
  5
E25
331
BA0
  5
DF0
331
DB9
  5
1001
331
F81
  5
BA6
331
CCA
  5
F12
331
CB1
  5
EF9
331
BC2
  5
E12
331
DDB
  5
1023
331
CEC
  5
F34
331
EAC
  5
CD8
331
F9B
  5
BC0
331
BDC
  5
E2C
331
DFD
  5
D9B
331
FBD
  5
BE2
331
D0E
  5
F56
331
BFE
  5
E4E
331
E1F
  5
DBD
331
FDF
  5
C04
331
D30
  5
F78
331
EF0
  5
D1C
331
E39
  5
DD7
331
1001
  5
C2E
331
D4A
  5
F92
331
F12
  5
D3E
331
D6C
  5
FB4
331
F2C
  5
D58
331
E5B
  5
C87
331
101B
  5
C48
331
D8E
  5
FD6
331
F4E
  5
D7A
331
E7D
  5
CA9
331
103D
  5
C6A
331
C5C
  5
EA4
331
C42
  5
E8A
331
B8F
  5
DDF
331
E9F
  5
CCB
331
DB0
  5
FF8
331
CA0
  5
EE8
331
F70
  5
B95
331
DCA
  5
1012
331
F92
  5
BB7
331
CDB
  5
F23
331
CC2
  5
F0A
331
BB1
  5
E01
331
C7E
  5
EC6
331
C20
  5
E68
331
ECE
  5
CFA
331
DEC
  5
1034
331
CFD
  5
F45
331
EBD
  5
CE9
331
FAC
  5
BD1
331
E0E
  5
DAC
331
FCE
  5
BF3
331
D1F
  5
F67
331
C0F
  5
E5B
331
C31
  5
E79
331
F01
  5
D2D
331
FF0
  5
C1D
331
D5B
  5
FA3
331
D7D
  5
FC5
331
F3D
  5
D69
331
E6C
  5
C98
331
102C
  5
C59
331
D9F
  5
FE7
331
F5F
  5
D8B
331
E8E
  5
CBA
331
C6D
  5
EB5
331
E4A
  5
C76
331
C8F
  5
ED7
331
EDF
  5
D0B
331
BED
  5
E3D
331
BD3
  5
E23
331
CC8
  5
F10
331
BC0
  5
E10
331
DD9
  5
1021
331
CEA
  5
F32
331
EAA
  5
CD6
331
F99
  5
BBE
331
BDA
  5
E2A
331
DFB
  5
D99
331
FBB
  5
BE0
331
D0C
  5
F54
331
BFC
  5
E4C
331
E1D
  5
DBB
331
FDD
  5
C02
331
D2E
  5
F76
331
EEE
  5
D1A
331
E37
  5
DD5
331
FFF
  5
C2C
331
D48
  5
F90
331
F10
  5
D3C
331
D6A
  5
FB2
331
F2A
  5
D56
331
E59
  5
C85
331
1019
  5
C46
331
D8C
  5
FD4
331
F4C
  5
D78
331
E7B
  5
CA7
331
103B
  5
C68
331
C5A
  5
EA2
331
C40
  5
E88
331
E9D
  5
CC9
331
DAE
  5
FF6
331
C9E
  5
EE6
331
BAF
  5
DFF
331
F6E
  5
B93
331
DC8
  5
1010
331
CD9
  5
F21
331
CC0
  5
F08
331
BD1
  5
E21
331
DEA
  5
1032
331
CFB
  5
F43
331
EBB
  5
CE7
331
FAA
  5
BCF
331
F90
  5
BB5
331
C7C
  5
EC4
331
C1E
  5
E66
331
ECC
  5
CF8
331
E0C
  5
DAA
331
FCC
  5
BF1
331
D1D
  5
F65
331
E2E
  5
DCC
331
FEE
  5
C1B
331
D3F
  5
F87
331
EFF
  5
D2B
331
D59
  5
FA1
331
E48
  5
C74
331
D7B
  5
FC3
331
F3B
  5
D67
331
E6A
  5
C96
331
C6B
  5
EB3
331
D9D
  5
FE5
331
F5D
  5
D89
331
E8C
  5
CB8
331
102A
  5
C57
331
C2F
  5
E77
331
B9E
  5
DEE
331
CAF
  5
EF7
331
F7F
  5
BA4
331
C8D
  5
ED5
331
EDD
  5
D09
331
BEB
  5
E3B
331
CE8
  5
F30
331
EA8
  5
CD4
331
BD8
  5
E28
331
DF9
  5
D97
331
FB9
  5
BDE
331
D0A
  5
F52
331
ECA
  5
CF6
331
E1B
  5
DB9
331
FDB
  5
C00
331
D2C
  5
F74
331
EEC
  5
D18
331
BFA
  5
E4A
331
E35
  5
DD3
331
FFD
  5
C2A
331
D46
  5
F8E
331
F0E
  5
D3A
331
D68
  5
FB0
331
F28
  5
D54
331
E57
  5
C83
331
1017
  5
C44
331
D8A
  5
FD2
331
F4A
  5
D76
331
E79
  5
CA5
331
1039
  5
C66
331
C58
  5
EA0
331
C3E
  5
E86
331
E9B
  5
CC7
331
DAC
  5
FF4
331
C9C
  5
EE4
331
BAD
  5
DFD
331
F6C
  5
B91
331
DC6
  5
100E
331
CD7
  5
F1F
331
CBE
  5
F06
331
BCF
  5
E1F
331
DE8
  5
1030
331
CF9
  5
F41
331
EB9
  5
CE5
331
FA8
  5
BCD
331
F8E
  5
BB3
331
C7A
  5
EC2
331
C1C
  5
E64
331
E0A
  5
DA8
331
FCA
  5
BEF
331
D1B
  5
F63
331
E2C
  5
DCA
331
FEC
  5
C19
331
D3D
  5
F85
331
EFD
  5
D29
331
D57
  5
F9F
331
F1F
  5
D4B
331
E46
  5
C72
331
100E
  5
C3B
331
D79
  5
FC1
331
F39
  5
D65
331
E68
  5
C94
331
1028
  5
C55
331
C4F
  5
E97
331
C2D
  5
E75
331
D9B
  5
FE3
331
F5B
  5
D87
331
E8A
  5
CB6
331
C8B
  5
ED3
331
C69
  5
EB1
331
EDB
  5
D07
331
BE9
  5
E39
331
CAD
  5
EF5
331
F7D
  5
BA2
331
DD7
  5
101F
331
BBE
  5
E0E
331
B9C
  5
DEC
331
D08
  5
F50
331
EC8
  5
CF4
331
BF8
  5
E48
331
E19
  5
DB7
331
FD9
  5
BFE
331
D2A
  5
F72
331
EEA
  5
D16
331
E33
  5
DD1
331
FFB
  5
C28
331
D44
  5
F8C
331
F0C
  5
D38
331
C1A
  5
E62
331
D66
  5
FAE
331
F26
  5
D52
331
E55
  5
C81
331
1015
  5
C42
331
D88
  5
FD0
331
F48
  5
D74
331
E77
  5
CA3
331
1037
  5
C64
331
C56
  5
E9E
331
E99
  5
CC5
331
C78
  5
EC0
331
DAA
  5
FF2
331
C9A
  5
EE2
331
BAB
  5
DFB
331
DC4
  5
100C
331
CD5
  5
F1D
331
CBC
  5
F04
331
F8C
  5
BB1
331
DE6
  5
102E
331
CF7
  5
F3F
331
EB7
  5
CE3
331
FA6
  5
BCB
331
BCD
  5
E1D
331
F6A
  5
B8F
331
C3C
  5
E84
331
E08
  5
DA6
331
FC8
  5
BED
331
D19
  5
F61
331
C09
  5
E59
331
E2A
  5
DC8
331
FEA
  5
C13
331
D3B
  5
F83
331
EFB
  5
D27
331
D55
  5
F9D
331
F1D
  5
D49
331
E44
  5
C70
331
100C
  5
C39
331
D77
  5
FBF
331
F37
  5
D63
331
E66
  5
C92
331
1026
  5
C53
331
C4D
  5
E95
331
E88
  5
CB4
331
C67
  5
EAF
331
C2B
  5
E73
331
ED9
  5
D05
331
BE7
  5
E37
331
D99
  5
FE1
331
F59
  5
D85
331
C89
  5
ED1
331
B9A
  5
DEA
331
CAB
  5
EF3
331
DD5
  5
101D
331
BBC
  5
E0C
331
F7B
  5
BA0
331
CE6
  5
F2E
331
DF7
  5
D95
331
FB7
  5
BDC
331
D28
  5
F70
331
EE8
  5
D14
331
E31
  5
DCF
331
FF9
  5
C26
331
D42
  5
F8A
331
F0A
  5
D36
331
D64
  5
FAC
331
F24
  5
D50
331
E53
  5
C7F
331
1013
  5
C40
331
C3A
  5
E82
331
D86
  5
FCE
331
F46
  5
D72
331
E75
  5
CA1
331
1035
  5
C62
331
C54
  5
E9C
331
DA8
  5
FF0
331
F68
  5
D94
331
E97
  5
CC3
331
C76
  5
EBE
331
BA9
  5
DF9
331
DC2
  5
100A
331
CD3
  5
F1B
331
CBA
  5
F02
331
F8A
  5
BAF
331
DE4
  5
102C
331
CF5
  5
F3D
331
EB5
  5
CE1
331
FA4
  5
BC9
331
BCB
  5
E1B
331
C98
  5
EE0
331
E06
  5
DA4
331
FC6
  5
BEB
331
D17
  5
F5F
331
C07
  5
E57
331
E28
  5
DC6
331
FE8
  5
C11
331
D39
  5
F81
331
EF9
  5
D25
331
D53
  5
F9B
331
F1B
  5
D47
331
E42
  5
C6E
331
100A
  5
C37
331
D75
  5
FBD
331
F35
  5
D61
331
E64
  5
C90
331
1024
  5
C51
331
C4B
  5
E93
331
D97
  5
FDF
331
F57
  5
D83
331
E86
  5
CB2
331
C65
  5
EAD
331
B98
  5
DE8
331
CA9
  5
EF1
331
DD3
  5
101B
331
BBA
  5
E0A
331
F79
  5
B9E
331
DF5
  5
103D
331
FB5
  5
BDA
331
D06
  5
F4E
331
EC6
  5
CF2
331
CE4
  5
F2C
331
C87
  5
ECF
331
C29
  5
E71
331
ED7
  5
D03
331
BE5
  5
E35
331
E17
  5
DB5
331
FD7
  5
BFC
331
BF6
  5
E46
331
D40
  5
F88
331
F08
  5
D34
331
C38
  5
E80
331
D62
  5
FAA
331
F22
  5
D4E
331
E51
  5
C7D
331
1011
  5
C3E
331
D84
  5
FCC
331
F44
  5
D70
331
E73
  5
C9F
331
1033
  5
C60
331
C52
  5
E9A
331
DA6
  5
FEE
331
F66
  5
D92
331
E95
  5
CC1
331
C74
  5
EBC
331
BA7
  5
DF7
331
DC0
  5
1008
331
CD1
  5
F19
331
CB8
  5
F00
331
F88
  5
BAD
331
DE2
  5
102A
331
CF3
  5
F3B
331
EB3
  5
CDF
331
FA2
  5
BC7
331
BC9
  5
E19
331
C96
  5
EDE
331
E04
  5
DA2
331
FC4
  5
BE9
331
D15
  5
F5D
331
C05
  5
E55
331
E26
  5
DC4
331
FE6
  5
C0F
331
D37
  5
F7F
331
EF7
  5
D23
331
E40
  5
DDE
331
1008
  5
C35
331
D51
  5
F99
331
F19
  5
D45
331
D73
  5
FBB
331
F33
  5
D5F
331
E62
  5
C8E
331
1022
  5
C4F
331
D95
  5
FDD
331
F55
  5
D81
331
E84
  5
CB0
331
C63
  5
EAB
331
C49
  5
E91
331
B96
  5
DE6
331
EA6
  5
CD2
331
DB7
  5
FFF
331
CA7
  5
EEF
331
F77
  5
B9C
331
DD1
  5
1019
331
CE2
  5
F2A
331
BB8
  5
E08
331
C85
  5
ECD
331
C27
  5
E6F
331
ED5
  5
D01
331
BE3
  5
E33
331
DF3
  5
103B
331
D04
  5
F4C
331
EC4
  5
CF0
331
BF4
  5
E44
331
E15
  5
DB3
331
D26
  5
F6E
331
EE6
  5
D12
331
FF7
  5
C24
331
FD5
  5
BFA
331
FB3
  5
BD8
331
D60
  5
FA8
331
F20
  5
D4C
331
C50
  5
E98
331
D82
  5
FCA
331
F42
  5
D6E
331
E71
  5
C9D
331
1031
  5
C5E
331
DA4
  5
FEC
331
F64
  5
D90
331
E93
  5
CBF
331
C72
  5
EBA
331
BA5
  5
DF5
331
C94
  5
EDC
331
DBE
  5
1006
331
CCF
  5
F17
331
CB6
  5
EFE
331
BC7
  5
E17
331
DE0
  5
1028
331
CF1
  5
F39
331
EB1
  5
CDD
331
FA0
  5
BC5
331
F86
  5
BAB
331
E02
  5
DA0
331
FC2
  5
BE7
331
D13
  5
F5B
331
C03
  5
E53
331
E24
  5
DC2
331
FE4
  5
C09
331
D35
  5
F7D
331
EF5
  5
D21
331
E3E
  5
DDC
331
1006
  5
C33
331
D4F
  5
F97
331
F17
  5
D43
331
D71
  5
FB9
331
F31
  5
D5D
331
E60
  5
C8C
331
1020
  5
C4D
331
D93
  5
FDB
331
F53
  5
D7F
331
E82
  5
CAE
331
C61
  5
EA9
331
C47
  5
E8F
331
B94
  5
DE4
331
EA4
  5
CD0
331
DB5
  5
FFD
331
CA5
  5
EED
331
F75
  5
B9A
331
DCF
  5
1017
331
F97
  5
BBC
331
CE0
  5
F28
331
CC7
  5
F0F
331
BB6
  5
E06
331
C83
  5
ECB
331
C25
  5
E6D
331
ED3
  5
CFF
331
BE1
  5
E31
331
DF1
  5
1039
331
D02
  5
F4A
331
EC2
  5
CEE
331
BF2
  5
E42
331
E13
  5
DB1
331
D24
  5
F6C
331
EE4
  5
D10
331
C36
  5
E7E
331
F06
  5
D32
331
FF5
  5
C22
331
C14
  5
E60
331
E4F
  5
C7B
331
FD3
  5
BF8
331
FB1
  5
BD6
  0
LAYOUT
  5
F
102
{ACAD_XDICTIONARY
360
1072
102
}
102
{ACAD_REACTORS
330
B
102
}
330
B
100
AcDbPlotSettings
  1

  2
hp deskjet 930c series
  4

  6

 40
0.0
 41
0.0
 42
0.0
 43
0.0
 44
0.0
 45
0.0
 46
0.0
 47
0.0
 48
0.0
 49
0.0
140
0.0
141
0.0
142
1.0
143
1.0
 70
   688
 72
     0
 73
     0
 74
     5
  7
monochrome.ctb
 75
    16
147
1.0
148
0.0
149
0.0
100
AcDbLayout
  1
Layout1
 70
     1
 71
     1
 10
0.0
 20
0.0
 11
420.0
 21
297.0
 12
0.0
 22
0.0
 32
0.0
 14
1.000000000000000E+20
 24
1.000000000000000E+20
 34
1.000000000000000E+20
 15
-1.000000000000000E+20
 25
-1.000000000000000E+20
 35
-1.000000000000000E+20
146
0.0
 13
0.0
 23
0.0
 33
0.0
 16
1.0
 26
0.0
 36
0.0
 17
0.0
 27
1.0
 37
0.0
 76
     0
330
C
  0
LAYOUT
  5
A
102
{ACAD_XDICTIONARY
360
1070
102
}
102
{ACAD_REACTORS
330
B
102
}
330
B
100
AcDbPlotSettings
  1

  2
HP DeskJet 1120C Printer
  4
A4
  6

 40
4.180416584014892
 41
13.49374103546142
 42
4.180404663085937
 43
3.757080078125
 44
209.9733276367187
 45
296.9259948730469
 46
0.0
 47
0.0
 48
232.1274484221087
 49
0.0
140
429.5274484221087
141
279.18
142
1.0
143
1.0
 70
 11952
 72
     1
 73
     0
 74
     4
  7
monochrome.ctb
 75
    16
147
1.0
148
-232.1274484221087
149
0.0
100
AcDbLayout
  1
Model
 70
     1
 71
     0
 10
0.0
 20
0.0
 11
12.0
 21
9.0
 12
0.0
 22
0.0
 32
0.0
 14
0.0
 24
0.0
 34
0.0
 15
0.0
 25
0.0
 35
0.0
146
0.0
 13
0.0
 23
0.0
 33
0.0
 16
1.0
 26
0.0
 36
0.0
 17
0.0
 27
1.0
 37
0.0
 76
     0
330
2
331
630
  0
MATERIAL
  5
63B
102
{ACAD_XDICTIONARY
360
63C
102
}
102
{ACAD_REACTORS
330
632
102
}
330
632
100
AcDbMaterial
  1
ByBlock
 72
     0
 43
0.0008202099737533
 43
0.0
 43
0.0
 43
0.0
 43
0.0
 43
0.0008202099737533
 43
0.0
 43
0.0
 43
0.0
 43
0.0
 43
1.0
 43
0.0
 43
0.0
 43
0.0
 43
0.0
 43
1.0
 77
     0
 47
0.0008202099737533
 47
0.0
 47
0.0
 47
0.0
 47
0.0
 47
0.0008202099737533
 47
0.0
 47
0.0
 47
0.0
 47
0.0
 47
1.0
 47
0.0
 47
0.0
 47
0.0
 47
0.0
 47
1.0
171
     0
 49
0.0008202099737533
 49
0.0
 49
0.0
 49
0.0
 49
0.0
 49
0.0008202099737533
 49
0.0
 49
0.0
 49
0.0
 49
0.0
 49
1.0
 49
0.0
 49
0.0
 49
0.0
 49
0.0
 49
1.0
175
     0
142
0.0008202099737533
142
0.0
142
0.0
142
0.0
142
0.0
142
0.0008202099737533
142
0.0
142
0.0
142
0.0
142
0.0
142
1.0
142
0.0
142
0.0
142
0.0
142
0.0
142
1.0
179
     0
144
0.0008202099737533
144
0.0
144
0.0
144
0.0
144
0.0
144
0.0008202099737533
144
0.0
144
0.0
144
0.0
144
0.0
144
1.0
144
0.0
144
0.0
144
0.0
144
0.0
144
1.0
147
0.0008202099737533
147
0.0
147
0.0
147
0.0
147
0.0
147
0.0008202099737533
147
0.0
147
0.0
147
0.0
147
0.0
147
1.0
147
0.0
147
0.0
147
0.0
147
0.0
147
1.0
  0
MATERIAL
  5
633
102
{ACAD_XDICTIONARY
360
634
102
}
102
{ACAD_REACTORS
330
632
102
}
330
632
100
AcDbMaterial
  1
ByLayer
 72
     0
 43
0.0008202099737533
 43
0.0
 43
0.0
 43
0.0
 43
0.0
 43
0.0008202099737533
 43
0.0
 43
0.0
 43
0.0
 43
0.0
 43
1.0
 43
0.0
 43
0.0
 43
0.0
 43
0.0
 43
1.0
 77
     0
 47
0.0008202099737533
 47
0.0
 47
0.0
 47
0.0
 47
0.0
 47
0.0008202099737533
 47
0.0
 47
0.0
 47
0.0
 47
0.0
 47
1.0
 47
0.0
 47
0.0
 47
0.0
 47
0.0
 47
1.0
171
     0
 49
0.0008202099737533
 49
0.0
 49
0.0
 49
0.0
 49
0.0
 49
0.0008202099737533
 49
0.0
 49
0.0
 49
0.0
 49
0.0
 49
1.0
 49
0.0
 49
0.0
 49
0.0
 49
0.0
 49
1.0
175
     0
142
0.0008202099737533
142
0.0
142
0.0
142
0.0
142
0.0
142
0.0008202099737533
142
0.0
142
0.0
142
0.0
142
0.0
142
1.0
142
0.0
142
0.0
142
0.0
142
0.0
142
1.0
179
     0
144
0.0008202099737533
144
0.0
144
0.0
144
0.0
144
0.0
144
0.0008202099737533
144
0.0
144
0.0
144
0.0
144
0.0
144
1.0
144
0.0
144
0.0
144
0.0
144
0.0
144
1.0
147
0.0008202099737533
147
0.0
147
0.0
147
0.0
147
0.0
147
0.0008202099737533
147
0.0
147
0.0
147
0.0
147
0.0
147
1.0
147
0.0
147
0.0
147
0.0
147
0.0
147
1.0
  0
MATERIAL
  5
643
102
{ACAD_XDICTIONARY
360
644
102
}
102
{ACAD_REACTORS
330
632
102
}
330
632
100
AcDbMaterial
  1
Global
 72
     0
 43
0.0008202099737533
 43
0.0
 43
0.0
 43
0.0
 43
0.0
 43
0.0008202099737533
 43
0.0
 43
0.0
 43
0.0
 43
0.0
 43
1.0
 43
0.0
 43
0.0
 43
0.0
 43
0.0
 43
1.0
 77
     0
 47
0.0008202099737533
 47
0.0
 47
0.0
 47
0.0
 47
0.0
 47
0.0008202099737533
 47
0.0
 47
0.0
 47
0.0
 47
0.0
 47
1.0
 47
0.0
 47
0.0
 47
0.0
 47
0.0
 47
1.0
171
     0
 49
0.0008202099737533
 49
0.0
 49
0.0
 49
0.0
 49
0.0
 49
0.0008202099737533
 49
0.0
 49
0.0
 49
0.0
 49
0.0
 49
1.0
 49
0.0
 49
0.0
 49
0.0
 49
0.0
 49
1.0
175
     0
142
0.0008202099737533
142
0.0
142
0.0
142
0.0
142
0.0
142
0.0008202099737533
142
0.0
142
0.0
142
0.0
142
0.0
142
1.0
142
0.0
142
0.0
142
0.0
142
0.0
142
1.0
179
     0
144
0.0008202099737533
144
0.0
144
0.0
144
0.0
144
0.0
144
0.0008202099737533
144
0.0
144
0.0
144
0.0
144
0.0
144
1.0
144
0.0
144
0.0
144
0.0
144
0.0
144
1.0
147
0.0008202099737533
147
0.0
147
0.0
147
0.0
147
0.0
147
0.0008202099737533
147
0.0
147
0.0
147
0.0
147
0.0
147
1.0
147
0.0
147
0.0
147
0.0
147
0.0
147
1.0
  0
MLEADERSTYLE
  5
682
102
{ACAD_REACTORS
330
681
102
}
330
681
100
AcDbMLeaderStyle
170
     2
171
     1
172
     0
 90
        2
 40
0.0
 41
0.0
173
     1
 91
-1056964608
340
15
 92
       -2
290
     1
 42
2.0
291
     1
 43
0.36
  3
Standard
 44
4.0
300

342
12
174
     1
178
     6
175
     1
176
     0
 93
-1056964608
 45
4.0
292
     0
297
     0
 46
4.0
 94
-1056964608
 47
1.0
 49
1.0
140
1.0
293
     1
141
0.0
294
     1
177
     0
142
1.0
295
     0
296
     0
143
0.125
1001
ACAD_MLEADERVER
1070
     2
  0
MLINESTYLE
  5
23
102
{ACAD_REACTORS
330
21
102
}
330
21
100
AcDbMlineStyle
  2
STANDARD
 70
     0
  3

 62
   256
 51
90.0
 52
90.0
 71
     2
 49
0.5
 62
   256
  6
BYLAYER
 49
-0.5
 62
   256
  6
BYLAYER
  0
ACDBPLACEHOLDER
  5
5
102
{ACAD_REACTORS
330
6
102
}
330
6
  0
SCALE
  5
660
102
{ACAD_REACTORS
330
65F
102
}
330
65F
100
AcDbScale
 70
     0
300
1:1
140
1.0
141
1.0
290
     1
  0
SCALE
  5
661
102
{ACAD_REACTORS
330
65F
102
}
330
65F
100
AcDbScale
 70
     0
300
1:2
140
1.0
141
2.0
290
     0
  0
SCALE
  5
662
102
{ACAD_REACTORS
330
65F
102
}
330
65F
100
AcDbScale
 70
     0
300
1:4
140
1.0
141
4.0
290
     0
  0
SCALE
  5
663
102
{ACAD_REACTORS
330
65F
102
}
330
65F
100
AcDbScale
 70
     0
300
1:5
140
1.0
141
5.0
290
     0
  0
SCALE
  5
664
102
{ACAD_REACTORS
330
65F
102
}
330
65F
100
AcDbScale
 70
     0
300
1:8
140
1.0
141
8.0
290
     0
  0
SCALE
  5
665
102
{ACAD_REACTORS
330
65F
102
}
330
65F
100
AcDbScale
 70
     0
300
1:10
140
1.0
141
10.0
290
     0
  0
SCALE
  5
666
102
{ACAD_REACTORS
330
65F
102
}
330
65F
100
AcDbScale
 70
     0
300
1:16
140
1.0
141
16.0
290
     0
  0
SCALE
  5
667
102
{ACAD_REACTORS
330
65F
102
}
330
65F
100
AcDbScale
 70
     0
300
1:20
140
1.0
141
20.0
290
     0
  0
SCALE
  5
668
102
{ACAD_REACTORS
330
65F
102
}
330
65F
100
AcDbScale
 70
     0
300
1:30
140
1.0
141
30.0
290
     0
  0
SCALE
  5
669
102
{ACAD_REACTORS
330
65F
102
}
330
65F
100
AcDbScale
 70
     0
300
1:40
140
1.0
141
40.0
290
     0
  0
SCALE
  5
66A
102
{ACAD_REACTORS
330
65F
102
}
330
65F
100
AcDbScale
 70
     0
300
1:50
140
1.0
141
50.0
290
     0
  0
SCALE
  5
66B
102
{ACAD_REACTORS
330
65F
102
}
330
65F
100
AcDbScale
 70
     0
300
1:100
140
1.0
141
100.0
290
     0
  0
SCALE
  5
66C
102
{ACAD_REACTORS
330
65F
102
}
330
65F
100
AcDbScale
 70
     0
300
2:1
140
2.0
141
1.0
290
     0
  0
SCALE
  5
66D
102
{ACAD_REACTORS
330
65F
102
}
330
65F
100
AcDbScale
 70
     0
300
4:1
140
4.0
141
1.0
290
     0
  0
SCALE
  5
66E
102
{ACAD_REACTORS
330
65F
102
}
330
65F
100
AcDbScale
 70
     0
300
8:1
140
8.0
141
1.0
290
     0
  0
SCALE
  5
66F
102
{ACAD_REACTORS
330
65F
102
}
330
65F
100
AcDbScale
 70
     0
300
10:1
140
10.0
141
1.0
290
     0
  0
SCALE
  5
670
102
{ACAD_REACTORS
330
65F
102
}
330
65F
100
AcDbScale
 70
     0
300
100:1
140
100.0
141
1.0
290
     0
  0
SCALE
  5
671
102
{ACAD_REACTORS
330
65F
102
}
330
65F
100
AcDbScale
 70
     0
300
1/128" = 1'-0"
140
0.0078125
141
12.0
290
     0
  0
SCALE
  5
672
102
{ACAD_REACTORS
330
65F
102
}
330
65F
100
AcDbScale
 70
     0
300
1/64" = 1'-0"
140
0.015625
141
12.0
290
     0
  0
SCALE
  5
673
102
{ACAD_REACTORS
330
65F
102
}
330
65F
100
AcDbScale
 70
     0
300
1/32" = 1'-0"
140
0.03125
141
12.0
290
     0
  0
SCALE
  5
674
102
{ACAD_REACTORS
330
65F
102
}
330
65F
100
AcDbScale
 70
     0
300
1/16" = 1'-0"
140
0.0625
141
12.0
290
     0
  0
SCALE
  5
675
102
{ACAD_REACTORS
330
65F
102
}
330
65F
100
AcDbScale
 70
     0
300
3/32" = 1'-0"
140
0.09375
141
12.0
290
     0
  0
SCALE
  5
676
102
{ACAD_REACTORS
330
65F
102
}
330
65F
100
AcDbScale
 70
     0
300
1/8" = 1'-0"
140
0.125
141
12.0
290
     0
  0
SCALE
  5
677
102
{ACAD_REACTORS
330
65F
102
}
330
65F
100
AcDbScale
 70
     0
300
3/16" = 1'-0"
140
0.1875
141
12.0
290
     0
  0
SCALE
  5
678
102
{ACAD_REACTORS
330
65F
102
}
330
65F
100
AcDbScale
 70
     0
300
1/4" = 1'-0"
140
0.25
141
12.0
290
     0
  0
SCALE
  5
679
102
{ACAD_REACTORS
330
65F
102
}
330
65F
100
AcDbScale
 70
     0
300
3/8" = 1'-0"
140
0.375
141
12.0
290
     0
  0
SCALE
  5
67A
102
{ACAD_REACTORS
330
65F
102
}
330
65F
100
AcDbScale
 70
     0
300
1/2" = 1'-0"
140
0.5
141
12.0
290
     0
  0
SCALE
  5
67B
102
{ACAD_REACTORS
330
65F
102
}
330
65F
100
AcDbScale
 70
     0
300
3/4" = 1'-0"
140
0.75
141
12.0
290
     0
  0
SCALE
  5
67C
102
{ACAD_REACTORS
330
65F
102
}
330
65F
100
AcDbScale
 70
     0
300
1" = 1'-0"
140
1.0
141
12.0
290
     0
  0
SCALE
  5
67D
102
{ACAD_REACTORS
330
65F
102
}
330
65F
100
AcDbScale
 70
     0
300
1-1/2" = 1'-0"
140
1.5
141
12.0
290
     0
  0
SCALE
  5
67E
102
{ACAD_REACTORS
330
65F
102
}
330
65F
100
AcDbScale
 70
     0
300
3" = 1'-0"
140
3.0
141
12.0
290
     0
  0
SCALE
  5
67F
102
{ACAD_REACTORS
330
65F
102
}
330
65F
100
AcDbScale
 70
     0
300
6" = 1'-0"
140
6.0
141
12.0
290
     0
  0
SCALE
  5
680
102
{ACAD_REACTORS
330
65F
102
}
330
65F
100
AcDbScale
 70
     0
300
1'-0" = 1'-0"
140
12.0
141
12.0
290
     0
  0
TABLESTYLE
  5
65E
102
{ACAD_XDICTIONARY
360
69E
102
}
102
{ACAD_REACTORS
330
65D
102
}
330
65D
100
AcDbTableStyle
  3
Standard
 70
     0
 71
     0
 40
1.5
 41
1.5
280
     0
281
     0
  7
Standard
140
4.5
170
     2
 62
     0
 63
     7
283
     0
274
    -2
284
     1
 64
     0
275
    -2
285
     1
 65
     0
276
    -2
286
     1
 66
     0
277
    -2
287
     1
 67
     0
278
    -2
288
     1
 68
     0
279
    -2
289
     1
 69
     0
  7
Standard
140
6.0
170
     5
 62
     0
 63
     7
283
     0
274
    -2
284
     1
 64
     0
275
    -2
285
     1
 65
     0
276
    -2
286
     1
 66
     0
277
    -2
287
     1
 67
     0
278
    -2
288
     1
 68
     0
279
    -2
289
     1
 69
     0
  7
Standard
140
4.5
170
     5
 62
     0
 63
     7
283
     0
274
    -2
284
     1
 64
     0
275
    -2
285
     1
 65
     0
276
    -2
286
     1
 66
     0
277
    -2
287
     1
 67
     0
278
    -2
288
     1
 68
     0
279
    -2
289
     1
 69
     0
  0
VISUALSTYLE
  5
651
102
{ACAD_REACTORS
330
64B
102
}
330
64B
100
AcDbVisualStyle
  2
2dWireframe
 70
     4
 71
     0
 72
     2
 73
     0
 90
        0
 40
-0.6
 41
-30.0
 62
     5
 63
     7
 74
     1
 91
        4
 64
     7
 65
   257
 75
     1
175
     1
 42
1.0
 92
        0
 66
   257
 43
1.0
 76
     1
 77
     6
 78
     2
 67
     7
 79
     5
170
     0
171
     0
290
     0
174
     0
 93
        1
 44
0.0
173
     0
291
     0
 45
0.0
1001
ACAD
1000
AcDbSavedByObjectVersion
1070
     0
  0
VISUALSTYLE
  5
653
102
{ACAD_REACTORS
330
64B
102
}
330
64B
100
AcDbVisualStyle
  2
3D Hidden
 70
     6
 71
     1
 72
     2
 73
     2
 90
        0
 40
-0.6
 41
-30.0
 62
     5
 63
     7
 74
     2
 91
        2
 64
     7
 65
   257
 75
     2
175
     1
 42
40.0
 92
        0
 66
   257
 43
1.0
 76
     1
 77
     6
 78
     2
 67
     7
 79
     3
170
     0
171
     0
290
     0
174
     0
 93
        1
 44
0.0
173
     0
291
     0
 45
0.0
1001
ACAD
1000
AcDbSavedByObjectVersion
1070
     0
  0
VISUALSTYLE
  5
652
102
{ACAD_REACTORS
330
64B
102
}
330
64B
100
AcDbVisualStyle
  2
3dWireframe
 70
     5
 71
     0
 72
     2
 73
     0
 90
        0
 40
-0.6
 41
-30.0
 62
     5
 63
     7
 74
     1
 91
        4
 64
     7
 65
   257
 75
     1
175
     1
 42
1.0
 92
        0
 66
   257
 43
1.0
 76
     1
 77
     6
 78
     2
 67
     7
 79
     5
170
     0
171
     0
290
     0
174
     0
 93
        1
 44
0.0
173
     0
291
     0
 45
0.0
1001
ACAD
1000
AcDbSavedByObjectVersion
1070
     0
  0
VISUALSTYLE
  5
650
102
{ACAD_REACTORS
330
64B
102
}
330
64B
100
AcDbVisualStyle
  2
Basic
 70
     7
 71
     1
 72
     0
 73
     1
 90
        0
 40
-0.6
 41
-30.0
 62
     5
 63
     7
 74
     0
 91
        4
 64
     7
 65
   257
 75
     1
175
     1
 42
1.0
 92
        8
 66
     7
 43
1.0
 76
     1
 77
     6
 78
     2
 67
     7
 79
     5
170
     0
171
     0
290
     0
174
     0
 93
        1
 44
0.0
173
     0
291
     1
 45
0.0
1001
ACAD
1000
AcDbSavedByObjectVersion
1070
     0
  0
VISUALSTYLE
  5
657
102
{ACAD_REACTORS
330
64B
102
}
330
64B
100
AcDbVisualStyle
  2
Brighten
 70
    12
 71
     2
 72
     2
 73
     0
 90
        0
 40
-0.6
 41
-30.0
 62
     5
 63
     7
 74
     1
 91
        4
 64
     7
 65
   257
 75
     1
175
     1
 42
1.0
 92
        8
 66
     7
 43
1.0
 76
     1
 77
     6
 78
     2
 67
     7
 79
     5
170
     0
171
     0
290
     0
174
     0
 93
        1
 44
50.0
173
     0
291
     1
 45
0.0
1001
ACAD
1000
AcDbSavedByObjectVersion
1070
     0
  0
VISUALSTYLE
  5
65B
102
{ACAD_REACTORS
330
64B
102
}
330
64B
100
AcDbVisualStyle
  2
ColorChange
 70
    16
 71
     2
 72
     2
 73
     3
 90
        0
 40
-0.6
 41
-30.0
 62
     5
 63
     8
 74
     1
 91
        4
 64
     7
 65
   257
 75
     1
175
     1
 42
1.0
 92
        8
 66
     8
 43
1.0
 76
     1
 77
     6
 78
     2
 67
     7
 79
     5
170
     0
171
     0
290
     0
174
     0
 93
        1
 44
0.0
173
     0
291
     1
 45
0.0
1001
ACAD
1000
AcDbSavedByObjectVersion
1070
     0
  0
VISUALSTYLE
  5
654
102
{ACAD_REACTORS
330
64B
102
}
330
64B
100
AcDbVisualStyle
  2
Conceptual
 70
     9
 71
     3
 72
     2
 73
     0
 90
        0
 40
-0.6
 41
-30.0
 62
     5
 63
     7
 74
     2
 91
        2
 64
     7
 65
   257
 75
     1
175
     1
 42
40.0
 92
        8
 66
     7
 43
1.0
 76
     1
 77
     6
 78
     2
 67
     7
 79
     3
170
     0
171
     0
290
     0
174
     0
 93
        1
 44
0.0
173
     0
291
     0
 45
0.0
1001
ACAD
1000
AcDbSavedByObjectVersion
1070
     0
  0
VISUALSTYLE
  5
656
102
{ACAD_REACTORS
330
64B
102
}
330
64B
100
AcDbVisualStyle
  2
Dim
 70
    11
 71
     2
 72
     2
 73
     0
 90
        0
 40
-0.6
 41
-30.0
 62
     5
 63
     7
 74
     1
 91
        4
 64
     7
 65
   257
 75
     1
175
     1
 42
1.0
 92
        8
 66
     7
 43
1.0
 76
     1
 77
     6
 78
     2
 67
     7
 79
     5
170
     0
171
     0
290
     0
174
     0
 93
        1
 44
-50.0
173
     0
291
     1
 45
0.0
1001
ACAD
1000
AcDbSavedByObjectVersion
1070
     0
  0
VISUALSTYLE
  5
65A
102
{ACAD_REACTORS
330
64B
102
}
330
64B
100
AcDbVisualStyle
  2
Facepattern
 70
    15
 71
     2
 72
     2
 73
     0
 90
        0
 40
-0.6
 41
-30.0
 62
     5
 63
     7
 74
     1
 91
        4
 64
     7
 65
   257
 75
     1
175
     1
 42
1.0
 92
        8
 66
     7
 43
1.0
 76
     1
 77
     6
 78
     2
 67
     7
 79
     5
170
     0
171
     0
290
     0
174
     0
 93
        1
 44
0.0
173
     0
291
     1
 45
0.0
1001
ACAD
1000
AcDbSavedByObjectVersion
1070
     0
  0
VISUALSTYLE
  5
64C
102
{ACAD_REACTORS
330
64B
102
}
330
64B
100
AcDbVisualStyle
  2
Flat
 70
     0
 71
     2
 72
     1
 73
     1
 90
        2
 40
-0.6
 41
30.0
 62
     5
 63
     7
 74
     0
 91
        4
 64
     7
 65
   257
 75
     1
175
     1
 42
1.0
 92
        8
 66
     7
 43
1.0
 76
     1
 77
     6
 78
     2
 67
     7
 79
     5
170
     0
171
     0
290
     0
174
     0
 93
       13
 44
0.0
173
     0
291
     1
 45
0.0
1001
ACAD
1000
AcDbSavedByObjectVersion
1070
     0
  0
VISUALSTYLE
  5
64D
102
{ACAD_REACTORS
330
64B
102
}
330
64B
100
AcDbVisualStyle
  2
FlatWithEdges
 70
     1
 71
     2
 72
     1
 73
     1
 90
        2
 40
-0.6
 41
30.0
 62
     5
 63
     7
 74
     1
 91
        4
 64
     7
 65
   257
 75
     1
175
     1
 42
1.0
 92
        0
 66
   257
 43
1.0
 76
     1
 77
     6
 78
     2
 67
     7
 79
     5
170
     0
171
     0
290
     0
174
     0
 93
       13
 44
0.0
173
     0
291
     1
 45
0.0
1001
ACAD
1000
AcDbSavedByObjectVersion
1070
     0
  0
VISUALSTYLE
  5
64E
102
{ACAD_REACTORS
330
64B
102
}
330
64B
100
AcDbVisualStyle
  2
Gouraud
 70
     2
 71
     2
 72
     2
 73
     1
 90
        2
 40
-0.6
 41
30.0
 62
     5
 63
     7
 74
     0
 91
        4
 64
     7
 65
   257
 75
     1
175
     1
 42
1.0
 92
        0
 66
     7
 43
1.0
 76
     1
 77
     6
 78
     2
 67
     7
 79
     5
170
     0
171
     0
290
     0
174
     0
 93
       13
 44
0.0
173
     0
291
     1
 45
0.0
1001
ACAD
1000
AcDbSavedByObjectVersion
1070
     0
  0
VISUALSTYLE
  5
64F
102
{ACAD_REACTORS
330
64B
102
}
330
64B
100
AcDbVisualStyle
  2
GouraudWithEdges
 70
     3
 71
     2
 72
     2
 73
     1
 90
        2
 40
-0.6
 41
30.0
 62
     5
 63
     7
 74
     1
 91
        4
 64
     7
 65
   257
 75
     1
175
     1
 42
1.0
 92
        0
 66
   257
 43
1.0
 76
     1
 77
     6
 78
     2
 67
     7
 79
     5
170
     0
171
     0
290
     0
174
     0
 93
       13
 44
0.0
173
     0
291
     1
 45
0.0
1001
ACAD
1000
AcDbSavedByObjectVersion
1070
     0
  0
VISUALSTYLE
  5
659
102
{ACAD_REACTORS
330
64B
102
}
330
64B
100
AcDbVisualStyle
  2
Linepattern
 70
    14
 71
     2
 72
     2
 73
     0
 90
        0
 40
-0.6
 41
-30.0
 62
     5
 63
     7
 74
     1
 91
        4
 64
     7
 65
   257
 75
     7
175
     7
 42
1.0
 92
        8
 66
     7
 43
1.0
 76
     1
 77
     6
 78
     2
 67
     7
 79
     5
170
     0
171
     0
290
     0
174
     0
 93
        1
 44
0.0
173
     0
291
     1
 45
0.0
1001
ACAD
1000
AcDbSavedByObjectVersion
1070
     0
  0
VISUALSTYLE
  5
655
102
{ACAD_REACTORS
330
64B
102
}
330
64B
100
AcDbVisualStyle
  2
Realistic
 70
     8
 71
     2
 72
     2
 73
     0
 90
        0
 40
-0.6
 41
-30.0
 62
     5
 63
     7
 74
     1
 91
        0
 64
     7
 65
   257
 75
     1
175
     1
 42
1.0
 92
        8
 66
     8
 43
1.0
 76
     1
 77
     6
 78
     2
 67
     7
 79
     5
170
     0
171
     0
290
     0
174
     0
 93
       13
 44
0.0
173
     0
291
     0
 45
0.0
1001
ACAD
1000
AcDbSavedByObjectVersion
1070
     0
  0
VISUALSTYLE
  5
658
102
{ACAD_REACTORS
330
64B
102
}
330
64B
100
AcDbVisualStyle
  2
Thicken
 70
    13
 71
     2
 72
     2
 73
     0
 90
        0
 40
-0.6
 41
-30.0
 62
     5
 63
     7
 74
     1
 91
        4
 64
     7
 65
   257
 75
     1
175
     1
 42
1.0
 92
       12
 66
     7
 43
1.0
 76
     1
 77
     6
 78
     2
 67
     7
 79
     5
170
     0
171
     0
290
     0
174
     0
 93
        1
 44
0.0
173
     0
291
     1
 45
0.0
1001
ACAD
1000
AcDbSavedByObjectVersion
1070
     0
  0
DICTIONARYVAR
  5
6A5
102
{ACAD_REACTORS
330
6A1
102
}
330
6A1
100
DictionaryVariables
280
     0
  1
1:1
  0
DICTIONARYVAR
  5
6A3
102
{ACAD_REACTORS
330
6A1
102
}
330
6A1
100
DictionaryVariables
280
     0
  1
STANDARD
  0
DICTIONARYVAR
  5
6A2
102
{ACAD_REACTORS
330
6A1
102
}
330
6A1
100
DictionaryVariables
280
     0
  1
STANDARD
  0
DICTIONARYVAR
  5
B7F
102
{ACAD_REACTORS
330
6A1
102
}
330
6A1
100
DictionaryVariables
280
     0
  1
1
  0
DICTIONARYVAR
  5
B7E
102
{ACAD_REACTORS
330
6A1
102
}
330
6A1
100
DictionaryVariables
280
     0
  1
0
  0
DICTIONARYVAR
  5
6A6
102
{ACAD_REACTORS
330
6A1
102
}
330
6A1
100
DictionaryVariables
280
     0
  1
0
  0
DICTIONARYVAR
  5
6A4
102
{ACAD_REACTORS
330
6A1
102
}
330
6A1
100
DictionaryVariables
280
     0
  1
0
  0
DICTIONARYVAR
  5
B7D
102
{ACAD_REACTORS
330
6A1
102
}
330
6A1
100
DictionaryVariables
280
     0
  1
127
  0
XRECORD
  5
69D
102
{ACAD_REACTORS
330
69B
102
}
330
69B
100
AcDbXrecord
280
     1
330
39
330
F2
  0
DICTIONARY
  5
1072
330
F
100
AcDbDictionary
280
     1
281
     1
  3
ACAD_XREC_ROUNDTRIP
360
1073
  0
DICTIONARY
  5
1070
330
A
100
AcDbDictionary
280
     1
281
     1
  3
ACAD_XREC_ROUNDTRIP
360
1071
  0
DICTIONARY
  5
63C
330
63B
100
AcDbDictionary
280
     1
281
     1
  3
ACAD_XREC_ROUNDTRIP
360
1078
  3
BUMPTILE
360
63E
  3
DIFFUSETILE
360
63D
  3
OPACITYTILE
360
641
  3
REFLECTIONTILE
360
640
  3
REFRACTIONTILE
360
642
  3
SPECULARTILE
360
63F
  0
DICTIONARY
  5
634
330
633
100
AcDbDictionary
280
     1
281
     1
  3
ACAD_XREC_ROUNDTRIP
360
1077
  3
BUMPTILE
360
636
  3
DIFFUSETILE
360
635
  3
OPACITYTILE
360
639
  3
REFLECTIONTILE
360
638
  3
REFRACTIONTILE
360
63A
  3
SPECULARTILE
360
637
  0
DICTIONARY
  5
644
330
643
100
AcDbDictionary
280
     1
281
     1
  3
ACAD_XREC_ROUNDTRIP
360
1079
  3
BUMPTILE
360
646
  3
DIFFUSETILE
360
645
  3
OPACITYTILE
360
649
  3
REFLECTIONTILE
360
648
  3
REFRACTIONTILE
360
64A
  3
SPECULARTILE
360
647
  0
DICTIONARY
  5
69E
330
65E
100
AcDbDictionary
280
     1
281
     1
  3
ACAD_ROUNDTRIP_2008_TABLESTYLE_CELLSTYLEMAP
360
106E
  3
ACAD_XREC_ROUNDTRIP
360
107A
  0
XRECORD
  5
1073
102
{ACAD_REACTORS
330
1072
102
}
330
1072
100
AcDbXrecord
280
     1
102
SHADEPLOT
 70
     0
102
SHADEPLOTRESLEVEL
 70
     2
102
SHADEPLOTCUSTOMDPI
 70
   300
  0
XRECORD
  5
1071
102
{ACAD_REACTORS
330
1070
102
}
330
1070
100
AcDbXrecord
280
     1
102
SHADEPLOT
 70
     0
102
SHADEPLOTRESLEVEL
 70
     2
102
SHADEPLOTCUSTOMDPI
 70
   300
  0
XRECORD
  5
1078
102
{ACAD_REACTORS
330
63C
102
}
330
63C
100
AcDbXrecord
280
     1
102
MATERIAL
148
0.0
149
0.0
149
0.0
 93
        0
 94
      127
282
     0
 72
     0
 77
     0
171
     0
175
     0
179
     0
273
     0
  0
XRECORD
  5
63E
102
{ACAD_REACTORS
330
63C
102
}
330
63C
100
AcDbXrecord
280
     1
270
     1
271
     1
  0
XRECORD
  5
63D
102
{ACAD_REACTORS
330
63C
102
}
330
63C
100
AcDbXrecord
280
     1
270
     1
271
     1
  0
XRECORD
  5
641
102
{ACAD_REACTORS
330
63C
102
}
330
63C
100
AcDbXrecord
280
     1
270
     1
271
     1
  0
XRECORD
  5
640
102
{ACAD_REACTORS
330
63C
102
}
330
63C
100
AcDbXrecord
280
     1
270
     1
271
     1
  0
XRECORD
  5
642
102
{ACAD_REACTORS
330
63C
102
}
330
63C
100
AcDbXrecord
280
     1
270
     1
271
     1
  0
XRECORD
  5
63F
102
{ACAD_REACTORS
330
63C
102
}
330
63C
100
AcDbXrecord
280
     1
270
     1
271
     1
  0
XRECORD
  5
1077
102
{ACAD_REACTORS
330
634
102
}
330
634
100
AcDbXrecord
280
     1
102
MATERIAL
148
0.0
149
0.0
149
0.0
 93
        0
 94
      127
282
     0
 72
     0
 77
     0
171
     0
175
     0
179
     0
273
     0
  0
XRECORD
  5
636
102
{ACAD_REACTORS
330
634
102
}
330
634
100
AcDbXrecord
280
     1
270
     1
271
     1
  0
XRECORD
  5
635
102
{ACAD_REACTORS
330
634
102
}
330
634
100
AcDbXrecord
280
     1
270
     1
271
     1
  0
XRECORD
  5
639
102
{ACAD_REACTORS
330
634
102
}
330
634
100
AcDbXrecord
280
     1
270
     1
271
     1
  0
XRECORD
  5
638
102
{ACAD_REACTORS
330
634
102
}
330
634
100
AcDbXrecord
280
     1
270
     1
271
     1
  0
XRECORD
  5
63A
102
{ACAD_REACTORS
330
634
102
}
330
634
100
AcDbXrecord
280
     1
270
     1
271
     1
  0
XRECORD
  5
637
102
{ACAD_REACTORS
330
634
102
}
330
634
100
AcDbXrecord
280
     1
270
     1
271
     1
  0
XRECORD
  5
1079
102
{ACAD_REACTORS
330
644
102
}
330
644
100
AcDbXrecord
280
     1
102
MATERIAL
148
0.0
149
0.0
149
0.0
 93
        0
 94
      127
282
     0
 72
     0
 77
     0
171
     0
175
     0
179
     0
273
     0
  0
XRECORD
  5
646
102
{ACAD_REACTORS
330
644
102
}
330
644
100
AcDbXrecord
280
     1
270
     1
271
     1
  0
XRECORD
  5
645
102
{ACAD_REACTORS
330
644
102
}
330
644
100
AcDbXrecord
280
     1
270
     1
271
     1
  0
XRECORD
  5
649
102
{ACAD_REACTORS
330
644
102
}
330
644
100
AcDbXrecord
280
     1
270
     1
271
     1
  0
XRECORD
  5
648
102
{ACAD_REACTORS
330
644
102
}
330
644
100
AcDbXrecord
280
     1
270
     1
271
     1
  0
XRECORD
  5
64A
102
{ACAD_REACTORS
330
644
102
}
330
644
100
AcDbXrecord
280
     1
270
     1
271
     1
  0
XRECORD
  5
647
102
{ACAD_REACTORS
330
644
102
}
330
644
100
AcDbXrecord
280
     1
270
     1
271
     1
  0
CELLSTYLEMAP
  5
106E
102
{ACAD_REACTORS
330
69E
102
}
330
69E
100
AcDbCellStyleMap
 90
        3
300
CELLSTYLE
  1
TABLEFORMAT_BEGIN
 90
        5
170
     1
 91
        0
 92
    32768
 62
   257
 93
        1
300
CONTENTFORMAT
  1
CONTENTFORMAT_BEGIN
 90
        0
 91
        0
 92
      512
 93
        0
300

 40
0.0
140
1.0
 94
        5
 62
     0
340
12
144
6.0
309
CONTENTFORMAT_END
171
     1
301
MARGIN
  1
CELLMARGIN_BEGIN
 40
1.5
 40
1.5
 40
1.5
 40
1.5
 40
4.5
 40
4.5
309
CELLMARGIN_END
 94
        6
 95
        1
302
GRIDFORMAT
  1
GRIDFORMAT_BEGIN
 90
        0
 91
        1
 62
     0
 92
       -2
340
0
 93
        0
 40
1.125
309
GRIDFORMAT_END
 95
        2
302
GRIDFORMAT
  1
GRIDFORMAT_BEGIN
 90
        0
 91
        1
 62
     0
 92
       -2
340
0
 93
        0
 40
1.125
309
GRIDFORMAT_END
 95
        4
302
GRIDFORMAT
  1
GRIDFORMAT_BEGIN
 90
        0
 91
        1
 62
     0
 92
       -2
340
0
 93
        0
 40
1.125
309
GRIDFORMAT_END
 95
        8
302
GRIDFORMAT
  1
GRIDFORMAT_BEGIN
 90
        0
 91
        1
 62
     0
 92
       -2
340
0
 93
        0
 40
1.125
309
GRIDFORMAT_END
 95
       16
302
GRIDFORMAT
  1
GRIDFORMAT_BEGIN
 90
        0
 91
        1
 62
     0
 92
       -2
340
0
 93
        0
 40
1.125
309
GRIDFORMAT_END
 95
       32
302
GRIDFORMAT
  1
GRIDFORMAT_BEGIN
 90
        0
 91
        1
 62
     0
 92
       -2
340
0
 93
        0
 40
1.125
309
GRIDFORMAT_END
309
TABLEFORMAT_END
  1
CELLSTYLE_BEGIN
 90
        1
 91
        1
300
_TITLE
309
CELLSTYLE_END
300
CELLSTYLE
  1
TABLEFORMAT_BEGIN
 90
        5
170
     1
 91
        0
 92
        0
 62
   257
 93
        1
300
CONTENTFORMAT
  1
CONTENTFORMAT_BEGIN
 90
        0
 91
        0
 92
      512
 93
        0
300

 40
0.0
140
1.0
 94
        5
 62
     0
340
12
144
4.5
309
CONTENTFORMAT_END
171
     1
301
MARGIN
  1
CELLMARGIN_BEGIN
 40
1.5
 40
1.5
 40
1.5
 40
1.5
 40
4.5
 40
4.5
309
CELLMARGIN_END
 94
        6
 95
        1
302
GRIDFORMAT
  1
GRIDFORMAT_BEGIN
 90
        0
 91
        1
 62
     0
 92
       -2
340
0
 93
        0
 40
1.125
309
GRIDFORMAT_END
 95
        2
302
GRIDFORMAT
  1
GRIDFORMAT_BEGIN
 90
        0
 91
        1
 62
     0
 92
       -2
340
0
 93
        0
 40
1.125
309
GRIDFORMAT_END
 95
        4
302
GRIDFORMAT
  1
GRIDFORMAT_BEGIN
 90
        0
 91
        1
 62
     0
 92
       -2
340
0
 93
        0
 40
1.125
309
GRIDFORMAT_END
 95
        8
302
GRIDFORMAT
  1
GRIDFORMAT_BEGIN
 90
        0
 91
        1
 62
     0
 92
       -2
340
0
 93
        0
 40
1.125
309
GRIDFORMAT_END
 95
       16
302
GRIDFORMAT
  1
GRIDFORMAT_BEGIN
 90
        0
 91
        1
 62
     0
 92
       -2
340
0
 93
        0
 40
1.125
309
GRIDFORMAT_END
 95
       32
302
GRIDFORMAT
  1
GRIDFORMAT_BEGIN
 90
        0
 91
        1
 62
     0
 92
       -2
340
0
 93
        0
 40
1.125
309
GRIDFORMAT_END
309
TABLEFORMAT_END
  1
CELLSTYLE_BEGIN
 90
        2
 91
        1
300
_HEADER
309
CELLSTYLE_END
300
CELLSTYLE
  1
TABLEFORMAT_BEGIN
 90
        5
170
     1
 91
        0
 92
        0
 62
   257
 93
        1
300
CONTENTFORMAT
  1
CONTENTFORMAT_BEGIN
 90
        0
 91
        0
 92
      512
 93
        0
300

 40
0.0
140
1.0
 94
        2
 62
     0
340
12
144
4.5
309
CONTENTFORMAT_END
171
     1
301
MARGIN
  1
CELLMARGIN_BEGIN
 40
1.5
 40
1.5
 40
1.5
 40
1.5
 40
4.5
 40
4.5
309
CELLMARGIN_END
 94
        6
 95
        1
302
GRIDFORMAT
  1
GRIDFORMAT_BEGIN
 90
        0
 91
        1
 62
     0
 92
       -2
340
0
 93
        0
 40
1.125
309
GRIDFORMAT_END
 95
        2
302
GRIDFORMAT
  1
GRIDFORMAT_BEGIN
 90
        0
 91
        1
 62
     0
 92
       -2
340
0
 93
        0
 40
1.125
309
GRIDFORMAT_END
 95
        4
302
GRIDFORMAT
  1
GRIDFORMAT_BEGIN
 90
        0
 91
        1
 62
     0
 92
       -2
340
0
 93
        0
 40
1.125
309
GRIDFORMAT_END
 95
        8
302
GRIDFORMAT
  1
GRIDFORMAT_BEGIN
 90
        0
 91
        1
 62
     0
 92
       -2
340
0
 93
        0
 40
1.125
309
GRIDFORMAT_END
 95
       16
302
GRIDFORMAT
  1
GRIDFORMAT_BEGIN
 90
        0
 91
        1
 62
     0
 92
       -2
340
0
 93
        0
 40
1.125
309
GRIDFORMAT_END
 95
       32
302
GRIDFORMAT
  1
GRIDFORMAT_BEGIN
 90
        0
 91
        1
 62
     0
 92
       -2
340
0
 93
        0
 40
1.125
309
GRIDFORMAT_END
309
TABLEFORMAT_END
  1
CELLSTYLE_BEGIN
 90
        3
 91
        2
300
_DATA
309
CELLSTYLE_END
  0
XRECORD
  5
107A
102
{ACAD_REACTORS
330
69E
102
}
330
69E
100
AcDbXrecord
280
     1
102
ACAD_ROUNDTRIP_PRE2007_TABLESTYLE
 90
      512
 91
        0
  1

 92
      512
 93
        0
  2

 94
      512
 95
        0
  3

  0
ENDSEC
  0
EOF
