  0
SECTION
  2
HEADER
  9
$ACADVER
  1
AC1015
  9
$ACADMAINTVER
 70
     6
  9
$DWGCODEPAGE
  3
ANSI_1252
  9
$INSBASE
 10
0.0
 20
0.0
 30
0.0
  9
$EXTMIN
 10
5525.618681640026
 20
1476.156805909435
 30
0.0
  9
$EXTMAX
 10
5885.474410421563
 20
1779.803879888603
 30
0.0
  9
$LIMMIN
 10
0.0
 20
0.0
  9
$LIMMAX
 10
210.0
 20
297.0
  9
$ORTHOMODE
 70
     1
  9
$REGENMODE
 70
     1
  9
$FILLMODE
 70
     1
  9
$QTEXTMODE
 70
     0
  9
$MIRRTEXT
 70
     1
  9
$LTSCALE
 40
1.5
  9
$ATTMODE
 70
     1
  9
$TEXTSIZE
 40
2.5
  9
$TRACEWID
 40
1.0
  9
$TEXTSTYLE
  7
century gothic
  9
$CLAYER
  8
0
  9
$CELTYPE
  6
Continuous
  9
$CECOLOR
 62
     0
  9
$CELTSCALE
 40
1.0
  9
$DISPSILH
 70
     0
  9
$DIMSCALE
 40
1.0
  9
$DIMASZ
 40
5.75
  9
$DIMEXO
 40
1.0
  9
$DIMDLI
 40
3.75
  9
$DIMRND
 40
0.0
  9
$DIMDLE
 40
0.0
  9
$DIMEXE
 40
1.0
  9
$DIMTP
 40
0.0
  9
$DIMTM
 40
0.0
  9
$DIMTXT
 40
6.25
  9
$DIMCEN
 40
2.5
  9
$DIMTSZ
 40
0.0
  9
$DIMTOL
 70
     0
  9
$DIMLIM
 70
     0
  9
$DIMTIH
 70
     0
  9
$DIMTOH
 70
     0
  9
$DIMSE1
 70
     0
  9
$DIMSE2
 70
     0
  9
$DIMTAD
 70
     1
  9
$DIMZIN
 70
     8
  9
$DIMBLK
  1

  9
$DIMASO
 70
     1
  9
$DIMSHO
 70
     1
  9
$DIMPOST
  1

  9
$DIMAPOST
  1

  9
$DIMALT
 70
     0
  9
$DIMALTD
 70
     3
  9
$DIMALTF
 40
0.0393700787
  9
$DIMLFAC
 40
1.0
  9
$DIMTOFL
 70
     1
  9
$DIMTVP
 40
0.0
  9
$DIMTIX
 70
     0
  9
$DIMSOXD
 70
     0
  9
$DIMSAH
 70
     0
  9
$DIMBLK1
  1

  9
$DIMBLK2
  1

  9
$DIMSTYLE
  2
ISO-25
  9
$DIMCLRD
 70
     0
  9
$DIMCLRE
 70
     0
  9
$DIMCLRT
 70
   256
  9
$DIMTFAC
 40
1.0
  9
$DIMGAP
 40
2.5
  9
$DIMJUST
 70
     0
  9
$DIMSD1
 70
     0
  9
$DIMSD2
 70
     0
  9
$DIMTOLJ
 70
     0
  9
$DIMTZIN
 70
     8
  9
$DIMALTZ
 70
     0
  9
$DIMALTTZ
 70
     0
  9
$DIMUPT
 70
     0
  9
$DIMDEC
 70
     2
  9
$DIMTDEC
 70
     2
  9
$DIMALTU
 70
     2
  9
$DIMALTTD
 70
     3
  9
$DIMTXSTY
  7
Standard
  9
$DIMAUNIT
 70
     0
  9
$DIMADEC
 70
     2
  9
$DIMALTRND
 40
0.0
  9
$DIMAZIN
 70
     0
  9
$DIMDSEP
 70
    44
  9
$DIMATFIT
 70
     3
  9
$DIMFRAC
 70
     0
  9
$DIMLDRBLK
  1

  9
$DIMLUNIT
 70
     2
  9
$DIMLWD
 70
    -2
  9
$DIMLWE
 70
    -2
  9
$DIMTMOVE
 70
     0
  9
$LUNITS
 70
     2
  9
$LUPREC
 70
     2
  9
$SKETCHINC
 40
1.0
  9
$FILLETRAD
 40
10.0
  9
$AUNITS
 70
     0
  9
$AUPREC
 70
     2
  9
$MENU
  1
.
  9
$ELEVATION
 40
0.0
  9
$PELEVATION
 40
0.0
  9
$THICKNESS
 40
0.0
  9
$LIMCHECK
 70
     0
  9
$CHAMFERA
 40
0.0
  9
$CHAMFERB
 40
0.0
  9
$CHAMFERC
 40
20.0
  9
$CHAMFERD
 40
0.0
  9
$SKPOLY
 70
     0
  9
$TDCREATE
 40
2456227.372610613
  9
$TDUCREATE
 40
2456227.330943947
  9
$TDUPDATE
 40
2457417.473263819
  9
$TDUUPDATE
 40
2457417.431597153
  9
$TDINDWG
 40
6.0097156134
  9
$TDUSRTIMER
 40
2457417.431136366
  9
$USRTIMER
 70
     1
  9
$ANGBASE
 50
0.0
  9
$ANGDIR
 70
     0
  9
$PDMODE
 70
     0
  9
$PDSIZE
 40
-1.0
  9
$PLINEWID
 40
0.0
  9
$SPLFRAME
 70
     0
  9
$SPLINETYPE
 70
     6
  9
$SPLINESEGS
 70
     8
  9
$HANDSEED
  5
6B7FC
  9
$SURFTAB1
 70
     6
  9
$SURFTAB2
 70
     6
  9
$SURFTYPE
 70
     6
  9
$SURFU
 70
     6
  9
$SURFV
 70
     6
  9
$UCSBASE
  2

  9
$UCSNAME
  2

  9
$UCSORG
 10
0.0
 20
0.0
 30
0.0
  9
$UCSXDIR
 10
1.0
 20
0.0
 30
0.0
  9
$UCSYDIR
 10
0.0
 20
1.0
 30
0.0
  9
$UCSORTHOREF
  2

  9
$UCSORTHOVIEW
 70
     0
  9
$UCSORGTOP
 10
0.0
 20
0.0
 30
0.0
  9
$UCSORGBOTTOM
 10
0.0
 20
0.0
 30
0.0
  9
$UCSORGLEFT
 10
0.0
 20
0.0
 30
0.0
  9
$UCSORGRIGHT
 10
0.0
 20
0.0
 30
0.0
  9
$UCSORGFRONT
 10
0.0
 20
0.0
 30
0.0
  9
$UCSORGBACK
 10
0.0
 20
0.0
 30
0.0
  9
$PUCSBASE
  2

  9
$PUCSNAME
  2

  9
$PUCSORG
 10
0.0
 20
0.0
 30
0.0
  9
$PUCSXDIR
 10
1.0
 20
0.0
 30
0.0
  9
$PUCSYDIR
 10
0.0
 20
1.0
 30
0.0
  9
$PUCSORTHOREF
  2

  9
$PUCSORTHOVIEW
 70
     0
  9
$PUCSORGTOP
 10
0.0
 20
0.0
 30
0.0
  9
$PUCSORGBOTTOM
 10
0.0
 20
0.0
 30
0.0
  9
$PUCSORGLEFT
 10
0.0
 20
0.0
 30
0.0
  9
$PUCSORGRIGHT
 10
0.0
 20
0.0
 30
0.0
  9
$PUCSORGFRONT
 10
0.0
 20
0.0
 30
0.0
  9
$PUCSORGBACK
 10
0.0
 20
0.0
 30
0.0
  9
$USERI1
 70
     0
  9
$USERI2
 70
     0
  9
$USERI3
 70
     0
  9
$USERI4
 70
     0
  9
$USERI5
 70
     0
  9
$USERR1
 40
0.0
  9
$USERR2
 40
0.0
  9
$USERR3
 40
0.0
  9
$USERR4
 40
0.0
  9
$USERR5
 40
0.0
  9
$WORLDVIEW
 70
     1
  9
$SHADEDGE
 70
     3
  9
$SHADEDIF
 70
    70
  9
$TILEMODE
 70
     1
  9
$MAXACTVP
 70
    64
  9
$PINSBASE
 10
0.0
 20
0.0
 30
0.0
  9
$PLIMCHECK
 70
     0
  9
$PEXTMIN
 10
1.000000000000000E+20
 20
1.000000000000000E+20
 30
1.000000000000000E+20
  9
$PEXTMAX
 10
-1.000000000000000E+20
 20
-1.000000000000000E+20
 30
-1.000000000000000E+20
  9
$PLIMMIN
 10
-7.5
 20
-20.0
  9
$PLIMMAX
 10
412.5
 20
277.0
  9
$UNITMODE
 70
     0
  9
$VISRETAIN
 70
     1
  9
$PLINEGEN
 70
     0
  9
$PSLTSCALE
 70
     1
  9
$TREEDEPTH
 70
  3020
  9
$CMLSTYLE
  2
Standard
  9
$CMLJUST
 70
     0
  9
$CMLSCALE
 40
20.0
  9
$PROXYGRAPHICS
 70
     1
  9
$MEASUREMENT
 70
     1
  9
$CELWEIGHT
370
     0
  9
$ENDCAPS
280
     0
  9
$JOINSTYLE
280
     0
  9
$LWDISPLAY
290
     1
  9
$INSUNITS
 70
     4
  9
$HYPERLINKBASE
  1

  9
$STYLESHEET
  1

  9
$XEDIT
290
     1
  9
$CEPSNTYPE
380
     0
  9
$PSTYLEMODE
290
     1
  9
$FINGERPRINTGUID
  2
{A6F0863B-3CE9-4F3D-B6F9-EEF6864D8762}
  9
$VERSIONGUID
  2
{FAEB1C32-E019-11D5-929B-00C0DF256EC4}
  9
$EXTNAMES
290
     1
  9
$PSVPSCALE
 40
0.0
  9
$OLESTARTUP
290
     0
  0
ENDSEC
  0
SECTION
  2
CLASSES
  0
CLASS
  1
ACDBDICTIONARYWDFLT
  2
AcDbDictionaryWithDefault
  3
ObjectDBX Classes
 90
        0
280
     0
281
     0
  0
CLASS
  1
VISUALSTYLE
  2
AcDbVisualStyle
  3
ObjectDBX Classes
 90
     4095
280
     0
281
     0
  0
CLASS
  1
MATERIAL
  2
AcDbMaterial
  3
ObjectDBX Classes
 90
     1153
280
     0
281
     0
  0
CLASS
  1
ACDBPLACEHOLDER
  2
AcDbPlaceHolder
  3
ObjectDBX Classes
 90
        0
280
     0
281
     0
  0
CLASS
  1
LAYOUT
  2
AcDbLayout
  3
ObjectDBX Classes
 90
        0
280
     0
281
     0
  0
CLASS
  1
SCALE
  2
AcDbScale
  3
ObjectDBX Classes
 90
     1153
280
     0
281
     0
  0
CLASS
  1
TABLESTYLE
  2
AcDbTableStyle
  3
ObjectDBX Classes
 90
     4095
280
     0
281
     0
  0
CLASS
  1
RASTERVARIABLES
  2
AcDbRasterVariables
  3
ISM
 90
        0
280
     0
281
     0
  0
CLASS
  1
DICTIONARYVAR
  2
AcDbDictionaryVar
  3
ObjectDBX Classes
 90
        0
280
     0
281
     0
  0
CLASS
  1
CELLSTYLEMAP
  2
AcDbCellStyleMap
  3
ObjectDBX Classes
 90
     1152
280
     0
281
     0
  0
CLASS
  1
DIMASSOC
  2
AcDbDimAssoc
  3
"AcDbDimAssoc|Product Desc:     AcDim ARX App For Dimension|Company:          Autodesk, Inc.|WEB Address:      www.autodesk.com"
 90
        0
280
     0
281
     0
  0
CLASS
  1
SORTENTSTABLE
  2
AcDbSortentsTable
  3
ObjectDBX Classes
 90
        0
280
     0
281
     0
  0
CLASS
  1
SUN
  2
AcDbSun
  3
SCENEOE
 90
     1153
280
     0
281
     0
  0
CLASS
  1
MLEADERSTYLE
  2
AcDbMLeaderStyle
  3
ACDB_MLEADERSTYLE_CLASS
 90
     4095
280
     0
281
     0
  0
ENDSEC
  0
SECTION
  2
TABLES
  0
TABLE
  2
VPORT
  5
8
330
0
100
AcDbSymbolTable
 70
     1
  0
VPORT
  5
29
330
8
100
AcDbSymbolTableRecord
100
AcDbViewportTableRecord
  2
*Active
 70
     0
 10
0.0
 20
0.0
 11
1.0
 21
1.0
 12
5705.546546030795
 22
1627.980342899019
 13
0.0
 23
0.0
 14
10.0
 24
10.0
 15
10.0
 25
10.0
 16
0.0
 26
0.0
 36
1.0
 17
0.0
 27
0.0
 37
0.0
 40
309.7200154587521
 41
2.026760563380282
 42
50.0
 43
0.0
 44
0.0
 50
0.0
 51
0.0
 71
    16
 72
  2000
 73
     1
 74
     3
 75
     0
 76
     0
 77
     0
 78
     0
281
     0
 65
     1
110
0.0
120
0.0
130
0.0
111
1.0
121
0.0
131
0.0
112
0.0
122
1.0
132
0.0
 79
     0
146
0.0
  0
ENDTAB
  0
TABLE
  2
LTYPE
  5
5
330
0
100
AcDbSymbolTable
 70
    12
  0
LTYPE
  5
14
330
5
100
AcDbSymbolTableRecord
100
AcDbLinetypeTableRecord
  2
ByBlock
 70
     0
  3

 72
    65
 73
     0
 40
0.0
  0
LTYPE
  5
15
330
5
100
AcDbSymbolTableRecord
100
AcDbLinetypeTableRecord
  2
ByLayer
 70
     0
  3

 72
    65
 73
     0
 40
0.0
  0
LTYPE
  5
16
330
5
100
AcDbSymbolTableRecord
100
AcDbLinetypeTableRecord
  2
Continuous
 70
     0
  3
Solid line
 72
    65
 73
     0
 40
0.0
  0
LTYPE
  5
3F
330
5
100
AcDbSymbolTableRecord
100
AcDbLinetypeTableRecord
  2
HIDDEN
 70
     0
  3
Hidden __ __ __ __ __ __ __ __ __ __ __ __ __ __
 72
    65
 73
     2
 40
1.905
 49
1.27
 74
     0
 49
-0.635
 74
     0
  0
LTYPE
  5
40
330
5
100
AcDbSymbolTableRecord
100
AcDbLinetypeTableRecord
  2
PHANTOM
 70
     0
  3
Phantom ______  __  __  ______  __  __  ______
 72
    65
 73
     6
 40
12.7
 49
6.35
 74
     0
 49
-1.27
 74
     0
 49
1.27
 74
     0
 49
-1.27
 74
     0
 49
1.27
 74
     0
 49
-1.27
 74
     0
  0
LTYPE
  5
41
330
5
100
AcDbSymbolTableRecord
100
AcDbLinetypeTableRecord
  2
CENTER
 70
     0
  3
Center ____ _ ____ _ ____ _ ____ _ ____ _ ____
 72
    65
 73
     4
 40
10.16
 49
6.35
 74
     0
 49
-1.27
 74
     0
 49
1.27
 74
     0
 49
-1.27
 74
     0
  0
LTYPE
  5
42
330
5
100
AcDbSymbolTableRecord
100
AcDbLinetypeTableRecord
  2
CENTERX2
 70
     0
  3
Center (2x) ________  __  ________  __  _____
 72
    65
 73
     4
 40
20.32
 49
12.7
 74
     0
 49
-2.54
 74
     0
 49
2.54
 74
     0
 49
-2.54
 74
     0
  0
LTYPE
  5
43
330
5
100
AcDbSymbolTableRecord
100
AcDbLinetypeTableRecord
  2
DOT2
 70
     0
  3
Dot (.5x) ........................................
 72
    65
 73
     2
 40
0.635
 49
0.0
 74
     0
 49
-0.635
 74
     0
  0
LTYPE
  5
20AE
330
5
100
AcDbSymbolTableRecord
100
AcDbLinetypeTableRecord
  2
DOT
 70
     0
  3
...............................................
 72
    65
 73
     2
 40
0.5
 49
0.25
 74
     0
 49
-0.25
 74
     0
  0
LTYPE
  5
2993
330
5
100
AcDbSymbolTableRecord
100
AcDbLinetypeTableRecord
  2
CENTRO2
 70
     0
  3
Centro (.5x) ___ _ ___ _ ___ _ ___ _ ___ _ ___
 72
    65
 73
     4
 40
28.575
 49
19.05
 74
     0
 49
-3.175
 74
     0
 49
3.175
 74
     0
 49
-3.175
 74
     0
  0
LTYPE
  5
55F13
330
5
100
AcDbSymbolTableRecord
100
AcDbLinetypeTableRecord
  2
TRATTEGGIATA2
 70
     0
  3
Tratteggiata (.5x) _ _ _ _ _ _ _ _ _ _ _ _ _ _ _ _ _
 72
    65
 73
     2
 40
9.524999999999999
 49
6.35
 74
     0
 49
-3.175
 74
     0
  0
LTYPE
  5
60A8D
330
5
100
AcDbSymbolTableRecord
100
AcDbLinetypeTableRecord
  2
CENTER2
 70
     0
  3
Center (.5x) ___ _ ___ _ ___ _ ___ _ ___ _ ___
 72
    65
 73
     4
 40
28.575
 49
19.05
 74
     0
 49
-3.175
 74
     0
 49
3.175
 74
     0
 49
-3.175
 74
     0
  0
LTYPE
  5
653E0
330
5
100
AcDbSymbolTableRecord
100
AcDbLinetypeTableRecord
  2
JIS_09_08
 70
     0
  3
2SASEN8 __ _ _ __ _ _ __ _ _ __ _ _ __ _ _
 72
    65
 73
     6
 40
10.75
 49
8.0
 74
     0
 49
-0.55
 74
     0
 49
0.55
 74
     0
 49
-0.55
 74
     0
 49
0.55
 74
     0
 49
-0.55
 74
     0
  0
LTYPE
  5
686E6
330
5
100
AcDbSymbolTableRecord
100
AcDbLinetypeTableRecord
  2
CENTER1
 70
     0
  3
JIS \U+4E2D\U+5FC3\U+7DDA_ ____ _ ____ _ ____ _ ____ _ ____
 72
    65
 73
     4
 40
33.0
 49
30.0
 74
     0
 49
-1.0
 74
     0
 49
1.0
 74
     0
 49
-1.0
 74
     0
  0
ENDTAB
  0
TABLE
  2
LAYER
  5
2
330
0
100
AcDbSymbolTable
 70
     5
  0
LAYER
  5
10
330
2
100
AcDbSymbolTableRecord
100
AcDbLayerTableRecord
  2
0
 70
     0
 62
     7
  6
Continuous
370
    -3
390
F
  0
LAYER
  5
44
330
2
100
AcDbSymbolTableRecord
100
AcDbLayerTableRecord
  2
FORMAT
 70
     0
 62
     7
  6
Continuous
370
    -3
390
F
  0
LAYER
  5
158
330
2
100
AcDbSymbolTableRecord
100
AcDbLayerTableRecord
  2
Defpoints
 70
     0
 62
     7
  6
Continuous
290
     0
370
    -3
390
F
  0
LAYER
  5
2991
330
2
100
AcDbSymbolTableRecord
100
AcDbLayerTableRecord
  2
assi
 70
     0
 62
     1
  6
CENTRO2
370
    -3
390
F
  0
LAYER
  5
69C5E
330
2
100
AcDbSymbolTableRecord
100
AcDbLayerTableRecord
  2
QUOTE
 70
     0
 62
     3
  6
Continuous
370
    -3
390
F
  0
ENDTAB
  0
TABLE
  2
STYLE
  5
3
330
0
100
AcDbSymbolTable
 70
    10
  0
STYLE
  5
11
330
3
100
AcDbSymbolTableRecord
100
AcDbTextStyleTableRecord
  2
Standard
 70
     0
 40
0.0
 41
0.9
 50
0.0
 71
     0
 42
2.8
  3
GOTHIC.TTF
  4

1001
ACAD
1000
Century Gothic
1071
        0
  0
STYLE
  5
A70
330
3
100
AcDbSymbolTableRecord
100
AcDbTextStyleTableRecord
  2
SLDTEXTSTYLE0
 70
     0
 40
0.0
 41
0.75
 50
0.0
 71
     0
 42
0.2
  3
TXT
  4

  0
STYLE
  5
16B1
330
3
100
AcDbSymbolTableRecord
100
AcDbTextStyleTableRecord
  2
SLDTEXTSTYLE4
 70
     0
 40
0.0
 41
0.75
 50
0.0
 71
     0
 42
0.2
  3
TXT
  4

  0
STYLE
  5
DDCD
330
3
100
AcDbSymbolTableRecord
100
AcDbTextStyleTableRecord
  2
SLDTEXTSTYLE1
 70
     0
 40
0.0
 41
0.609090909090909
 50
0.0
 71
     0
 42
2.8
  3
TXT
  4

  0
STYLE
  5
DDCE
330
3
100
AcDbSymbolTableRecord
100
AcDbTextStyleTableRecord
  2
SLDTEXTSTYLE2
 70
     0
 40
0.0
 41
0.7
 50
0.0
 71
     0
 42
2.8
  3
TXT
  4

  0
STYLE
  5
DDCF
330
3
100
AcDbSymbolTableRecord
100
AcDbTextStyleTableRecord
  2
SLDTEXTSTYLE3
 70
     0
 40
0.0
 41
0.57
 50
0.0
 71
     0
 42
2.8
  3
TXT
  4

  0
STYLE
  5
3D5CF
330
3
100
AcDbSymbolTableRecord
100
AcDbTextStyleTableRecord
  2
century gothic
 70
     0
 40
0.0
 41
0.9
 50
0.0
 71
     0
 42
2.5
  3
GOTHIC.TTF
  4

1001
ACAD
1000
Century Gothic
1071
        0
  0
STYLE
  5
48066
330
3
100
AcDbSymbolTableRecord
100
AcDbTextStyleTableRecord
  2
stile3
 70
     0
 40
2.0
 41
1.0
 50
0.0
 71
     0
 42
2.5
  3
romans.shx
  4

  0
STYLE
  5
60A8F
330
3
100
AcDbSymbolTableRecord
100
AcDbTextStyleTableRecord
  2
CHINA
 70
     0
 40
0.0
 41
1.0
 50
0.0
 71
     0
 42
2.5
  3
c:/rubon/c2
  4
c:/rubon/china
  0
STYLE
  5
67F48
330
3
100
AcDbSymbolTableRecord
100
AcDbTextStyleTableRecord
  2
EUROROMANOBLIQUE
 70
     0
 40
0.0
 41
1.0
 50
0.0
 71
     0
 42
2.5
  3
euro____.pfb
  4

  0
ENDTAB
  0
TABLE
  2
VIEW
  5
6
330
0
100
AcDbSymbolTable
 70
     0
  0
ENDTAB
  0
TABLE
  2
UCS
  5
7
330
0
100
AcDbSymbolTable
 70
     0
  0
ENDTAB
  0
TABLE
  2
APPID
  5
9
330
0
100
AcDbSymbolTable
 70
     6
  0
APPID
  5
12
330
9
100
AcDbSymbolTableRecord
100
AcDbRegAppTableRecord
  2
ACAD
 70
     0
  0
APPID
  5
673
330
9
100
AcDbSymbolTableRecord
100
AcDbRegAppTableRecord
  2
ACAD_DSTYLE_DIMRADIAL_EXTENSION
 70
     0
  0
APPID
  5
C7A7
330
9
100
AcDbSymbolTableRecord
100
AcDbRegAppTableRecord
  2
PE_DIMMEASUREMENT
 70
     0
  0
APPID
  5
CEA3
330
9
100
AcDbSymbolTableRecord
100
AcDbRegAppTableRecord
  2
ACAD_PSEXT
 70
     0
  0
APPID
  5
6B7D7
330
9
100
AcDbSymbolTableRecord
100
AcDbRegAppTableRecord
  2
ACAD_DSTYLE_DIMFLIPARROW_SYMBOL
 70
     0
  0
APPID
  5
6B7D8
330
9
100
AcDbSymbolTableRecord
100
AcDbRegAppTableRecord
  2
ACAD_DSTYLE_DIMFLIPARROW_WHICH_SYMBOL
 70
     0
  0
ENDTAB
  0
TABLE
  2
DIMSTYLE
  5
A
330
0
100
AcDbSymbolTable
 70
     6
100
AcDbDimStyleTable
  0
DIMSTYLE
105
27
330
A
100
AcDbSymbolTableRecord
100
AcDbDimStyleTableRecord
  2
ISO-25
 70
     0
 41
2.5
 42
0.625
 43
3.75
 44
1.25
 73
     0
 74
     0
 77
     1
 78
     8
140
2.5
141
2.5
143
0.0393700787
147
0.625
171
     3
172
     1
178
     0
271
     2
272
     2
274
     3
278
    44
283
     0
284
     8
340
11
  0
DIMSTYLE
105
7B5D
330
A
100
AcDbSymbolTableRecord
100
AcDbDimStyleTableRecord
  2
Standard
 70
     0
 41
1.25
 42
1.0
 44
0.75
 73
     0
 74
     0
 77
     1
140
2.5
146
0.8
147
1.25
176
     7
177
     7
271
     2
178
     7
271
     2
340
11
  0
DIMSTYLE
105
CFA7
330
A
100
AcDbSymbolTableRecord
100
AcDbDimStyleTableRecord
  2
SLDDIMSTYLE0
 70
     0
 41
3.2
 44
0.0
 45
0.000000001
 73
     0
 74
     0
 77
     1
 78
    12
 79
     3
140
3.2
147
0.8
172
     1
173
     1
178
     0
271
     2
272
     2
276
     2
284
    12
289
     0
340
16B1
  0
DIMSTYLE
105
CFA9
330
A
100
AcDbSymbolTableRecord
100
AcDbDimStyleTableRecord
  2
SLDDIMSTYLE1
 70
     0
 41
3.2
 44
0.0
 45
0.000000001
 73
     0
 74
     0
 77
     1
 78
    12
 79
     3
140
3.2
147
0.8
173
     1
178
     0
271
     2
272
     2
276
     2
284
    12
340
16B1
  0
DIMSTYLE
105
CFAA
330
A
100
AcDbSymbolTableRecord
100
AcDbDimStyleTableRecord
  2
SLDDIMSTYLE2
 70
     0
 41
3.2
 44
0.0
 73
     0
 74
     0
 77
     1
 78
    12
 79
     3
140
3.2
147
0.8
173
     1
178
     0
179
     2
272
     2
276
     2
284
    12
340
16B1
  0
DIMSTYLE
105
CFAB
330
A
100
AcDbSymbolTableRecord
100
AcDbDimStyleTableRecord
  2
SLDDIMSTYLE3
 70
     0
 41
3.2
 44
0.0
 45
0.000000001
 73
     0
 74
     0
 77
     1
 78
     8
 79
     2
140
3.2
147
0.8
172
     1
173
     1
178
     0
271
     2
272
     2
276
     2
284
    12
289
     0
340
16B1
  0
ENDTAB
  0
TABLE
  2
BLOCK_RECORD
  5
1
330
0
100
AcDbSymbolTable
 70
    51
  0
BLOCK_RECORD
  5
1F
102
{ACAD_XDICTIONARY
360
11A2
102
}
330
1
100
AcDbSymbolTableRecord
100
AcDbBlockTableRecord
  2
*Model_Space
340
22
  0
BLOCK_RECORD
  5
1B
330
1
100
AcDbSymbolTableRecord
100
AcDbBlockTableRecord
  2
*Paper_Space
340
1E
  0
BLOCK_RECORD
  5
23
330
1
100
AcDbSymbolTableRecord
100
AcDbBlockTableRecord
  2
*Paper_Space0
340
26
  0
BLOCK_RECORD
  5
5DC
330
1
100
AcDbSymbolTableRecord
100
AcDbBlockTableRecord
  2
d
340
0
  0
BLOCK_RECORD
  5
177F
102
{ACAD_XDICTIONARY
360
1798
102
}
330
1
100
AcDbSymbolTableRecord
100
AcDbBlockTableRecord
  2
oz2168
340
0
  0
BLOCK_RECORD
  5
226E
330
1
100
AcDbSymbolTableRecord
100
AcDbBlockTableRecord
  2
A$C604C3652
340
0
  0
BLOCK_RECORD
  5
ABA0
330
1
100
AcDbSymbolTableRecord
100
AcDbBlockTableRecord
  2
asddwdasasasdasd
340
0
  0
BLOCK_RECORD
  5
BC83
330
1
100
AcDbSymbolTableRecord
100
AcDbBlockTableRecord
  2
SW_CENTERMARKSYMBOL_0
340
0
  0
BLOCK_RECORD
  5
D008
330
1
100
AcDbSymbolTableRecord
100
AcDbBlockTableRecord
  2
_D
340
0
  0
BLOCK_RECORD
  5
D016
330
1
100
AcDbSymbolTableRecord
100
AcDbBlockTableRecord
  2
_D_1
340
0
  0
BLOCK_RECORD
  5
D023
330
1
100
AcDbSymbolTableRecord
100
AcDbBlockTableRecord
  2
_D_2
340
0
  0
BLOCK_RECORD
  5
D02D
330
1
100
AcDbSymbolTableRecord
100
AcDbBlockTableRecord
  2
_D_3
340
0
  0
BLOCK_RECORD
  5
D037
330
1
100
AcDbSymbolTableRecord
100
AcDbBlockTableRecord
  2
_D_4
340
0
  0
BLOCK_RECORD
  5
D043
330
1
100
AcDbSymbolTableRecord
100
AcDbBlockTableRecord
  2
_D_5
340
0
  0
BLOCK_RECORD
  5
D050
330
1
100
AcDbSymbolTableRecord
100
AcDbBlockTableRecord
  2
_D_6
340
0
  0
BLOCK_RECORD
  5
D05D
330
1
100
AcDbSymbolTableRecord
100
AcDbBlockTableRecord
  2
_D_7
340
0
  0
BLOCK_RECORD
  5
D067
330
1
100
AcDbSymbolTableRecord
100
AcDbBlockTableRecord
  2
_D_8
340
0
  0
BLOCK_RECORD
  5
D0AC
330
1
100
AcDbSymbolTableRecord
100
AcDbBlockTableRecord
  2
_D_9
340
0
  0
BLOCK_RECORD
  5
D0B6
330
1
100
AcDbSymbolTableRecord
100
AcDbBlockTableRecord
  2
_D_10
340
0
  0
BLOCK_RECORD
  5
D0C2
330
1
100
AcDbSymbolTableRecord
100
AcDbBlockTableRecord
  2
_D_11
340
0
  0
BLOCK_RECORD
  5
D0CE
330
1
100
AcDbSymbolTableRecord
100
AcDbBlockTableRecord
  2
_D_12
340
0
  0
BLOCK_RECORD
  5
D0DA
330
1
100
AcDbSymbolTableRecord
100
AcDbBlockTableRecord
  2
_D_13
340
0
  0
BLOCK_RECORD
  5
D0E4
330
1
100
AcDbSymbolTableRecord
100
AcDbBlockTableRecord
  2
_D_14
340
0
  0
BLOCK_RECORD
  5
D0F1
330
1
100
AcDbSymbolTableRecord
100
AcDbBlockTableRecord
  2
_D_15
340
0
  0
BLOCK_RECORD
  5
D0FB
330
1
100
AcDbSymbolTableRecord
100
AcDbBlockTableRecord
  2
_D_16
340
0
  0
BLOCK_RECORD
  5
D105
330
1
100
AcDbSymbolTableRecord
100
AcDbBlockTableRecord
  2
_D_17
340
0
  0
BLOCK_RECORD
  5
D112
330
1
100
AcDbSymbolTableRecord
100
AcDbBlockTableRecord
  2
_D_18
340
0
  0
BLOCK_RECORD
  5
D12A
330
1
100
AcDbSymbolTableRecord
100
AcDbBlockTableRecord
  2
SW_CENTERMARKSYMBOL_1
340
0
  0
BLOCK_RECORD
  5
D136
330
1
100
AcDbSymbolTableRecord
100
AcDbBlockTableRecord
  2
SW_CENTERMARKSYMBOL_2
340
0
  0
BLOCK_RECORD
  5
D167
330
1
100
AcDbSymbolTableRecord
100
AcDbBlockTableRecord
  2
_D_19
340
0
  0
BLOCK_RECORD
  5
D171
330
1
100
AcDbSymbolTableRecord
100
AcDbBlockTableRecord
  2
_D_20
340
0
  0
BLOCK_RECORD
  5
D17B
330
1
100
AcDbSymbolTableRecord
100
AcDbBlockTableRecord
  2
_D_21
340
0
  0
BLOCK_RECORD
  5
D185
330
1
100
AcDbSymbolTableRecord
100
AcDbBlockTableRecord
  2
_D_22
340
0
  0
BLOCK_RECORD
  5
D18F
330
1
100
AcDbSymbolTableRecord
100
AcDbBlockTableRecord
  2
_D_23
340
0
  0
BLOCK_RECORD
  5
D19B
330
1
100
AcDbSymbolTableRecord
100
AcDbBlockTableRecord
  2
_D_24
340
0
  0
BLOCK_RECORD
  5
D1A7
330
1
100
AcDbSymbolTableRecord
100
AcDbBlockTableRecord
  2
SW_CENTERMARKSYMBOL_3
340
0
  0
BLOCK_RECORD
  5
D1B3
330
1
100
AcDbSymbolTableRecord
100
AcDbBlockTableRecord
  2
SW_CENTERMARKSYMBOL_4
340
0
  0
BLOCK_RECORD
  5
D1BF
330
1
100
AcDbSymbolTableRecord
100
AcDbBlockTableRecord
  2
SW_CENTERMARKSYMBOL_5
340
0
  0
BLOCK_RECORD
  5
D1CB
330
1
100
AcDbSymbolTableRecord
100
AcDbBlockTableRecord
  2
SW_CENTERMARKSYMBOL_6
340
0
  0
BLOCK_RECORD
  5
DE58
330
1
100
AcDbSymbolTableRecord
100
AcDbBlockTableRecord
  2
SW_NOTE_0
340
0
  0
BLOCK_RECORD
  5
DE63
330
1
100
AcDbSymbolTableRecord
100
AcDbBlockTableRecord
  2
SW_NOTE_1
340
0
  0
BLOCK_RECORD
  5
DE80
330
1
100
AcDbSymbolTableRecord
100
AcDbBlockTableRecord
  2
SW_NOTE_2
340
0
  0
BLOCK_RECORD
  5
DE88
330
1
100
AcDbSymbolTableRecord
100
AcDbBlockTableRecord
  2
SW_NOTE_3
340
0
  0
BLOCK_RECORD
  5
613C1
330
1
100
AcDbSymbolTableRecord
100
AcDbBlockTableRecord
  2
*D41
340
0
  0
BLOCK_RECORD
  5
628C2
330
1
100
AcDbSymbolTableRecord
100
AcDbBlockTableRecord
  2
*D42
340
0
  0
BLOCK_RECORD
  5
628CE
330
1
100
AcDbSymbolTableRecord
100
AcDbBlockTableRecord
  2
*D43
340
0
  0
BLOCK_RECORD
  5
628DD
330
1
100
AcDbSymbolTableRecord
100
AcDbBlockTableRecord
  2
*D44
340
0
  0
BLOCK_RECORD
  5
644F4
102
{ACAD_XDICTIONARY
360
644F5
102
}
330
1
100
AcDbSymbolTableRecord
100
AcDbBlockTableRecord
  2
A$C4A843887
340
0
1001
ACAD
1000
DesignCenter Data
1002
{
1070
     1
1070
     4
1002
}
  0
BLOCK_RECORD
  5
652A4
330
1
100
AcDbSymbolTableRecord
100
AcDbBlockTableRecord
  2
*D46
340
0
  0
BLOCK_RECORD
  5
652B2
330
1
100
AcDbSymbolTableRecord
100
AcDbBlockTableRecord
  2
*D47
340
0
  0
BLOCK_RECORD
  5
652BE
330
1
100
AcDbSymbolTableRecord
100
AcDbBlockTableRecord
  2
*D48
340
0
  0
BLOCK_RECORD
  5
6974F
330
1
100
AcDbSymbolTableRecord
100
AcDbBlockTableRecord
  2
*D49
340
0
  0
BLOCK_RECORD
  5
69A4A
330
1
100
AcDbSymbolTableRecord
100
AcDbBlockTableRecord
  2
*D50
340
0
  0
ENDTAB
  0
ENDSEC
  0
SECTION
  2
BLOCKS
  0
BLOCK
  5
20
330
1F
100
AcDbEntity
  8
0
100
AcDbBlockBegin
  2
*Model_Space
 70
     0
 10
0.0
 20
0.0
 30
0.0
  3
*Model_Space
  1
*Model_Space
  0
ENDBLK
  5
21
330
1F
100
AcDbEntity
  8
0
100
AcDbBlockEnd
  0
BLOCK
  5
1C
330
1B
100
AcDbEntity
 67
     1
  8
0
100
AcDbBlockBegin
  2
*Paper_Space
 70
     0
 10
0.0
 20
0.0
 30
0.0
  3
*Paper_Space
  1
*Paper_Space
  0
ENDBLK
  5
1D
330
1B
100
AcDbEntity
 67
     1
  8
0
100
AcDbBlockEnd
  0
BLOCK
  5
24
330
23
100
AcDbEntity
  8
0
100
AcDbBlockBegin
  2
*Paper_Space0
 70
     0
 10
0.0
 20
0.0
 30
0.0
  3
*Paper_Space0
  1
*Paper_Space0
  0
ENDBLK
  5
25
330
23
100
AcDbEntity
  8
0
100
AcDbBlockEnd
  0
BLOCK
  5
5DD
330
5DC
100
AcDbEntity
  8
0
100
AcDbBlockBegin
  2
d
 70
     0
 10
0.0
 20
0.0
 30
0.0
  3
d
  1
d
  0
ARC
  5
5DF
330
5DC
100
AcDbEntity
  8
0
  6
Continuous
 62
     7
370
    15
100
AcDbCircle
 10
-1986.602297122907
 20
-967.8342031206582
 30
0.0
 40
0.5399998650001937
100
AcDbArc
 50
270.0
 51
314.9016075442051
  0
ARC
  5
5E0
330
5DC
100
AcDbEntity
  8
0
  6
Continuous
 62
     7
370
    15
100
AcDbCircle
 10
-1985.762218790267
 20
-967.5025262056182
 30
0.0
 40
0.1799999550000932
100
AcDbArc
 50
308.9673027154865
 51
44.90160754409428
  0
ARC
  5
5E1
330
5DC
100
AcDbEntity
  8
0
  6
Continuous
 62
     7
370
    15
100
AcDbCircle
 10
-1985.632485114671
 20
-966.8677162680823
 30
0.0
 40
0.3599999099998683
100
AcDbArc
 50
134.901607544235
 51
224.9016075441582
  0
ARC
  5
5E2
330
5DC
100
AcDbEntity
  8
0
  6
Continuous
 62
     7
370
    15
100
AcDbCircle
 10
-1984.357509374267
 20
-965.5971119860784
 30
0.0
 40
0.3599999100000999
100
AcDbArc
 50
44.90160754419663
 51
134.9016075442606
  0
LINE
  5
5E3
330
5DC
100
AcDbEntity
  8
0
  6
Continuous
 62
     7
370
    15
100
AcDbLine
 10
-1984.970768333471
 20
-964.7022039036584
 30
0.0
 11
-1984.970768333471
 21
-964.8822038586583
 31
0.0
  0
LINE
  5
5E4
330
5DC
100
AcDbEntity
  8
0
  6
Continuous
 62
     7
370
    15
100
AcDbLine
 10
-1986.809379408647
 20
-968.1942030306583
 30
0.0
 11
-1986.809379408647
 21
-968.3742029856584
 31
0.0
  0
LINE
  5
5E5
330
5DC
100
AcDbEntity
  8
0
  6
Continuous
 62
     7
370
    15
100
AcDbLine
 10
-1985.759982688679
 20
-966.9947766962864
 30
0.0
 11
-1985.505861832307
 21
-967.2497718443383
 31
0.0
  0
LINE
  5
5E6
330
5DC
100
AcDbEntity
  8
0
  6
Continuous
 62
     7
370
    15
100
AcDbLine
 10
-1983.975890943851
 20
-965.7250467059622
 30
0.0
 11
-1984.230011800223
 21
-965.4700515578744
 31
0.0
  0
ARC
  5
5E7
330
5DC
100
AcDbEntity
  8
0
  6
Continuous
 62
     7
370
    15
100
AcDbCircle
 10
-1991.951598414897
 20
-968.2662030126584
 30
0.0
 40
0.2879999280000084
100
AcDbArc
 50
180.0
 51
270.0
  0
ARC
  5
5E8
330
5DC
100
AcDbEntity
  8
0
  6
Continuous
 62
     7
370
    15
100
AcDbCircle
 10
-1986.602297122907
 20
-967.8342031206582
 30
0.0
 40
0.7199998200001027
100
AcDbArc
 50
270.0
 51
314.9016158242238
  0
LINE
  5
5E9
330
5DC
100
AcDbEntity
  8
0
  6
Continuous
 62
     7
370
    15
100
AcDbLine
 10
-1992.239598342898
 20
-968.2662030126584
 30
0.0
 11
-1992.239598342898
 21
-967.9782030846583
 31
0.0
  0
ARC
  5
5EA
330
5DC
100
AcDbEntity
  8
0
  6
Continuous
 62
     7
370
    15
100
AcDbCircle
 10
-1984.357509374267
 20
-965.5971119860784
 30
0.0
 40
0.1799999550000645
100
AcDbArc
 50
44.90160754427336
 51
134.901607544299
  0
ARC
  5
5EB
330
5DC
100
AcDbEntity
  8
0
  6
Continuous
 62
     7
370
    15
100
AcDbCircle
 10
-1985.632485114671
 20
-966.8677162680823
 30
0.0
 40
0.179999954999746
100
AcDbArc
 50
134.9016075441965
 51
224.9016075441965
  0
ARC
  5
5EC
330
5DC
100
AcDbEntity
  8
0
  6
Continuous
 62
     7
370
    15
100
AcDbCircle
 10
-1985.378364258263
 20
-967.1227114161703
 30
0.0
 40
0.1799999550000645
100
AcDbArc
 50
224.901607544171
 51
314.9016075440943
  0
ARC
  5
5ED
330
5DC
100
AcDbEntity
  8
0
  6
Continuous
 62
     7
370
    15
100
AcDbCircle
 10
-1984.103388517859
 20
-965.8521071341663
 30
0.0
 40
0.1799999549999777
100
AcDbArc
 50
314.9016075442222
 51
44.90160754414537
  0
LINE
  5
5EE
330
5DC
100
AcDbEntity
  8
0
  6
Continuous
 62
     7
370
    15
100
AcDbLine
 10
-1986.221115838331
 20
-968.2166958427543
 30
0.0
 11
-1985.649020996255
 21
-967.6424770656944
 31
0.0
  0
LINE
  5
5EF
330
5DC
100
AcDbEntity
  8
0
  6
Continuous
 62
     7
370
    15
100
AcDbLine
 10
-1985.886605971043
 20
-966.6127211199944
 30
0.0
 11
-1984.611630230675
 21
-965.3421168379903
 31
0.0
  0
ARC
  5
5F0
330
5DC
100
AcDbEntity
  8
0
  6
Continuous
 62
     7
370
    15
100
AcDbCircle
 10
-1984.001380110647
 20
-965.2422037686583
 30
0.0
 40
0.53999986500004
100
AcDbArc
 50
320.8359123731085
 51
90.0
  0
LINE
  5
5F1
330
5DC
100
AcDbEntity
  8
0
  6
Continuous
 62
     7
370
    15
100
AcDbLine
 10
-1984.001380110647
 20
-964.7022039036584
 30
0.0
 11
-1984.970768333471
 21
-964.7022039036584
 31
0.0
  0
LINE
  5
5F2
330
5DC
100
AcDbEntity
  8
0
  6
Continuous
 62
     7
370
    15
100
AcDbLine
 10
-1984.970768333471
 20
-964.8822038586583
 30
0.0
 11
-1987.889379138647
 21
-964.8822038586583
 31
0.0
  0
LINE
  5
5F3
330
5DC
100
AcDbEntity
  8
0
  6
Continuous
 62
     7
370
    15
100
AcDbLine
 10
-1987.889379138647
 20
-964.8822038586583
 30
0.0
 11
-1987.889379138647
 21
-968.1942030306583
 31
0.0
  0
LINE
  5
5F4
330
5DC
100
AcDbEntity
  8
0
  6
Continuous
 62
     7
370
    15
100
AcDbLine
 10
-1987.889379138647
 20
-968.1942030306583
 30
0.0
 11
-1986.809379408647
 21
-968.1942030306583
 31
0.0
  0
LINE
  5
5F5
330
5DC
100
AcDbEntity
  8
0
  6
Continuous
 62
     7
370
    15
100
AcDbLine
 10
-1983.492263355479
 20
-965.7513205238263
 30
0.0
 11
-1986.094055336399
 21
-968.3441933433584
 31
0.0
  0
LINE
  5
5F6
330
5DC
100
AcDbEntity
  8
0
  6
Continuous
 62
     7
370
    15
100
AcDbLine
 10
-1985.634721216223
 20
-967.3754657774143
 30
0.0
 11
-1985.887480262723
 21
-967.1218371244902
 31
0.0
  0
LINE
  5
5F7
330
5DC
100
AcDbEntity
  8
0
  6
Continuous
 62
     7
370
    15
100
AcDbLine
 10
-1984.102514226179
 20
-965.3429911296703
 30
0.0
 11
-1983.849755179679
 21
-965.5966197826303
 31
0.0
  0
LINE
  5
5F8
330
5DC
100
AcDbEntity
  8
0
  6
Continuous
 62
     7
370
    15
100
AcDbLine
 10
-1986.809379408647
 20
-968.3742029856584
 30
0.0
 11
-1986.602297122907
 21
-968.3742029856584
 31
0.0
  0
LINE
  5
5F9
330
5DC
100
AcDbEntity
  8
0
  6
Continuous
 62
     7
370
    15
100
AcDbLine
 10
-1984.484569802471
 20
-965.4696144120344
 30
0.0
 11
-1985.759545542839
 21
-966.7402186940382
 31
0.0
  0
LINE
  5
5FA
330
5DC
100
AcDbEntity
  8
0
  6
Continuous
 62
     7
370
    15
100
AcDbLine
 10
-1985.251303830059
 20
-967.2502089901783
 30
0.0
 11
-1983.976328089655
 21
-965.9796047082103
 31
0.0
  0
LINE
  5
5FB
330
5DC
100
AcDbEntity
  8
0
  6
Continuous
 62
     7
370
    15
100
AcDbLine
 10
-1992.239598342898
 20
-965.0982038046583
 30
0.0
 11
-1992.239598342898
 21
-964.8102038766582
 31
0.0
  0
ARC
  5
5FC
330
5DC
100
AcDbEntity
  8
0
  6
Continuous
 62
     7
370
    15
100
AcDbCircle
 10
-1984.001380110647
 20
-965.2422037686583
 30
0.0
 40
0.7199998200001027
100
AcDbArc
 50
315.0000000000064
 51
90.0
  0
ARC
  5
5FD
330
5DC
100
AcDbEntity
  8
0
  6
Continuous
 62
     7
370
    15
100
AcDbCircle
 10
-1991.951598414897
 20
-964.8102038766582
 30
0.0
 40
0.2879999280001721
100
AcDbArc
 50
90.0
 51
180.0
  0
LINE
  5
5FE
330
5DC
100
AcDbEntity
  8
0
  6
Continuous
 62
     7
370
    15
100
AcDbLine
 10
-1991.951598414897
 20
-964.5222039486584
 30
0.0
 11
-1984.001380110647
 21
-964.5222039486584
 31
0.0
  0
LINE
  5
5FF
330
5DC
100
AcDbEntity
  8
0
  6
Continuous
 62
     7
370
    15
100
AcDbLine
 10
-1991.951598414897
 20
-968.5542029406583
 30
0.0
 11
-1986.602297122907
 21
-968.5542029406583
 31
0.0
  0
ENDBLK
  5
5DE
330
5DC
100
AcDbEntity
  8
0
100
AcDbBlockEnd
  0
BLOCK
  5
17C6
330
177F
100
AcDbEntity
  8
0
100
AcDbBlockBegin
  2
oz2168
 70
     0
 10
0.0
 20
0.0
 30
0.0
  3
oz2168
  1
oz2168
  0
LINE
  5
179A
330
177F
100
AcDbEntity
  8
0
  6
Continuous
 62
     7
370
    15
100
AcDbLine
 10
3.100000000000364
 20
-15.5
 30
0.0
 11
4.100000000000364
 21
-13.76794919240001
 31
0.0
  0
LINE
  5
179B
330
177F
100
AcDbEntity
  8
0
  6
Continuous
 62
     7
370
    15
100
AcDbLine
 10
-4.099999999999909
 20
-13.76794919240001
 30
0.0
 11
-3.099999999999909
 21
-15.5
 31
0.0
  0
LINE
  5
179C
330
177F
100
AcDbEntity
  8
0
  6
Continuous
 62
     7
370
    15
100
AcDbLine
 10
5.400000000000091
 20
7.5
 30
0.0
 11
5.400000000000091
 21
9.0
 31
0.0
  0
LINE
  5
179D
330
177F
100
AcDbEntity
  8
0
  6
Continuous
 62
     7
370
    15
100
AcDbLine
 10
-5.399999999999636
 20
9.0
 30
0.0
 11
-5.399999999999636
 21
7.5
 31
0.0
  0
LINE
  5
179E
330
177F
100
AcDbEntity
  8
0
  6
Continuous
 62
     7
370
    15
100
AcDbLine
 10
4.100000000000364
 20
-13.76794919240001
 30
0.0
 11
4.100000000000364
 21
7.5
 31
0.0
  0
LINE
  5
179F
330
177F
100
AcDbEntity
  8
0
  6
Continuous
 62
     7
370
    15
100
AcDbLine
 10
0.0
 20
-15.5
 30
0.0
 11
3.100000000000364
 21
-15.5
 31
0.0
  0
LINE
  5
17A0
330
177F
100
AcDbEntity
  8
0
  6
Continuous
 62
     7
370
    15
100
AcDbLine
 10
4.100000000000364
 20
7.5
 30
0.0
 11
5.400000000000091
 21
7.5
 31
0.0
  0
LINE
  5
17A1
330
177F
100
AcDbEntity
  8
0
  6
Continuous
 62
     7
370
    15
100
AcDbLine
 10
-4.099999999999909
 20
7.5
 30
0.0
 11
-4.099999999999909
 21
-13.76794919240001
 31
0.0
  0
LINE
  5
17A2
330
177F
100
AcDbEntity
  8
0
  6
Continuous
 62
     7
370
    15
100
AcDbLine
 10
-3.099999999999909
 20
-15.5
 30
0.0
 11
0.0
 21
-15.5
 31
0.0
  0
LINE
  5
17A3
330
177F
100
AcDbEntity
  8
0
  6
Continuous
 62
     7
370
    15
100
AcDbLine
 10
-5.399999999999636
 20
7.5
 30
0.0
 11
-4.099999999999909
 21
7.5
 31
0.0
  0
LINE
  5
17A4
330
177F
100
AcDbEntity
  8
0
  6
Continuous
 62
     7
370
    15
100
AcDbLine
 10
11.0
 20
1.767949192500055
 30
0.0
 11
11.0
 21
0.0
 31
0.0
  0
LINE
  5
17A5
330
177F
100
AcDbEntity
  8
0
  6
Continuous
 62
     7
370
    15
100
AcDbLine
 10
-11.0
 20
0.0
 30
0.0
 11
-11.0
 21
1.767949192500055
 31
0.0
  0
LINE
  5
17A6
330
177F
100
AcDbEntity
  8
0
  6
Continuous
 62
     7
370
    15
100
AcDbLine
 10
11.0
 20
1.767949192500055
 30
0.0
 11
10.0
 21
3.5
 31
0.0
  0
LINE
  5
17A7
330
177F
100
AcDbEntity
  8
0
  6
Continuous
 62
     7
370
    15
100
AcDbLine
 10
-10.0
 20
3.5
 30
0.0
 11
-11.0
 21
1.767949192500055
 31
0.0
  0
LINE
  5
17A8
330
177F
100
AcDbEntity
  8
0
  6
Continuous
 62
     7
370
    15
100
AcDbLine
 10
10.5
 20
0.0
 30
0.0
 11
10.5
 21
0.2000000000007276
 31
0.0
  0
LINE
  5
17A9
330
177F
100
AcDbEntity
  8
0
  6
Continuous
 62
     7
370
    15
100
AcDbLine
 10
-10.5
 20
0.2000000000007276
 30
0.0
 11
-10.5
 21
0.0
 31
0.0
  0
LINE
  5
17AA
330
177F
100
AcDbEntity
  8
0
  6
Continuous
 62
     7
370
    15
100
AcDbLine
 10
-10.5
 20
0.0
 30
0.0
 11
-4.099999999999909
 21
0.0
 31
0.0
  0
LINE
  5
17AB
330
177F
100
AcDbEntity
  8
0
  6
Continuous
 62
     7
370
    15
100
AcDbLine
 10
4.100000000000364
 20
0.0
 30
0.0
 11
10.5
 21
0.0
 31
0.0
  0
LINE
  5
17AC
330
177F
100
AcDbEntity
  8
0
  6
Continuous
 62
     7
370
    15
100
AcDbLine
 10
5.5
 20
7.200000000000728
 30
0.0
 11
5.5
 21
3.5
 31
0.0
  0
LINE
  5
17AD
330
177F
100
AcDbEntity
  8
0
  6
Continuous
 62
     7
370
    15
100
AcDbLine
 10
-5.5
 20
3.5
 30
0.0
 11
-5.5
 21
7.200000000000728
 31
0.0
  0
LINE
  5
17AE
330
177F
100
AcDbEntity
  8
0
  6
Continuous
 62
     7
370
    15
100
AcDbLine
 10
5.5
 20
7.200000000000728
 30
0.0
 11
5.200000000000273
 21
7.5
 31
0.0
  0
LINE
  5
17AF
330
177F
100
AcDbEntity
  8
0
  6
Continuous
 62
     7
370
    15
100
AcDbLine
 10
-5.199999999999818
 20
7.5
 30
0.0
 11
-5.5
 21
7.200000000000728
 31
0.0
  0
ARC
  5
17B0
330
177F
100
AcDbEntity
  8
0
  6
Continuous
 62
     7
370
    15
100
AcDbCircle
 10
4.425000000000182
 20
7.200000000000728
 30
0.0
 40
0.2999999999999972
100
AcDbArc
 50
90.0
 51
180.0
  0
ARC
  5
17B1
330
177F
100
AcDbEntity
  8
0
  6
Continuous
 62
     7
370
    15
100
AcDbCircle
 10
-4.424999999999727
 20
7.200000000000728
 30
0.0
 40
0.3000000000000043
100
AcDbArc
 50
0.0
 51
90.0
  0
LINE
  5
17B2
330
177F
100
AcDbEntity
  8
0
  6
Continuous
 62
     7
370
    15
100
AcDbLine
 10
4.125
 20
0.2000000000007276
 30
0.0
 11
4.125
 21
7.200000000000728
 31
0.0
  0
LINE
  5
17B3
330
177F
100
AcDbEntity
  8
0
  6
Continuous
 62
     7
370
    15
100
AcDbLine
 10
-4.125
 20
7.200000000000728
 30
0.0
 11
-4.125
 21
0.2000000000007276
 31
0.0
  0
LINE
  5
17B4
330
177F
100
AcDbEntity
  8
0
  6
Continuous
 62
     7
370
    15
100
AcDbLine
 10
-4.125
 20
0.2000000000007276
 30
0.0
 11
-4.099999999999909
 21
0.2000000000007276
 31
0.0
  0
LINE
  5
17B5
330
177F
100
AcDbEntity
  8
0
  6
Continuous
 62
     7
370
    15
100
AcDbLine
 10
4.100000000000364
 20
0.2000000000007276
 30
0.0
 11
4.125
 21
0.2000000000007276
 31
0.0
  0
LINE
  5
17B6
330
177F
100
AcDbEntity
  8
0
  6
Continuous
 62
     7
370
    15
100
AcDbLine
 10
-5.199999999999818
 20
7.5
 30
0.0
 11
-4.424999999999727
 21
7.5
 31
0.0
  0
LINE
  5
17B7
330
177F
100
AcDbEntity
  8
0
  6
Continuous
 62
     7
370
    15
100
AcDbLine
 10
-10.0
 20
3.5
 30
0.0
 11
-5.5
 21
3.5
 31
0.0
  0
LINE
  5
17B8
330
177F
100
AcDbEntity
  8
0
  6
Continuous
 62
     7
370
    15
100
AcDbLine
 10
-4.125
 20
0.2000000000007276
 30
0.0
 11
-10.5
 21
0.2000000000007276
 31
0.0
  0
LINE
  5
17B9
330
177F
100
AcDbEntity
  8
0
  6
Continuous
 62
     7
370
    15
100
AcDbLine
 10
-10.5
 20
0.0
 30
0.0
 11
-11.0
 21
0.0
 31
0.0
  0
LINE
  5
17BA
330
177F
100
AcDbEntity
  8
0
  6
Continuous
 62
     7
370
    15
100
AcDbLine
 10
4.425000000000182
 20
7.5
 30
0.0
 11
5.200000000000273
 21
7.5
 31
0.0
  0
LINE
  5
17BB
330
177F
100
AcDbEntity
  8
0
  6
Continuous
 62
     7
370
    15
100
AcDbLine
 10
5.5
 20
3.5
 30
0.0
 11
10.0
 21
3.5
 31
0.0
  0
LINE
  5
17BC
330
177F
100
AcDbEntity
  8
0
  6
Continuous
 62
     7
370
    15
100
AcDbLine
 10
10.5
 20
0.2000000000007276
 30
0.0
 11
4.125
 21
0.2000000000007276
 31
0.0
  0
LINE
  5
17BD
330
177F
100
AcDbEntity
  8
0
  6
Continuous
 62
     7
370
    15
100
AcDbLine
 10
11.0
 20
0.0
 30
0.0
 11
10.5
 21
0.0
 31
0.0
  0
LINE
  5
17BE
330
177F
100
AcDbEntity
  8
0
  6
Continuous
 62
     8
370
     0
100
AcDbLine
 10
4.125
 20
7.200000000000728
 30
0.0
 11
4.100000000000364
 21
7.200000000000728
 31
0.0
  0
LINE
  5
17BF
330
177F
100
AcDbEntity
  8
0
  6
Continuous
 62
     8
370
     0
100
AcDbLine
 10
-4.099999999999909
 20
7.200000000000728
 30
0.0
 11
-4.125
 21
7.200000000000728
 31
0.0
  0
HATCH
  5
17C0
330
177F
100
AcDbEntity
  8
0
  6
Continuous
 62
     7
370
     0
100
AcDbHatch
 10
0.0
 20
0.0
 30
0.0
210
0.0
220
0.0
230
1.0
  2
LINE
 70
     0
 71
     0
 91
        1
 92
        0
 93
       11
 72
     1
 10
10.49999999999272
 20
0.0000000000336513
 11
10.99999999999272
 21
0.0000000000336513
 72
     1
 10
10.99999999999272
 20
0.0000000000336513
 11
10.99999999999272
 21
1.767949192464584
 72
     1
 10
10.99999999999272
 20
1.767949192464584
 11
9.999999999992724
 21
3.500000000033651
 72
     1
 10
9.999999999992724
 20
3.500000000033651
 11
5.499999999992724
 21
3.500000000033651
 72
     1
 10
5.499999999992724
 20
3.500000000033651
 11
5.499999999992724
 21
7.200000000033469
 72
     1
 10
5.499999999992724
 20
7.200000000033469
 11
5.199999999992542
 21
7.500000000033651
 72
     1
 10
5.199999999992542
 20
7.500000000033651
 11
4.424999999992451
 21
7.500000000033651
 72
     2
 10
4.424999999992451
 20
7.200000000033469
 40
0.3
 50
90.0
 51
180.0
 73
     1
 72
     1
 10
4.124999999992724
 20
7.200000000033469
 11
4.124999999992724
 21
0.2000000000334694
 72
     1
 10
4.124999999992724
 20
0.2000000000334694
 11
10.49999999999272
 21
0.2000000000334694
 72
     1
 10
10.49999999999272
 20
0.2000000000334694
 11
10.49999999999272
 21
0.0000000000336513
 97
        0
 75
     0
 76
     1
 52
45.0
 41
0.5
 77
     0
 78
     1
 53
45.00000000000011
 43
-55.21869230769971
 44
-125.4285613032998
 45
-1.122532015133646
 46
1.122532015133642
 79
     0
 98
        1
 10
-55.21869230769971
 20
-125.4285613032998
  0
HATCH
  5
17C1
330
177F
100
AcDbEntity
  8
0
  6
Continuous
 62
     7
370
     0
100
AcDbHatch
 10
0.0
 20
0.0
 30
0.0
210
0.0
220
0.0
230
1.0
  2
LINE
 70
     0
 71
     0
 91
        1
 92
        0
 93
       11
 72
     1
 10
-11.00000000000728
 20
0.0000000000336513
 11
-10.50000000000728
 21
0.0000000000336513
 72
     1
 10
-10.50000000000728
 20
0.0000000000336513
 11
-10.50000000000728
 21
0.2000000000334694
 72
     1
 10
-10.50000000000728
 20
0.2000000000334694
 11
-4.125000000007276
 21
0.2000000000334694
 72
     1
 10
-4.125000000007276
 20
0.2000000000334694
 11
-4.125000000007276
 21
7.200000000033469
 72
     2
 10
-4.425000000007458
 20
7.200000000033469
 40
0.3
 50
0.0
 51
90.0
 73
     1
 72
     1
 10
-4.425000000007458
 20
7.500000000033651
 11
-5.200000000007549
 21
7.500000000033651
 72
     1
 10
-5.200000000007549
 20
7.500000000033651
 11
-5.500000000007731
 21
7.200000000033469
 72
     1
 10
-5.500000000007276
 20
7.200000000033469
 11
-5.500000000007276
 21
3.500000000033651
 72
     1
 10
-5.500000000007276
 20
3.500000000033651
 11
-10.00000000000728
 21
3.500000000033651
 72
     1
 10
-10.00000000000728
 20
3.500000000033651
 11
-11.00000000000728
 21
1.767949192464584
 72
     1
 10
-11.00000000000728
 20
1.767949192464584
 11
-11.00000000000728
 21
0.0000000000336513
 97
        0
 75
     0
 76
     1
 52
45.0
 41
0.5
 77
     0
 78
     1
 53
45.00000000000011
 43
-55.21869230769971
 44
-125.4285613032998
 45
-1.122532015133646
 46
1.122532015133642
 79
     0
 98
        1
 10
-55.21869230769971
 20
-125.4285613032998
  0
LINE
  5
17C2
330
177F
100
AcDbEntity
  8
0
  6
Continuous
 62
     7
370
    15
100
AcDbLine
 10
4.900000000000091
 20
9.5
 30
0.0
 11
0.0
 21
9.5
 31
0.0
  0
ARC
  5
17C3
330
177F
100
AcDbEntity
  8
0
  6
Continuous
 62
     7
370
    15
100
AcDbCircle
 10
4.900000000000091
 20
9.0
 30
0.0
 40
0.5
100
AcDbArc
 50
0.0
 51
90.0
  0
ARC
  5
17C4
330
177F
100
AcDbEntity
  8
0
  6
Continuous
 62
     7
370
    15
100
AcDbCircle
 10
-4.899999999999636
 20
9.0
 30
0.0
 40
0.5
100
AcDbArc
 50
90.0
 51
180.0
  0
LINE
  5
17C5
330
177F
100
AcDbEntity
  8
0
  6
Continuous
 62
     7
370
    15
100
AcDbLine
 10
0.0
 20
9.5
 30
0.0
 11
-4.899999999999636
 21
9.5
 31
0.0
  0
ENDBLK
  5
17C7
330
177F
100
AcDbEntity
  8
0
100
AcDbBlockEnd
  0
BLOCK
  5
226F
330
226E
100
AcDbEntity
  8
0
100
AcDbBlockBegin
  2
A$C604C3652
 70
     0
 10
0.0
 20
0.0
 30
0.0
  3
A$C604C3652
  1
A$C604C3652
  0
LINE
  5
2270
330
226E
100
AcDbEntity
  8
0
 62
     4
370
     0
100
AcDbLine
 10
-133.4219088087848
 20
54.64799999944807
 30
0.0
 11
-133.4219088115278
 21
0.0000018238133634
 31
0.0
  0
LINE
  5
2271
330
226E
100
AcDbEntity
  8
0
 62
     4
370
     0
100
AcDbLine
 10
-205.3780798385924
 20
54.64799999944807
 30
0.0
 11
-205.3780798358493
 21
0.0000018238133634
 31
0.0
  0
ENDBLK
  5
2272
330
226E
100
AcDbEntity
  8
0
100
AcDbBlockEnd
  0
BLOCK
  5
ABA1
330
ABA0
100
AcDbEntity
  8
0
100
AcDbBlockBegin
  2
asddwdasasasdasd
 70
     0
 10
0.0
 20
0.0
 30
0.0
  3
asddwdasasasdasd
  1
asddwdasasasdasd
  4
adasdasdasdsadadasdasdasd
  0
LINE
  5
ABA3
330
ABA0
100
AcDbEntity
  8
0
  6
Continuous
 62
     7
370
    15
100
AcDbLine
 10
1.060000000000173
 20
0.0
 30
0.0
 11
2.400000000000091
 21
0.0
 31
0.0
  0
LINE
  5
ABA4
330
ABA0
100
AcDbEntity
  8
0
  6
Continuous
 62
     7
370
    15
100
AcDbLine
 10
2.400000000000091
 20
4.0
 30
0.0
 11
2.080000000000155
 21
4.0
 31
0.0
  0
LINE
  5
ABA5
330
ABA0
100
AcDbEntity
  8
0
  6
Continuous
 62
     7
370
    15
100
AcDbLine
 10
-2.399999999999864
 20
0.0
 30
0.0
 11
-1.059999999999945
 21
0.0
 31
0.0
  0
LINE
  5
ABA6
330
ABA0
100
AcDbEntity
  8
0
  6
Continuous
 62
     7
370
    15
100
AcDbLine
 10
-2.079999999999927
 20
4.0
 30
0.0
 11
-2.399999999999864
 21
4.0
 31
0.0
  0
LINE
  5
ABA7
330
ABA0
100
AcDbEntity
  8
0
  6
Continuous
 62
     7
370
    15
100
AcDbLine
 10
1.0
 20
0.0
 30
0.0
 11
1.060000000000173
 21
0.0
 31
0.0
  0
LINE
  5
ABA8
330
ABA0
100
AcDbEntity
  8
0
  6
Continuous
 62
     7
370
    15
100
AcDbLine
 10
-1.059999999999945
 20
0.0
 30
0.0
 11
-1.0
 21
0.0
 31
0.0
  0
LINE
  5
ABA9
330
ABA0
100
AcDbEntity
  8
0
  6
Continuous
 62
     7
370
    15
100
AcDbLine
 10
-1.059999999999945
 20
0.0
 30
0.0
 11
-1.059999999999945
 21
2.980000000000018
 31
0.0
  0
LINE
  5
ABAA
330
ABA0
100
AcDbEntity
  8
0
  6
Continuous
 62
     7
370
    15
100
AcDbLine
 10
1.060000000000173
 20
2.980000000000018
 30
0.0
 11
1.060000000000173
 21
0.0
 31
0.0
  0
LINE
  5
ABAB
330
ABA0
100
AcDbEntity
  8
0
  6
Continuous
 62
     7
370
    15
100
AcDbLine
 10
2.0
 20
4.0
 30
0.0
 11
2.080000000000155
 21
4.0
 31
0.0
  0
LINE
  5
ABAC
330
ABA0
100
AcDbEntity
  8
0
  6
Continuous
 62
     7
370
    15
100
AcDbLine
 10
-2.079999999999927
 20
4.0
 30
0.0
 11
-2.0
 21
4.0
 31
0.0
  0
LINE
  5
ABAD
330
ABA0
100
AcDbEntity
  8
0
  6
Continuous
 62
     7
370
    15
100
AcDbLine
 10
-1.059999999999945
 20
2.980000000000018
 30
0.0
 11
-2.079999999999927
 21
4.0
 31
0.0
  0
LINE
  5
ABAE
330
ABA0
100
AcDbEntity
  8
0
  6
Continuous
 62
     7
370
    15
100
AcDbLine
 10
2.080000000000155
 20
4.0
 30
0.0
 11
1.060000000000173
 21
2.980000000000018
 31
0.0
  0
LINE
  5
ABAF
330
ABA0
100
AcDbEntity
  8
0
  6
Continuous
 62
     7
370
    15
100
AcDbLine
 10
-2.399999999999864
 20
4.0
 30
0.0
 11
-2.399999999999864
 21
0.0
 31
0.0
  0
LINE
  5
ABB0
330
ABA0
100
AcDbEntity
  8
0
  6
Continuous
 62
     7
370
    15
100
AcDbLine
 10
2.400000000000091
 20
0.0
 30
0.0
 11
2.400000000000091
 21
4.0
 31
0.0
  0
LINE
  5
ABB1
330
ABA0
100
AcDbEntity
  8
0
  6
Continuous
 62
     7
370
    15
100
AcDbLine
 10
-0.3464101615199979
 20
4.039999999999964
 30
0.0
 11
0.3464101615199979
 21
4.039999999999964
 31
0.0
  0
LINE
  5
ABB2
330
ABA0
100
AcDbEntity
  8
0
  6
Continuous
 62
     7
370
    15
100
AcDbLine
 10
-0.6928203230399959
 20
4.039999999999964
 30
0.0
 11
-2.0
 21
4.039999999999964
 31
0.0
  0
LINE
  5
ABB3
330
ABA0
100
AcDbEntity
  8
0
  6
Continuous
 62
     7
370
    15
100
AcDbLine
 10
0.0
 20
2.920000000000073
 30
0.0
 11
-0.6928203230399959
 21
2.920000000000073
 31
0.0
  0
LINE
  5
ABB4
330
ABA0
100
AcDbEntity
  8
0
  6
Continuous
 62
     7
370
    15
100
AcDbLine
 10
-1.0
 20
-5.660000000000082
 30
0.0
 11
-1.0
 21
2.920000000000073
 31
0.0
  0
LINE
  5
ABB5
330
ABA0
100
AcDbEntity
  8
0
  6
Continuous
 62
     7
370
    15
100
AcDbLine
 10
-0.6999999999998181
 20
-5.960000000000036
 30
0.0
 11
-1.0
 21
-5.660000000000082
 31
0.0
  0
LINE
  5
ABB6
330
ABA0
100
AcDbEntity
  8
0
  6
Continuous
 62
     7
370
    15
100
AcDbLine
 10
-0.6999999999998181
 20
-5.960000000000036
 30
0.0
 11
0.0
 21
-5.960000000000036
 31
0.0
  0
LINE
  5
ABB7
330
ABA0
100
AcDbEntity
  8
0
  6
Continuous
 62
     7
370
    15
100
AcDbLine
 10
-1.0
 20
2.920000000000073
 30
0.0
 11
-1.999999999959982
 21
3.919999999960055
 31
0.0
  0
LINE
  5
ABB8
330
ABA0
100
AcDbEntity
  8
0
  6
Continuous
 62
     7
370
    15
100
AcDbLine
 10
-1.999999999959982
 20
3.919999999960055
 30
0.0
 11
-2.0
 21
4.039999999999964
 31
0.0
  0
LINE
  5
ABB9
330
ABA0
100
AcDbEntity
  8
0
  6
Continuous
 62
     7
370
    15
100
AcDbLine
 10
2.0
 20
4.039999999999964
 30
0.0
 11
0.6928203230399959
 21
4.039999999999964
 31
0.0
  0
LINE
  5
ABBA
330
ABA0
100
AcDbEntity
  8
0
  6
Continuous
 62
     7
370
    15
100
AcDbLine
 10
0.6928203230399959
 20
2.920000000000073
 30
0.0
 11
0.0
 21
2.920000000000073
 31
0.0
  0
LINE
  5
ABBB
330
ABA0
100
AcDbEntity
  8
0
  6
Continuous
 62
     7
370
    15
100
AcDbLine
 10
0.0
 20
-5.960000000000036
 30
0.0
 11
0.7000000000000455
 21
-5.960000000000036
 31
0.0
  0
LINE
  5
ABBC
330
ABA0
100
AcDbEntity
  8
0
  6
Continuous
 62
     7
370
    15
100
AcDbLine
 10
1.0
 20
-5.660000000000082
 30
0.0
 11
0.7000000000000455
 21
-5.960000000000036
 31
0.0
  0
LINE
  5
ABBD
330
ABA0
100
AcDbEntity
  8
0
  6
Continuous
 62
     7
370
    15
100
AcDbLine
 10
1.0
 20
2.920000000000073
 30
0.0
 11
1.0
 21
-5.660000000000082
 31
0.0
  0
LINE
  5
ABBE
330
ABA0
100
AcDbEntity
  8
0
  6
Continuous
 62
     7
370
    15
100
AcDbLine
 10
1.999999999959982
 20
3.919999999960055
 30
0.0
 11
1.0
 21
2.920000000000073
 31
0.0
  0
LINE
  5
ABBF
330
ABA0
100
AcDbEntity
  8
0
  6
Continuous
 62
     7
370
    15
100
AcDbLine
 10
2.0
 20
4.039999999999964
 30
0.0
 11
1.999999999959982
 21
3.919999999960055
 31
0.0
  0
LINE
  5
ABC0
330
ABA0
100
AcDbEntity
  8
0
  6
Continuous
 62
     7
370
    15
100
AcDbLine
 10
-0.6928203230399959
 20
4.039999999999964
 30
0.0
 11
-0.3464101615199979
 21
4.039999999999964
 31
0.0
  0
LINE
  5
ABC1
330
ABA0
100
AcDbEntity
  8
0
  6
Continuous
 62
     7
370
    15
100
AcDbLine
 10
-0.3464101615199979
 20
2.920000000000073
 30
0.0
 11
-0.3464101615199979
 21
4.039999999999964
 31
0.0
  0
LINE
  5
ABC2
330
ABA0
100
AcDbEntity
  8
0
  6
Continuous
 62
     7
370
    15
100
AcDbLine
 10
-0.6928203230399959
 20
2.920000000000073
 30
0.0
 11
-0.6928203230399959
 21
4.039999999999964
 31
0.0
  0
LINE
  5
ABC3
330
ABA0
100
AcDbEntity
  8
0
  6
Continuous
 62
     7
370
    15
100
AcDbLine
 10
0.6928203230399959
 20
4.039999999999964
 30
0.0
 11
0.3464101615199979
 21
4.039999999999964
 31
0.0
  0
LINE
  5
ABC4
330
ABA0
100
AcDbEntity
  8
0
  6
Continuous
 62
     7
370
    15
100
AcDbLine
 10
0.6928203230399959
 20
4.039999999999964
 30
0.0
 11
0.6928203230399959
 21
2.920000000000073
 31
0.0
  0
LINE
  5
ABC5
330
ABA0
100
AcDbEntity
  8
0
  6
Continuous
 62
     7
370
    15
100
AcDbLine
 10
0.3464101615199979
 20
2.920000000000073
 30
0.0
 11
0.3464101615199979
 21
4.039999999999964
 31
0.0
  0
ENDBLK
  5
ABA2
330
ABA0
100
AcDbEntity
  8
0
100
AcDbBlockEnd
  0
BLOCK
  5
BC84
330
BC83
100
AcDbEntity
  8
0
100
AcDbBlockBegin
  2
SW_CENTERMARKSYMBOL_0
 70
     0
 10
0.0
 20
0.0
 30
0.0
  3
SW_CENTERMARKSYMBOL_0
  1
SW_CENTERMARKSYMBOL_0
  0
LINE
  5
BC85
330
BC83
100
AcDbEntity
  8
0
  6
Continuous
 62
     0
370
     0
100
AcDbLine
 10
0.0
 20
0.0
 30
0.0
 11
-2.5
 21
0.0
 31
0.0
  0
LINE
  5
BC86
330
BC83
100
AcDbEntity
  8
0
  6
Continuous
 62
     0
370
     0
100
AcDbLine
 10
0.0
 20
0.0
 30
0.0
 11
0.0
 21
-2.5
 31
0.0
  0
LINE
  5
BC87
330
BC83
100
AcDbEntity
  8
0
  6
Continuous
 62
     0
370
     0
100
AcDbLine
 10
0.0
 20
0.0
 30
0.0
 11
2.5
 21
0.0
 31
0.0
  0
LINE
  5
BC88
330
BC83
100
AcDbEntity
  8
0
  6
Continuous
 62
     0
370
     0
100
AcDbLine
 10
0.0
 20
0.0
 30
0.0
 11
0.0
 21
2.5
 31
0.0
  0
LINE
  5
BC89
330
BC83
100
AcDbEntity
  8
0
  6
Continuous
 62
     0
370
     0
100
AcDbLine
 10
-2.5
 20
0.0
 30
0.0
 11
-4.6
 21
0.0
 31
0.0
  0
LINE
  5
BC8A
330
BC83
100
AcDbEntity
  8
0
  6
Continuous
 62
     0
370
     0
100
AcDbLine
 10
0.0
 20
-2.5
 30
0.0
 11
0.0
 21
-4.6
 31
0.0
  0
LINE
  5
BC8B
330
BC83
100
AcDbEntity
  8
0
  6
Continuous
 62
     0
370
     0
100
AcDbLine
 10
2.5
 20
0.0
 30
0.0
 11
4.6
 21
0.0
 31
0.0
  0
LINE
  5
BC8C
330
BC83
100
AcDbEntity
  8
0
  6
Continuous
 62
     0
370
     0
100
AcDbLine
 10
0.0
 20
2.5
 30
0.0
 11
0.0
 21
4.6
 31
0.0
  0
ENDBLK
  5
BC8D
330
BC83
100
AcDbEntity
  8
0
100
AcDbBlockEnd
  0
BLOCK
  5
D009
330
D008
100
AcDbEntity
  8
0
100
AcDbBlockBegin
  2
_D
 70
     0
 10
0.0
 20
0.0
 30
0.0
  3
_D
  1
_D
  0
LINE
  5
D00A
330
D008
100
AcDbEntity
  8
0
  6
Continuous
 62
     0
370
    -2
100
AcDbLine
 10
114.0211532807974
 20
119.9299855251608
 30
0.0
 11
114.0211532807974
 21
128.2481101435839
 31
0.0
  0
LINE
  5
D00B
330
D008
100
AcDbEntity
  8
0
  6
Continuous
 62
     0
370
    -2
100
AcDbLine
 10
118.0211532807974
 20
119.9299855251608
 30
0.0
 11
118.0211532807974
 21
128.2481101435839
 31
0.0
  0
LINE
  5
D00C
330
D008
100
AcDbEntity
  8
0
  6
Continuous
 62
     0
370
    -2
100
AcDbLine
 10
118.0211532807974
 20
128.2481101435839
 30
0.0
 11
179.1244445883366
 21
128.2481101435839
 31
0.0
  0
LINE
  5
D00D
330
D008
100
AcDbEntity
  8
0
  6
Continuous
 62
     0
370
    -2
100
AcDbLine
 10
114.0211532807974
 20
128.2481101435839
 30
0.0
 11
118.0211532807974
 21
128.2481101435839
 31
0.0
  0
LINE
  5
D00E
330
D008
100
AcDbEntity
  8
0
  6
Continuous
 62
     0
370
    -2
100
AcDbLine
 10
110.8211532807974
 20
128.2481101435839
 30
0.0
 11
107.6211532807974
 21
128.2481101435839
 31
0.0
  0
LINE
  5
D00F
330
D008
100
AcDbEntity
  8
0
  6
Continuous
 62
     0
370
    -2
100
AcDbLine
 10
121.2211532807974
 20
128.2481101435839
 30
0.0
 11
124.4211532807974
 21
128.2481101435839
 31
0.0
  0
SOLID
  5
D010
330
D008
100
AcDbEntity
  8
0
 62
     0
100
AcDbTrace
 10
110.8211532807974
 20
127.7147768102506
 30
0.0
 11
110.8211532807974
 21
128.7814434769172
 31
0.0
 12
114.0211532807974
 22
128.2481101435839
 32
0.0
 13
114.0211532807974
 23
128.2481101435839
 33
0.0
  0
SOLID
  5
D011
330
D008
100
AcDbEntity
  8
0
 62
     0
100
AcDbTrace
 10
121.2211532807974
 20
128.7814434769172
 30
0.0
 11
121.2211532807974
 21
127.7147768102506
 31
0.0
 12
118.0211532807974
 22
128.2481101435839
 32
0.0
 13
118.0211532807974
 23
128.2481101435839
 33
0.0
  0
MTEXT
  5
D012
330
D008
100
AcDbEntity
  8
0
  6
HIDDEN
 62
     0
370
     0
100
AcDbMText
 10
154.1244445883366
 20
132.2481101435839
 30
0.0
 40
3.2
 41
0.0
 71
     2
 72
     1
  1
\A1;%%c4x90° - N°3 Ciecature
  7
SLDTEXTSTYLE4
 73
     1
 44
1.0
  0
POINT
  5
D013
330
D008
100
AcDbEntity
  8
Defpoints
 62
     0
100
AcDbPoint
 10
114.0211532807974
 20
119.8674855251608
 30
0.0
  0
POINT
  5
D202
330
D008
100
AcDbEntity
  8
Defpoints
 62
     0
100
AcDbPoint
 10
118.0211532807974
 20
119.8674855251608
 30
0.0
  0
POINT
  5
D203
330
D008
100
AcDbEntity
  8
Defpoints
 62
     0
100
AcDbPoint
 10
118.0211532807974
 20
128.2481101435839
 30
0.0
  0
ENDBLK
  5
D014
330
D008
100
AcDbEntity
  8
0
100
AcDbBlockEnd
  0
BLOCK
  5
D017
330
D016
100
AcDbEntity
  8
0
100
AcDbBlockBegin
  2
_D_1
 70
     0
 10
0.0
 20
0.0
 30
0.0
  3
_D_1
  1
_D_1
  0
LINE
  5
D018
330
D016
100
AcDbEntity
  8
0
  6
Continuous
 62
     0
370
    -2
100
AcDbLine
 10
107.0836532807974
 20
133.6774855251608
 30
0.0
 11
116.7342297595509
 21
133.6774855251608
 31
0.0
  0
LINE
  5
D019
330
D016
100
AcDbEntity
  8
0
  6
Continuous
 62
     0
370
    -2
100
AcDbLine
 10
107.0836532807974
 20
144.0774855251608
 30
0.0
 11
116.7342297595509
 21
144.0774855251609
 31
0.0
  0
LINE
  5
D01A
330
D016
100
AcDbEntity
  8
0
  6
Continuous
 62
     0
370
    -2
100
AcDbLine
 10
116.7342297595509
 20
136.8774855251608
 30
0.0
 11
116.7342297595509
 21
140.8774855251609
 31
0.0
  0
SOLID
  5
D01B
330
D016
100
AcDbEntity
  8
0
 62
     0
100
AcDbTrace
 10
116.2008964262176
 20
136.8774855251608
 30
0.0
 11
117.2675630928843
 21
136.8774855251608
 31
0.0
 12
116.7342297595509
 22
133.6774855251608
 32
0.0
 13
116.7342297595509
 23
133.6774855251608
 33
0.0
  0
SOLID
  5
D01C
330
D016
100
AcDbEntity
  8
0
 62
     0
100
AcDbTrace
 10
117.2675630928842
 20
140.8774855251609
 30
0.0
 11
116.2008964262176
 21
140.8774855251609
 31
0.0
 12
116.7342297595509
 22
144.0774855251609
 32
0.0
 13
116.7342297595509
 23
144.0774855251609
 33
0.0
  0
MTEXT
  5
D01D
330
D016
100
AcDbEntity
  8
0
  6
HIDDEN
 62
     0
370
     0
100
AcDbMText
 10
112.7342297595509
 20
139.9631405213981
 30
0.0
 40
3.2
 41
0.0
 71
     2
 72
     1
  1
\A1;%%c10.4
  7
SLDTEXTSTYLE4
 11
-4.099285014000576E-15
 21
1.0
 31
0.0
 73
     1
 44
1.0
  0
POINT
  5
D01E
330
D016
100
AcDbEntity
  8
Defpoints
 62
     0
100
AcDbPoint
 10
107.0211532807974
 20
133.6774855251608
 30
0.0
  0
POINT
  5
D01F
330
D016
100
AcDbEntity
  8
Defpoints
 62
     0
100
AcDbPoint
 10
107.0211532807974
 20
144.0774855251608
 30
0.0
  0
POINT
  5
D020
330
D016
100
AcDbEntity
  8
Defpoints
 62
     0
100
AcDbPoint
 10
116.7342297595509
 20
144.0774855251609
 30
0.0
  0
ENDBLK
  5
D021
330
D016
100
AcDbEntity
  8
0
100
AcDbBlockEnd
  0
BLOCK
  5
D024
330
D023
100
AcDbEntity
  8
0
100
AcDbBlockBegin
  2
_D_2
 70
     0
 10
0.0
 20
0.0
 30
0.0
  3
_D_2
  1
_D_2
  0
LINE
  5
D025
330
D023
100
AcDbEntity
  8
0
  6
Continuous
 62
     0
370
    -2
100
AcDbLine
 10
102.0211532807974
 20
114.8149855251608
 30
0.0
 11
102.0211532807974
 21
97.72694812456581
 31
0.0
  0
LINE
  5
D026
330
D023
100
AcDbEntity
  8
0
  6
Continuous
 62
     0
370
    -2
100
AcDbLine
 10
132.0211532807974
 20
114.8149855251608
 30
0.0
 11
132.0211532807974
 21
97.72694812456581
 31
0.0
  0
LINE
  5
D027
330
D023
100
AcDbEntity
  8
0
  6
Continuous
 62
     0
370
    -2
100
AcDbLine
 10
105.2211532807974
 20
97.72694812456581
 30
0.0
 11
128.8211532807974
 21
97.72694812456581
 31
0.0
  0
SOLID
  5
D028
330
D023
100
AcDbEntity
  8
0
 62
     0
100
AcDbTrace
 10
105.2211532807974
 20
98.26028145789914
 30
0.0
 11
105.2211532807974
 21
97.19361479123248
 31
0.0
 12
102.0211532807974
 22
97.72694812456581
 32
0.0
 13
102.0211532807974
 23
97.72694812456581
 33
0.0
  0
SOLID
  5
D029
330
D023
100
AcDbEntity
  8
0
 62
     0
100
AcDbTrace
 10
128.8211532807974
 20
97.19361479123248
 30
0.0
 11
128.8211532807974
 21
98.26028145789914
 31
0.0
 12
132.0211532807974
 22
97.72694812456581
 32
0.0
 13
132.0211532807974
 23
97.72694812456581
 33
0.0
  0
MTEXT
  5
D02A
330
D023
100
AcDbEntity
  8
0
  6
HIDDEN
 62
     0
370
     0
100
AcDbMText
 10
118.2389123192981
 20
101.7269481245658
 30
0.0
 40
3.2
 41
0.0
 71
     2
 72
     1
  1
\A1;30
  7
SLDTEXTSTYLE4
 73
     1
 44
1.0
  0
POINT
  5
D204
330
D023
100
AcDbEntity
  8
Defpoints
 62
     0
100
AcDbPoint
 10
102.0211532807974
 20
114.8774855251608
 30
0.0
  0
POINT
  5
D205
330
D023
100
AcDbEntity
  8
Defpoints
 62
     0
100
AcDbPoint
 10
132.0211532807974
 20
114.8774855251608
 30
0.0
  0
POINT
  5
D206
330
D023
100
AcDbEntity
  8
Defpoints
 62
     0
100
AcDbPoint
 10
132.0211532807974
 20
97.72694812456581
 30
0.0
  0
ENDBLK
  5
D02B
330
D023
100
AcDbEntity
  8
0
100
AcDbBlockEnd
  0
BLOCK
  5
D02E
330
D02D
100
AcDbEntity
  8
0
100
AcDbBlockBegin
  2
_D_3
 70
     0
 10
0.0
 20
0.0
 30
0.0
  3
_D_3
  1
_D_3
  0
LINE
  5
D02F
330
D02D
100
AcDbEntity
  8
0
  6
Continuous
 62
     0
370
    -2
100
AcDbLine
 10
101.9586532807974
 20
144.8774855251608
 30
0.0
 11
86.02115328079735
 21
144.8774855251608
 31
0.0
  0
LINE
  5
D030
330
D02D
100
AcDbEntity
  8
0
  6
Continuous
 62
     0
370
    -2
100
AcDbLine
 10
101.9586532807974
 20
114.8774855251608
 30
0.0
 11
86.02115328079745
 21
114.8774855251608
 31
0.0
  0
LINE
  5
D031
330
D02D
100
AcDbEntity
  8
0
  6
Continuous
 62
     0
370
    -2
100
AcDbLine
 10
86.02115328079736
 20
141.6774855251608
 30
0.0
 11
86.02115328079744
 21
118.0774855251608
 31
0.0
  0
SOLID
  5
D032
330
D02D
100
AcDbEntity
  8
0
 62
     0
100
AcDbTrace
 10
86.5544866141307
 20
141.6774855251608
 30
0.0
 11
85.48781994746403
 21
141.6774855251608
 31
0.0
 12
86.02115328079735
 22
144.8774855251608
 32
0.0
 13
86.02115328079735
 23
144.8774855251608
 33
0.0
  0
SOLID
  5
D033
330
D02D
100
AcDbEntity
  8
0
 62
     0
100
AcDbTrace
 10
85.4878199474641
 20
118.0774855251608
 30
0.0
 11
86.55448661413077
 21
118.0774855251608
 31
0.0
 12
86.02115328079745
 22
114.8774855251608
 32
0.0
 13
86.02115328079745
 23
114.8774855251608
 33
0.0
  0
MTEXT
  5
D034
330
D02D
100
AcDbEntity
  8
0
  6
HIDDEN
 62
     0
370
     0
100
AcDbMText
 10
82.0211532807974
 20
130.8121231701306
 30
0.0
 40
3.2
 41
0.0
 71
     2
 72
     1
  1
\A1;30
  7
SLDTEXTSTYLE4
 11
-3.315866100213801E-15
 21
1.0
 31
0.0
 73
     1
 44
1.0
  0
POINT
  5
D207
330
D02D
100
AcDbEntity
  8
Defpoints
 62
     0
100
AcDbPoint
 10
102.0211532807974
 20
144.8774855251608
 30
0.0
  0
POINT
  5
D208
330
D02D
100
AcDbEntity
  8
Defpoints
 62
     0
100
AcDbPoint
 10
102.0211532807974
 20
114.8774855251608
 30
0.0
  0
POINT
  5
D209
330
D02D
100
AcDbEntity
  8
Defpoints
 62
     0
100
AcDbPoint
 10
86.02115328079739
 20
114.8774855251608
 30
0.0
  0
ENDBLK
  5
D035
330
D02D
100
AcDbEntity
  8
0
100
AcDbBlockEnd
  0
BLOCK
  5
D038
330
D037
100
AcDbEntity
  8
0
100
AcDbBlockBegin
  2
_D_4
 70
     0
 10
0.0
 20
0.0
 30
0.0
  3
_D_4
  1
_D_4
  0
LINE
  5
D039
330
D037
100
AcDbEntity
  8
0
  6
Continuous
 62
     0
370
    -2
100
AcDbLine
 10
107.0211532807974
 20
144.9399855251608
 30
0.0
 11
107.0211532807974
 21
153.4040754519837
 31
0.0
  0
LINE
  5
D03A
330
D037
100
AcDbEntity
  8
0
  6
Continuous
 62
     0
370
    -2
100
AcDbLine
 10
102.0211532807974
 20
144.9399855251608
 30
0.0
 11
102.0211532807974
 21
153.4040754519837
 31
0.0
  0
LINE
  5
D03B
330
D037
100
AcDbEntity
  8
0
  6
Continuous
 62
     0
370
    -2
100
AcDbLine
 10
103.8211532807974
 20
153.4040754519837
 30
0.0
 11
105.2211532807974
 21
153.4040754519837
 31
0.0
  0
SOLID
  5
D03C
330
D037
100
AcDbEntity
  8
0
 62
     0
100
AcDbTrace
 10
103.8211532807974
 20
152.8707421186504
 30
0.0
 11
103.8211532807974
 21
153.937408785317
 31
0.0
 12
107.0211532807974
 22
153.4040754519837
 32
0.0
 13
107.0211532807974
 23
153.4040754519837
 33
0.0
  0
SOLID
  5
D03D
330
D037
100
AcDbEntity
  8
0
 62
     0
100
AcDbTrace
 10
105.2211532807974
 20
153.937408785317
 30
0.0
 11
105.2211532807974
 21
152.8707421186504
 31
0.0
 12
102.0211532807974
 22
153.4040754519837
 32
0.0
 13
102.0211532807974
 23
153.4040754519837
 33
0.0
  0
MTEXT
  5
D03E
330
D037
100
AcDbEntity
  8
0
  6
HIDDEN
 62
     0
370
     0
100
AcDbMText
 10
104.7105446364441
 20
157.4040754519837
 30
0.0
 40
3.2
 41
0.0
 71
     2
 72
     1
  1
\A1;5
  7
SLDTEXTSTYLE4
 73
     1
 44
1.0
  0
POINT
  5
D03F
330
D037
100
AcDbEntity
  8
Defpoints
 62
     0
100
AcDbPoint
 10
107.0211532807974
 20
144.8774855251608
 30
0.0
  0
POINT
  5
D040
330
D037
100
AcDbEntity
  8
Defpoints
 62
     0
100
AcDbPoint
 10
102.0211532807974
 20
144.8774855251608
 30
0.0
  0
POINT
  5
D20A
330
D037
100
AcDbEntity
  8
Defpoints
 62
     0
100
AcDbPoint
 10
102.0211532807974
 20
153.4040754519837
 30
0.0
  0
ENDBLK
  5
D041
330
D037
100
AcDbEntity
  8
0
100
AcDbBlockEnd
  0
BLOCK
  5
D044
330
D043
100
AcDbEntity
  8
0
100
AcDbBlockBegin
  2
_D_5
 70
     0
 10
0.0
 20
0.0
 30
0.0
  3
_D_5
  1
_D_5
  0
LINE
  5
D045
330
D043
100
AcDbEntity
  8
0
  6
Continuous
 62
     0
370
    -2
100
AcDbLine
 10
123.0211532807974
 20
114.8149855251608
 30
0.0
 11
123.0211532807974
 21
106.9625878743262
 31
0.0
  0
LINE
  5
D046
330
D043
100
AcDbEntity
  8
0
  6
Continuous
 62
     0
370
    -2
100
AcDbLine
 10
129.0211532807974
 20
114.8149855251608
 30
0.0
 11
129.0211532807974
 21
106.9625878743262
 31
0.0
  0
LINE
  5
D047
330
D043
100
AcDbEntity
  8
0
  6
Continuous
 62
     0
370
    -2
100
AcDbLine
 10
123.0211532807974
 20
106.9625878743262
 30
0.0
 11
111.0211532807974
 21
106.9625878743262
 31
0.0
  0
LINE
  5
D048
330
D043
100
AcDbEntity
  8
0
  6
Continuous
 62
     0
370
    -2
100
AcDbLine
 10
123.0211532807974
 20
106.9625878743262
 30
0.0
 11
129.0211532807974
 21
106.9625878743262
 31
0.0
  0
LINE
  5
D049
330
D043
100
AcDbEntity
  8
0
  6
Continuous
 62
     0
370
    -2
100
AcDbLine
 10
119.8211532807974
 20
106.9625878743262
 30
0.0
 11
116.6211532807974
 21
106.9625878743262
 31
0.0
  0
LINE
  5
D04A
330
D043
100
AcDbEntity
  8
0
  6
Continuous
 62
     0
370
    -2
100
AcDbLine
 10
132.2211532807974
 20
106.9625878743262
 30
0.0
 11
135.4211532807974
 21
106.9625878743262
 31
0.0
  0
SOLID
  5
D04B
330
D043
100
AcDbEntity
  8
0
 62
     0
100
AcDbTrace
 10
119.8211532807974
 20
106.4292545409929
 30
0.0
 11
119.8211532807974
 21
107.4959212076595
 31
0.0
 12
123.0211532807974
 22
106.9625878743262
 32
0.0
 13
123.0211532807974
 23
106.9625878743262
 33
0.0
  0
SOLID
  5
D04C
330
D043
100
AcDbEntity
  8
0
 62
     0
100
AcDbTrace
 10
132.2211532807974
 20
107.4959212076595
 30
0.0
 11
132.2211532807974
 21
106.4292545409929
 31
0.0
 12
129.0211532807974
 22
106.9625878743262
 32
0.0
 13
129.0211532807974
 23
106.9625878743262
 33
0.0
  0
MTEXT
  5
D04D
330
D043
100
AcDbEntity
  8
0
  6
HIDDEN
 62
     0
370
     0
100
AcDbMText
 10
113.8211532807974
 20
110.9625878743262
 30
0.0
 40
3.2
 41
0.0
 71
     2
 72
     1
  1
\A1;M6
  7
SLDTEXTSTYLE4
 73
     1
 44
1.0
  0
POINT
  5
D20B
330
D043
100
AcDbEntity
  8
Defpoints
 62
     0
100
AcDbPoint
 10
123.0211532807974
 20
114.8774855251608
 30
0.0
  0
POINT
  5
D20C
330
D043
100
AcDbEntity
  8
Defpoints
 62
     0
100
AcDbPoint
 10
129.0211532807974
 20
114.8774855251608
 30
0.0
  0
POINT
  5
D20D
330
D043
100
AcDbEntity
  8
Defpoints
 62
     0
100
AcDbPoint
 10
129.0211532807974
 20
106.9625878743262
 30
0.0
  0
ENDBLK
  5
D04E
330
D043
100
AcDbEntity
  8
0
100
AcDbBlockEnd
  0
BLOCK
  5
D051
330
D050
100
AcDbEntity
  8
0
100
AcDbBlockBegin
  2
_D_6
 70
     0
 10
0.0
 20
0.0
 30
0.0
  3
_D_6
  1
_D_6
  0
LINE
  5
D052
330
D050
100
AcDbEntity
  8
0
  6
Continuous
 62
     0
370
    -2
100
AcDbLine
 10
101.9586532807974
 20
135.6774855251608
 30
0.0
 11
95.472940073549
 21
135.6774855251608
 31
0.0
  0
LINE
  5
D053
330
D050
100
AcDbEntity
  8
0
  6
Continuous
 62
     0
370
    -2
100
AcDbLine
 10
101.9586532807974
 20
142.0774855251608
 30
0.0
 11
95.47294007354897
 21
142.0774855251608
 31
0.0
  0
LINE
  5
D054
330
D050
100
AcDbEntity
  8
0
  6
Continuous
 62
     0
370
    -2
100
AcDbLine
 10
95.472940073549
 20
135.6774855251608
 30
0.0
 11
95.47294007354905
 21
120.4774855251608
 31
0.0
  0
LINE
  5
D055
330
D050
100
AcDbEntity
  8
0
  6
Continuous
 62
     0
370
    -2
100
AcDbLine
 10
95.472940073549
 20
135.6774855251608
 30
0.0
 11
95.47294007354897
 21
142.0774855251608
 31
0.0
  0
LINE
  5
D056
330
D050
100
AcDbEntity
  8
0
  6
Continuous
 62
     0
370
    -2
100
AcDbLine
 10
95.47294007354901
 20
132.4774855251608
 30
0.0
 11
95.47294007354903
 21
129.2774855251608
 31
0.0
  0
LINE
  5
D057
330
D050
100
AcDbEntity
  8
0
  6
Continuous
 62
     0
370
    -2
100
AcDbLine
 10
95.47294007354895
 20
145.2774855251608
 30
0.0
 11
95.47294007354894
 21
148.4774855251608
 31
0.0
  0
SOLID
  5
D058
330
D050
100
AcDbEntity
  8
0
 62
     0
100
AcDbTrace
 10
96.00627340688234
 20
132.4774855251608
 30
0.0
 11
94.93960674021568
 21
132.4774855251608
 31
0.0
 12
95.472940073549
 22
135.6774855251608
 32
0.0
 13
95.472940073549
 23
135.6774855251608
 33
0.0
  0
SOLID
  5
D059
330
D050
100
AcDbEntity
  8
0
 62
     0
100
AcDbTrace
 10
94.93960674021562
 20
145.2774855251608
 30
0.0
 11
96.00627340688229
 21
145.2774855251608
 31
0.0
 12
95.47294007354897
 22
142.0774855251608
 32
0.0
 13
95.47294007354897
 23
142.0774855251608
 33
0.0
  0
MTEXT
  5
D05A
330
D050
100
AcDbEntity
  8
0
  6
HIDDEN
 62
     0
370
     0
100
AcDbMText
 10
91.47294007354905
 20
124.8774855251608
 30
0.0
 40
3.2
 41
0.0
 71
     2
 72
     1
  1
\A1;%%c6.4
  7
SLDTEXTSTYLE4
 11
-4.440892098500622E-15
 21
1.0
 31
0.0
 73
     1
 44
1.0
  0
POINT
  5
D20E
330
D050
100
AcDbEntity
  8
Defpoints
 62
     0
100
AcDbPoint
 10
102.0211532807974
 20
135.6774855251608
 30
0.0
  0
POINT
  5
D20F
330
D050
100
AcDbEntity
  8
Defpoints
 62
     0
100
AcDbPoint
 10
102.0211532807974
 20
142.0774855251608
 30
0.0
  0
POINT
  5
D210
330
D050
100
AcDbEntity
  8
Defpoints
 62
     0
100
AcDbPoint
 10
95.47294007354904
 20
142.0774855251608
 30
0.0
  0
ENDBLK
  5
D05B
330
D050
100
AcDbEntity
  8
0
100
AcDbBlockEnd
  0
BLOCK
  5
D05E
330
D05D
100
AcDbEntity
  8
0
100
AcDbBlockBegin
  2
_D_7
 70
     0
 10
0.0
 20
0.0
 30
0.0
  3
_D_7
  1
_D_7
  0
LINE
  5
D05F
330
D05D
100
AcDbEntity
  8
0
  6
Continuous
 62
     0
370
    -2
100
AcDbLine
 10
107.0653474546216
 20
133.6332913513367
 30
0.0
 11
118.5419094540843
 21
122.1567293518741
 31
0.0
  0
LINE
  5
D060
330
D05D
100
AcDbEntity
  8
0
  6
Continuous
 62
     0
370
    -2
100
AcDbLine
 10
107.0653474546216
 20
144.121679698985
 30
0.0
 11
118.5419094540843
 21
155.5982416984475
 31
0.0
  0
ARC
  5
D061
330
D05D
100
AcDbEntity
  8
0
  6
Continuous
 62
     0
370
    -2
100
AcDbCircle
 10
101.8211532807973
 20
138.8774855251608
 30
0.0
 40
23.64672015339588
100
AcDbArc
 50
322.7594982661179
 51
37.24050173388196
  0
SOLID
  5
D062
330
D05D
100
AcDbEntity
  8
0
 62
     0
100
AcDbTrace
 10
120.2445858726448
 20
124.9181307095406
 30
0.0
 11
121.0481389389928
 21
124.2166463922958
 31
0.0
 12
118.5419094540843
 22
122.1567293518741
 32
0.0
 13
118.5419094540843
 23
122.1567293518741
 33
0.0
  0
SOLID
  5
D063
330
D05D
100
AcDbEntity
  8
0
 62
     0
100
AcDbTrace
 10
121.0481389389928
 20
153.5383246580258
 30
0.0
 11
120.2445858726448
 21
152.836840340781
 31
0.0
 12
118.5419094540843
 22
155.5982416984475
 32
0.0
 13
118.5419094540843
 23
155.5982416984475
 33
0.0
  0
MTEXT
  5
D064
330
D05D
100
AcDbEntity
  8
0
  6
HIDDEN
 62
     0
370
     0
100
AcDbMText
 10
121.4023168738041
 20
135.8227113715188
 30
0.0
 40
3.2
 41
0.0
 71
     1
 72
     1
  1
\A1;90%%d
  7
SLDTEXTSTYLE4
 11
0.02318315424784876
 21
0.99973123456213
 31
0.0
 73
     1
 44
1.0
  0
POINT
  5
D211
330
D05D
100
AcDbEntity
  8
Defpoints
 62
     0
100
AcDbPoint
 10
124.6621309839926
 20
144.9977070550692
 30
0.0
  0
POINT
  5
D212
330
D05D
100
AcDbEntity
  8
Defpoints
 62
     0
100
AcDbPoint
 10
107.0211532807974
 20
144.0774855251608
 30
0.0
  0
POINT
  5
D213
330
D05D
100
AcDbEntity
  8
Defpoints
 62
     0
100
AcDbPoint
 10
105.0211532807974
 20
135.6774855251608
 30
0.0
  0
POINT
  5
D214
330
D05D
100
AcDbEntity
  8
Defpoints
 62
     0
100
AcDbPoint
 10
107.0211532807974
 20
133.6774855251608
 30
0.0
  0
POINT
  5
D215
330
D05D
100
AcDbEntity
  8
Defpoints
 62
     0
100
AcDbPoint
 10
105.0211532807974
 20
142.0774855251608
 30
0.0
  0
ENDBLK
  5
D065
330
D05D
100
AcDbEntity
  8
0
100
AcDbBlockEnd
  0
BLOCK
  5
D068
330
D067
100
AcDbEntity
  8
0
100
AcDbBlockBegin
  2
_D_8
 70
     0
 10
0.0
 20
0.0
 30
0.0
  3
_D_8
  1
_D_8
  0
LINE
  5
D069
330
D067
100
AcDbEntity
  8
0
  6
Continuous
 62
     0
370
    -2
100
AcDbLine
 10
128.5836532807974
 20
119.3774855251608
 30
0.0
 11
143.4904604422772
 21
119.3774855251609
 31
0.0
  0
LINE
  5
D06A
330
D067
100
AcDbEntity
  8
0
  6
Continuous
 62
     0
370
    -2
100
AcDbLine
 10
132.0836532807974
 20
119.8774855251608
 30
0.0
 11
143.4904604422772
 21
119.8774855251608
 31
0.0
  0
LINE
  5
D06B
330
D067
100
AcDbEntity
  8
0
  6
Continuous
 62
     0
370
    -2
100
AcDbLine
 10
143.4904604422772
 20
119.3774855251609
 30
0.0
 11
143.4904604422772
 21
98.17748552516085
 31
0.0
  0
LINE
  5
D06C
330
D067
100
AcDbEntity
  8
0
  6
Continuous
 62
     0
370
    -2
100
AcDbLine
 10
143.4904604422772
 20
119.3774855251609
 30
0.0
 11
143.4904604422772
 21
119.8774855251608
 31
0.0
  0
LINE
  5
D06D
330
D067
100
AcDbEntity
  8
0
  6
Continuous
 62
     0
370
    -2
100
AcDbLine
 10
143.4904604422772
 20
116.1774855251609
 30
0.0
 11
143.4904604422772
 21
112.9774855251609
 31
0.0
  0
LINE
  5
D06E
330
D067
100
AcDbEntity
  8
0
  6
Continuous
 62
     0
370
    -2
100
AcDbLine
 10
143.4904604422772
 20
123.0774855251609
 30
0.0
 11
143.4904604422772
 21
126.2774855251609
 31
0.0
  0
SOLID
  5
D06F
330
D067
100
AcDbEntity
  8
0
 62
     0
100
AcDbTrace
 10
144.0237937756105
 20
116.1774855251609
 30
0.0
 11
142.9571271089438
 21
116.1774855251609
 31
0.0
 12
143.4904604422772
 22
119.3774855251609
 32
0.0
 13
143.4904604422772
 23
119.3774855251609
 33
0.0
  0
SOLID
  5
D070
330
D067
100
AcDbEntity
  8
0
 62
     0
100
AcDbTrace
 10
142.9571271089438
 20
123.0774855251609
 30
0.0
 11
144.0237937756105
 21
123.0774855251609
 31
0.0
 12
143.4904604422772
 22
119.8774855251608
 32
0.0
 13
143.4904604422772
 23
119.8774855251608
 33
0.0
  0
MTEXT
  5
D071
330
D067
100
AcDbEntity
  8
0
  6
HIDDEN
 62
     0
370
     0
100
AcDbMText
 10
139.4904604422772
 20
105.5774855251609
 30
0.0
 40
3.2
 41
0.0
 71
     2
 72
     1
  1
\A1;0.5x45°
  7
SLDTEXTSTYLE4
 11
0.0
 21
1.0
 31
0.0
 73
     1
 44
1.0
  0
POINT
  5
D216
330
D067
100
AcDbEntity
  8
Defpoints
 62
     0
100
AcDbPoint
 10
128.5211532807974
 20
119.3774855251608
 30
0.0
  0
POINT
  5
D217
330
D067
100
AcDbEntity
  8
Defpoints
 62
     0
100
AcDbPoint
 10
132.0211532807974
 20
119.8774855251608
 30
0.0
  0
POINT
  5
D218
330
D067
100
AcDbEntity
  8
Defpoints
 62
     0
100
AcDbPoint
 10
143.4904604422772
 20
119.8774855251608
 30
0.0
  0
ENDBLK
  5
D072
330
D067
100
AcDbEntity
  8
0
100
AcDbBlockEnd
  0
BLOCK
  5
D0AD
330
D0AC
100
AcDbEntity
  8
0
100
AcDbBlockBegin
  2
_D_9
 70
     0
 10
0.0
 20
0.0
 30
0.0
  3
_D_9
  1
_D_9
  0
LINE
  5
D0AE
330
D0AC
100
AcDbEntity
  8
0
  6
Continuous
 62
     0
370
    -2
100
AcDbLine
 10
34.014223804717
 20
133.6399855251608
 30
0.0
 11
34.014223804717
 21
160.8774855251605
 31
0.0
  0
LINE
  5
D0AF
330
D0AC
100
AcDbEntity
  8
0
  6
Continuous
 62
     0
370
    -2
100
AcDbLine
 10
50.014223804717
 20
146.6399855251608
 30
0.0
 11
50.014223804717
 21
160.8774855251605
 31
0.0
  0
LINE
  5
D0B0
330
D0AC
100
AcDbEntity
  8
0
  6
Continuous
 62
     0
370
    -2
100
AcDbLine
 10
37.214223804717
 20
160.8774855251605
 30
0.0
 11
46.814223804717
 21
160.8774855251605
 31
0.0
  0
SOLID
  5
D0B1
330
D0AC
100
AcDbEntity
  8
0
 62
     0
100
AcDbTrace
 10
37.214223804717
 20
161.4108188584938
 30
0.0
 11
37.214223804717
 21
160.3441521918272
 31
0.0
 12
34.014223804717
 22
160.8774855251605
 32
0.0
 13
34.014223804717
 23
160.8774855251605
 33
0.0
  0
SOLID
  5
D0B2
330
D0AC
100
AcDbEntity
  8
0
 62
     0
100
AcDbTrace
 10
46.814223804717
 20
160.3441521918272
 30
0.0
 11
46.814223804717
 21
161.4108188584938
 31
0.0
 12
50.014223804717
 22
160.8774855251605
 32
0.0
 13
50.014223804717
 23
160.8774855251605
 33
0.0
  0
MTEXT
  5
D0B3
330
D0AC
100
AcDbEntity
  8
0
  6
HIDDEN
 62
     0
370
     0
100
AcDbMText
 10
41.7939975072594
 20
164.8774855251605
 30
0.0
 40
3.2
 41
0.0
 71
     2
 72
     1
  1
\A1;16
  7
SLDTEXTSTYLE4
 73
     1
 44
1.0
  0
POINT
  5
D219
330
D0AC
100
AcDbEntity
  8
Defpoints
 62
     0
100
AcDbPoint
 10
34.014223804717
 20
133.5774855251608
 30
0.0
  0
POINT
  5
D21A
330
D0AC
100
AcDbEntity
  8
Defpoints
 62
     0
100
AcDbPoint
 10
50.014223804717
 20
146.5774855251608
 30
0.0
  0
POINT
  5
D21B
330
D0AC
100
AcDbEntity
  8
Defpoints
 62
     0
100
AcDbPoint
 10
50.014223804717
 20
160.8774855251605
 30
0.0
  0
ENDBLK
  5
D0B4
330
D0AC
100
AcDbEntity
  8
0
100
AcDbBlockEnd
  0
BLOCK
  5
D0B7
330
D0B6
100
AcDbEntity
  8
0
100
AcDbBlockBegin
  2
_D_10
 70
     0
 10
0.0
 20
0.0
 30
0.0
  3
_D_10
  1
_D_10
  0
LINE
  5
D0B8
330
D0B6
100
AcDbEntity
  8
0
  6
Continuous
 62
     0
370
    -2
100
AcDbLine
 10
34.014223804717
 20
133.6399855251608
 30
0.0
 11
34.014223804717
 21
160.8774855251607
 31
0.0
  0
LINE
  5
D0B9
330
D0B6
100
AcDbEntity
  8
0
  6
Continuous
 62
     0
370
    -2
100
AcDbLine
 10
28.01422380471701
 20
144.9399855251608
 30
0.0
 11
28.01422380471701
 21
160.8774855251607
 31
0.0
  0
LINE
  5
D0BA
330
D0B6
100
AcDbEntity
  8
0
  6
Continuous
 62
     0
370
    -2
100
AcDbLine
 10
30.814223804717
 20
160.8774855251607
 30
0.0
 11
31.214223804717
 21
160.8774855251607
 31
0.0
  0
SOLID
  5
D0BB
330
D0B6
100
AcDbEntity
  8
0
 62
     0
100
AcDbTrace
 10
30.814223804717
 20
160.3441521918273
 30
0.0
 11
30.814223804717
 21
161.410818858494
 31
0.0
 12
34.014223804717
 22
160.8774855251607
 32
0.0
 13
34.014223804717
 23
160.8774855251607
 33
0.0
  0
SOLID
  5
D0BC
330
D0B6
100
AcDbEntity
  8
0
 62
     0
100
AcDbTrace
 10
31.214223804717
 20
161.410818858494
 30
0.0
 11
31.214223804717
 21
160.3441521918273
 31
0.0
 12
28.01422380471701
 22
160.8774855251607
 32
0.0
 13
28.01422380471701
 23
160.8774855251607
 33
0.0
  0
MTEXT
  5
D0BD
330
D0B6
100
AcDbEntity
  8
0
  6
HIDDEN
 62
     0
370
     0
100
AcDbMText
 10
30.50789413097775
 20
164.8774855251607
 30
0.0
 40
3.2
 41
0.0
 71
     2
 72
     1
  1
\A1;6
  7
SLDTEXTSTYLE4
 73
     1
 44
1.0
  0
POINT
  5
D0BE
330
D0B6
100
AcDbEntity
  8
Defpoints
 62
     0
100
AcDbPoint
 10
34.014223804717
 20
133.5774855251608
 30
0.0
  0
POINT
  5
D0BF
330
D0B6
100
AcDbEntity
  8
Defpoints
 62
     0
100
AcDbPoint
 10
28.01422380471701
 20
144.8774855251608
 30
0.0
  0
POINT
  5
D21C
330
D0B6
100
AcDbEntity
  8
Defpoints
 62
     0
100
AcDbPoint
 10
28.01422380471701
 20
160.8774855251607
 30
0.0
  0
ENDBLK
  5
D0C0
330
D0B6
100
AcDbEntity
  8
0
100
AcDbBlockEnd
  0
BLOCK
  5
D0C3
330
D0C2
100
AcDbEntity
  8
0
100
AcDbBlockBegin
  2
_D_11
 70
     0
 10
0.0
 20
0.0
 30
0.0
  3
_D_11
  1
_D_11
  0
LINE
  5
D0C4
330
D0C2
100
AcDbEntity
  8
0
  6
Continuous
 62
     0
370
    -2
100
AcDbLine
 10
50.014223804717
 20
146.6399855251608
 30
0.0
 11
50.014223804717
 21
160.8774855251606
 31
0.0
  0
LINE
  5
D0C5
330
D0C2
100
AcDbEntity
  8
0
  6
Continuous
 62
     0
370
    -2
100
AcDbLine
 10
56.01422380471701
 20
144.9399855251608
 30
0.0
 11
56.01422380471701
 21
160.8774855251606
 31
0.0
  0
LINE
  5
D0C6
330
D0C2
100
AcDbEntity
  8
0
  6
Continuous
 62
     0
370
    -2
100
AcDbLine
 10
53.214223804717
 20
160.8774855251606
 30
0.0
 11
52.81422380471701
 21
160.8774855251606
 31
0.0
  0
SOLID
  5
D0C7
330
D0C2
100
AcDbEntity
  8
0
 62
     0
100
AcDbTrace
 10
53.214223804717
 20
161.4108188584939
 30
0.0
 11
53.214223804717
 21
160.3441521918273
 31
0.0
 12
50.014223804717
 22
160.8774855251606
 32
0.0
 13
50.014223804717
 23
160.8774855251606
 33
0.0
  0
SOLID
  5
D0C8
330
D0C2
100
AcDbEntity
  8
0
 62
     0
100
AcDbTrace
 10
52.81422380471701
 20
160.3441521918273
 30
0.0
 11
52.81422380471701
 21
161.4108188584939
 31
0.0
 12
56.01422380471701
 22
160.8774855251606
 32
0.0
 13
56.01422380471701
 23
160.8774855251606
 33
0.0
  0
MTEXT
  5
D0C9
330
D0C2
100
AcDbEntity
  8
0
  6
HIDDEN
 62
     0
370
     0
100
AcDbMText
 10
53.05283239218203
 20
164.8774855251606
 30
0.0
 40
3.2
 41
0.0
 71
     2
 72
     1
  1
\A1;6
  7
SLDTEXTSTYLE4
 73
     1
 44
1.0
  0
POINT
  5
D0CA
330
D0C2
100
AcDbEntity
  8
Defpoints
 62
     0
100
AcDbPoint
 10
50.014223804717
 20
146.5774855251608
 30
0.0
  0
POINT
  5
D0CB
330
D0C2
100
AcDbEntity
  8
Defpoints
 62
     0
100
AcDbPoint
 10
56.01422380471701
 20
144.8774855251608
 30
0.0
  0
POINT
  5
D21D
330
D0C2
100
AcDbEntity
  8
Defpoints
 62
     0
100
AcDbPoint
 10
56.01422380471701
 20
160.8774855251606
 30
0.0
  0
ENDBLK
  5
D0CC
330
D0C2
100
AcDbEntity
  8
0
100
AcDbBlockEnd
  0
BLOCK
  5
D0CF
330
D0CE
100
AcDbEntity
  8
0
100
AcDbBlockBegin
  2
_D_12
 70
     0
 10
0.0
 20
0.0
 30
0.0
  3
_D_12
  1
_D_12
  0
LINE
  5
D0D0
330
D0CE
100
AcDbEntity
  8
0
  6
Continuous
 62
     0
370
    -2
100
AcDbLine
 10
57.776723804717
 20
138.8774855251608
 30
0.0
 11
66.01422380471702
 21
138.8774855251608
 31
0.0
  0
LINE
  5
D0D1
330
D0CE
100
AcDbEntity
  8
0
  6
Continuous
 62
     0
370
    -2
100
AcDbLine
 10
56.07672380471701
 20
144.8774855251608
 30
0.0
 11
66.014223804717
 21
144.8774855251608
 31
0.0
  0
LINE
  5
D0D2
330
D0CE
100
AcDbEntity
  8
0
  6
Continuous
 62
     0
370
    -2
100
AcDbLine
 10
66.014223804717
 20
142.0774855251608
 30
0.0
 11
66.01422380471702
 21
141.6774855251608
 31
0.0
  0
SOLID
  5
D0D3
330
D0CE
100
AcDbEntity
  8
0
 62
     0
100
AcDbTrace
 10
65.48089047138367
 20
142.0774855251608
 30
0.0
 11
66.54755713805034
 21
142.0774855251608
 31
0.0
 12
66.01422380471702
 22
138.8774855251608
 32
0.0
 13
66.01422380471702
 23
138.8774855251608
 33
0.0
  0
SOLID
  5
D0D4
330
D0CE
100
AcDbEntity
  8
0
 62
     0
100
AcDbTrace
 10
66.54755713805035
 20
141.6774855251608
 30
0.0
 11
65.48089047138369
 21
141.6774855251608
 31
0.0
 12
66.014223804717
 22
144.8774855251608
 32
0.0
 13
66.014223804717
 23
144.8774855251608
 33
0.0
  0
MTEXT
  5
D0D5
330
D0CE
100
AcDbEntity
  8
0
  6
HIDDEN
 62
     0
370
     0
100
AcDbMText
 10
62.01422380471701
 20
142.2583097576386
 30
0.0
 40
3.2
 41
0.0
 71
     2
 72
     1
  1
\A1;6
  7
SLDTEXTSTYLE4
 11
-2.368475785867000E-15
 21
1.0
 31
0.0
 73
     1
 44
1.0
  0
POINT
  5
D0D6
330
D0CE
100
AcDbEntity
  8
Defpoints
 62
     0
100
AcDbPoint
 10
57.714223804717
 20
138.8774855251608
 30
0.0
  0
POINT
  5
D0D7
330
D0CE
100
AcDbEntity
  8
Defpoints
 62
     0
100
AcDbPoint
 10
56.01422380471701
 20
144.8774855251608
 30
0.0
  0
POINT
  5
D21E
330
D0CE
100
AcDbEntity
  8
Defpoints
 62
     0
100
AcDbPoint
 10
66.014223804717
 20
144.8774855251608
 30
0.0
  0
ENDBLK
  5
D0D8
330
D0CE
100
AcDbEntity
  8
0
100
AcDbBlockEnd
  0
BLOCK
  5
D0DB
330
D0DA
100
AcDbEntity
  8
0
100
AcDbBlockBegin
  2
_D_13
 70
     0
 10
0.0
 20
0.0
 30
0.0
  3
_D_13
  1
_D_13
  0
LINE
  5
D0DC
330
D0DA
100
AcDbEntity
  8
0
  6
Continuous
 62
     0
370
    -2
100
AcDbLine
 10
41.77672380471701
 20
125.8774855251608
 30
0.0
 11
66.01422380471702
 21
125.8774855251609
 31
0.0
  0
LINE
  5
D0DD
330
D0DA
100
AcDbEntity
  8
0
  6
Continuous
 62
     0
370
    -2
100
AcDbLine
 10
57.776723804717
 20
138.8774855251608
 30
0.0
 11
66.01422380471698
 21
138.8774855251608
 31
0.0
  0
LINE
  5
D0DE
330
D0DA
100
AcDbEntity
  8
0
  6
Continuous
 62
     0
370
    -2
100
AcDbLine
 10
66.014223804717
 20
129.0774855251609
 30
0.0
 11
66.01422380471699
 21
135.6774855251608
 31
0.0
  0
SOLID
  5
D0DF
330
D0DA
100
AcDbEntity
  8
0
 62
     0
100
AcDbTrace
 10
65.48089047138367
 20
129.0774855251609
 30
0.0
 11
66.54755713805034
 21
129.0774855251609
 31
0.0
 12
66.01422380471702
 22
125.8774855251609
 32
0.0
 13
66.01422380471702
 23
125.8774855251609
 33
0.0
  0
SOLID
  5
D0E0
330
D0DA
100
AcDbEntity
  8
0
 62
     0
100
AcDbTrace
 10
66.54755713805032
 20
135.6774855251608
 30
0.0
 11
65.48089047138366
 21
135.6774855251608
 31
0.0
 12
66.01422380471698
 22
138.8774855251608
 32
0.0
 13
66.01422380471698
 23
138.8774855251608
 33
0.0
  0
MTEXT
  5
D0E1
330
D0DA
100
AcDbEntity
  8
0
  6
HIDDEN
 62
     0
370
     0
100
AcDbMText
 10
62.01422380471701
 20
132.3122064044422
 30
0.0
 40
3.2
 41
0.0
 71
     2
 72
     1
  1
\A1;13
  7
SLDTEXTSTYLE4
 11
-3.279428011200477E-15
 21
1.0
 31
0.0
 73
     1
 44
1.0
  0
POINT
  5
D21F
330
D0DA
100
AcDbEntity
  8
Defpoints
 62
     0
100
AcDbPoint
 10
41.71422380471701
 20
125.8774855251608
 30
0.0
  0
POINT
  5
D220
330
D0DA
100
AcDbEntity
  8
Defpoints
 62
     0
100
AcDbPoint
 10
57.714223804717
 20
138.8774855251608
 30
0.0
  0
POINT
  5
D221
330
D0DA
100
AcDbEntity
  8
Defpoints
 62
     0
100
AcDbPoint
 10
66.014223804717
 20
138.8774855251608
 30
0.0
  0
ENDBLK
  5
D0E2
330
D0DA
100
AcDbEntity
  8
0
100
AcDbBlockEnd
  0
BLOCK
  5
D0E5
330
D0E4
100
AcDbEntity
  8
0
100
AcDbBlockBegin
  2
_D_14
 70
     0
 10
0.0
 20
0.0
 30
0.0
  3
_D_14
  1
_D_14
  0
LINE
  5
D0E6
330
D0E4
100
AcDbEntity
  8
0
  6
Continuous
 62
     0
370
    -2
100
AcDbLine
 10
36.01422380471702
 20
144.9399855251608
 30
0.0
 11
36.01422380471702
 21
152.0137884289442
 31
0.0
  0
LINE
  5
D0E7
330
D0E4
100
AcDbEntity
  8
0
  6
Continuous
 62
     0
370
    -2
100
AcDbLine
 10
32.01422380471701
 20
144.9399855251608
 30
0.0
 11
32.01422380471701
 21
152.0137884289442
 31
0.0
  0
LINE
  5
D0E8
330
D0E4
100
AcDbEntity
  8
0
  6
Continuous
 62
     0
370
    -2
100
AcDbLine
 10
36.01422380471702
 20
152.0137884289442
 30
0.0
 11
48.01422380471701
 21
152.0137884289442
 31
0.0
  0
LINE
  5
D0E9
330
D0E4
100
AcDbEntity
  8
0
  6
Continuous
 62
     0
370
    -2
100
AcDbLine
 10
36.01422380471702
 20
152.0137884289442
 30
0.0
 11
32.01422380471701
 21
152.0137884289442
 31
0.0
  0
LINE
  5
D0EA
330
D0E4
100
AcDbEntity
  8
0
  6
Continuous
 62
     0
370
    -2
100
AcDbLine
 10
39.21422380471702
 20
152.0137884289442
 30
0.0
 11
42.41422380471703
 21
152.0137884289442
 31
0.0
  0
LINE
  5
D0EB
330
D0E4
100
AcDbEntity
  8
0
  6
Continuous
 62
     0
370
    -2
100
AcDbLine
 10
28.81422380471701
 20
152.0137884289442
 30
0.0
 11
25.61422380471701
 21
152.0137884289442
 31
0.0
  0
SOLID
  5
D0EC
330
D0E4
100
AcDbEntity
  8
0
 62
     0
100
AcDbTrace
 10
39.21422380471702
 20
152.5471217622776
 30
0.0
 11
39.21422380471702
 21
151.4804550956109
 31
0.0
 12
36.01422380471702
 22
152.0137884289442
 32
0.0
 13
36.01422380471702
 23
152.0137884289442
 33
0.0
  0
SOLID
  5
D0ED
330
D0E4
100
AcDbEntity
  8
0
 62
     0
100
AcDbTrace
 10
28.81422380471701
 20
151.4804550956109
 30
0.0
 11
28.81422380471701
 21
152.5471217622776
 31
0.0
 12
32.01422380471701
 22
152.0137884289442
 32
0.0
 13
32.01422380471701
 23
152.0137884289442
 33
0.0
  0
MTEXT
  5
D0EE
330
D0E4
100
AcDbEntity
  8
0
  6
HIDDEN
 62
     0
370
     0
100
AcDbMText
 10
45.21422380471702
 20
156.0137884289442
 30
0.0
 40
3.2
 41
0.0
 71
     2
 72
     1
  1
\A1;M4
  7
SLDTEXTSTYLE4
 73
     1
 44
1.0
  0
POINT
  5
D222
330
D0E4
100
AcDbEntity
  8
Defpoints
 62
     0
100
AcDbPoint
 10
36.01422380471702
 20
144.8774855251608
 30
0.0
  0
POINT
  5
D223
330
D0E4
100
AcDbEntity
  8
Defpoints
 62
     0
100
AcDbPoint
 10
32.01422380471701
 20
144.8774855251608
 30
0.0
  0
POINT
  5
D224
330
D0E4
100
AcDbEntity
  8
Defpoints
 62
     0
100
AcDbPoint
 10
32.01422380471701
 20
152.0137884289442
 30
0.0
  0
ENDBLK
  5
D0EF
330
D0E4
100
AcDbEntity
  8
0
100
AcDbBlockEnd
  0
BLOCK
  5
D0F2
330
D0F1
100
AcDbEntity
  8
0
100
AcDbBlockBegin
  2
_D_15
 70
     0
 10
0.0
 20
0.0
 30
0.0
  3
_D_15
  1
_D_15
  0
LINE
  5
D0F3
330
D0F1
100
AcDbEntity
  8
0
  6
Continuous
 62
     0
370
    -2
100
AcDbLine
 10
27.95172380471701
 20
144.8774855251608
 30
0.0
 11
12.01422380471689
 21
144.8774855251608
 31
0.0
  0
LINE
  5
D0F4
330
D0F1
100
AcDbEntity
  8
0
  6
Continuous
 62
     0
370
    -2
100
AcDbLine
 10
31.95172380471701
 20
134.8774855251608
 30
0.0
 11
12.01422380471692
 21
134.8774855251608
 31
0.0
  0
LINE
  5
D0F5
330
D0F1
100
AcDbEntity
  8
0
  6
Continuous
 62
     0
370
    -2
100
AcDbLine
 10
12.0142238047169
 20
141.6774855251608
 30
0.0
 11
12.01422380471691
 21
138.0774855251607
 31
0.0
  0
SOLID
  5
D0F6
330
D0F1
100
AcDbEntity
  8
0
 62
     0
100
AcDbTrace
 10
12.54755713805023
 20
141.6774855251608
 30
0.0
 11
11.48089047138357
 21
141.6774855251608
 31
0.0
 12
12.01422380471689
 22
144.8774855251608
 32
0.0
 13
12.01422380471689
 23
144.8774855251608
 33
0.0
  0
SOLID
  5
D0F7
330
D0F1
100
AcDbEntity
  8
0
 62
     0
100
AcDbTrace
 10
11.48089047138358
 20
138.0774855251607
 30
0.0
 11
12.54755713805025
 21
138.0774855251607
 31
0.0
 12
12.01422380471692
 22
134.8774855251608
 32
0.0
 13
12.01422380471692
 23
134.8774855251608
 33
0.0
  0
MTEXT
  5
D0F8
330
D0F1
100
AcDbEntity
  8
0
  6
HIDDEN
 62
     0
370
     0
100
AcDbMText
 10
8.014223804716911
 20
139.6544614558491
 30
0.0
 40
3.2
 41
0.0
 71
     2
 72
     1
  1
\A1;10
  7
SLDTEXTSTYLE4
 11
-3.552713678800491E-15
 21
1.0
 31
0.0
 73
     1
 44
1.0
  0
POINT
  5
D225
330
D0F1
100
AcDbEntity
  8
Defpoints
 62
     0
100
AcDbPoint
 10
28.01422380471701
 20
144.8774855251608
 30
0.0
  0
POINT
  5
D226
330
D0F1
100
AcDbEntity
  8
Defpoints
 62
     0
100
AcDbPoint
 10
32.01422380471701
 20
134.8774855251608
 30
0.0
  0
POINT
  5
D227
330
D0F1
100
AcDbEntity
  8
Defpoints
 62
     0
100
AcDbPoint
 10
12.01422380471691
 20
134.8774855251607
 30
0.0
  0
ENDBLK
  5
D0F9
330
D0F1
100
AcDbEntity
  8
0
100
AcDbBlockEnd
  0
BLOCK
  5
D0FC
330
D0FB
100
AcDbEntity
  8
0
100
AcDbBlockBegin
  2
_D_16
 70
     0
 10
0.0
 20
0.0
 30
0.0
  3
_D_16
  1
_D_16
  0
LINE
  5
D0FD
330
D0FB
100
AcDbEntity
  8
0
  6
Continuous
 62
     0
370
    -2
100
AcDbLine
 10
33.95172380471701
 20
131.8760655037653
 30
0.0
 11
4.000000000000035
 21
131.8760655037652
 31
0.0
  0
LINE
  5
D0FE
330
D0FB
100
AcDbEntity
  8
0
  6
Continuous
 62
     0
370
    -2
100
AcDbLine
 10
27.95172380471701
 20
144.8774855251608
 30
0.0
 11
3.99999999999999
 21
144.8774855251607
 31
0.0
  0
LINE
  5
D0FF
330
D0FB
100
AcDbEntity
  8
0
  6
Continuous
 62
     0
370
    -2
100
AcDbLine
 10
4.000000000000023
 20
135.0760655037652
 30
0.0
 11
4.000000000000001
 21
141.6774855251607
 31
0.0
  0
SOLID
  5
D100
330
D0FB
100
AcDbEntity
  8
0
 62
     0
100
AcDbTrace
 10
3.46666666666669
 20
135.0760655037652
 30
0.0
 11
4.533333333333356
 21
135.0760655037652
 31
0.0
 12
4.000000000000035
 22
131.8760655037652
 32
0.0
 13
4.000000000000035
 23
131.8760655037652
 33
0.0
  0
SOLID
  5
D101
330
D0FB
100
AcDbEntity
  8
0
 62
     0
100
AcDbTrace
 10
4.533333333333334
 20
141.6774855251607
 30
0.0
 11
3.466666666666668
 21
141.6774855251607
 31
0.0
 12
3.99999999999999
 22
144.8774855251607
 32
0.0
 13
3.99999999999999
 23
144.8774855251607
 33
0.0
  0
MTEXT
  5
D102
330
D0FB
100
AcDbEntity
  8
0
  6
HIDDEN
 62
     0
370
     0
100
AcDbMText
 10
0.00000000000002
 20
137.8521356193671
 30
0.0
 40
3.2
 41
0.0
 71
     2
 72
     1
  1
\A1;13
  7
SLDTEXTSTYLE4
 11
-3.484011694889031E-15
 21
1.0
 31
0.0
 73
     1
 44
1.0
  0
POINT
  5
D228
330
D0FB
100
AcDbEntity
  8
Defpoints
 62
     0
100
AcDbPoint
 10
34.01422380471701
 20
131.8760655037653
 30
0.0
  0
POINT
  5
D229
330
D0FB
100
AcDbEntity
  8
Defpoints
 62
     0
100
AcDbPoint
 10
28.01422380471701
 20
144.8774855251608
 30
0.0
  0
POINT
  5
D22A
330
D0FB
100
AcDbEntity
  8
Defpoints
 62
     0
100
AcDbPoint
 10
4.000000000000014
 20
144.8774855251607
 30
0.0
  0
ENDBLK
  5
D103
330
D0FB
100
AcDbEntity
  8
0
100
AcDbBlockEnd
  0
BLOCK
  5
D106
330
D105
100
AcDbEntity
  8
0
100
AcDbBlockBegin
  2
_D_17
 70
     0
 10
0.0
 20
0.0
 30
0.0
  3
_D_17
  1
_D_17
  0
LINE
  5
D107
330
D105
100
AcDbEntity
  8
0
  6
Continuous
 62
     0
370
    -2
100
AcDbLine
 10
32.30172380471701
 20
144.5774855251608
 30
0.0
 11
19.38993479611265
 21
144.5774855251608
 31
0.0
  0
LINE
  5
D108
330
D105
100
AcDbEntity
  8
0
  6
Continuous
 62
     0
370
    -2
100
AcDbLine
 10
27.95172380471701
 20
144.8774855251608
 30
0.0
 11
19.38993479611265
 21
144.8774855251608
 31
0.0
  0
LINE
  5
D109
330
D105
100
AcDbEntity
  8
0
  6
Continuous
 62
     0
370
    -2
100
AcDbLine
 10
19.38993479611265
 20
144.8774855251608
 30
0.0
 11
19.38993479611265
 21
166.0774855251608
 31
0.0
  0
LINE
  5
D10A
330
D105
100
AcDbEntity
  8
0
  6
Continuous
 62
     0
370
    -2
100
AcDbLine
 10
19.38993479611265
 20
144.5774855251608
 30
0.0
 11
19.38993479611265
 21
144.8774855251608
 31
0.0
  0
LINE
  5
D10B
330
D105
100
AcDbEntity
  8
0
  6
Continuous
 62
     0
370
    -2
100
AcDbLine
 10
19.38993479611265
 20
141.3774855251608
 30
0.0
 11
19.38993479611265
 21
138.1774855251608
 31
0.0
  0
LINE
  5
D10C
330
D105
100
AcDbEntity
  8
0
  6
Continuous
 62
     0
370
    -2
100
AcDbLine
 10
19.38993479611265
 20
148.0774855251608
 30
0.0
 11
19.38993479611265
 21
151.2774855251608
 31
0.0
  0
SOLID
  5
D10D
330
D105
100
AcDbEntity
  8
0
 62
     0
100
AcDbTrace
 10
19.92326812944598
 20
141.3774855251608
 30
0.0
 11
18.85660146277931
 21
141.3774855251608
 31
0.0
 12
19.38993479611265
 22
144.5774855251608
 32
0.0
 13
19.38993479611265
 23
144.5774855251608
 33
0.0
  0
SOLID
  5
D10E
330
D105
100
AcDbEntity
  8
0
 62
     0
100
AcDbTrace
 10
18.85660146277931
 20
148.0774855251608
 30
0.0
 11
19.92326812944598
 21
148.0774855251608
 31
0.0
 12
19.38993479611265
 22
144.8774855251608
 32
0.0
 13
19.38993479611265
 23
144.8774855251608
 33
0.0
  0
MTEXT
  5
D10F
330
D105
100
AcDbEntity
  8
0
  6
HIDDEN
 62
     0
370
     0
100
AcDbMText
 10
15.38993479611265
 20
158.6774855251608
 30
0.0
 40
3.2
 41
0.0
 71
     2
 72
     1
  1
\A1;0.3x45°
  7
SLDTEXTSTYLE4
 11
0.0
 21
1.0
 31
0.0
 73
     1
 44
1.0
  0
POINT
  5
D22B
330
D105
100
AcDbEntity
  8
Defpoints
 62
     0
100
AcDbPoint
 10
32.36422380471701
 20
144.5774855251608
 30
0.0
  0
POINT
  5
D22C
330
D105
100
AcDbEntity
  8
Defpoints
 62
     0
100
AcDbPoint
 10
28.01422380471701
 20
144.8774855251608
 30
0.0
  0
POINT
  5
D22D
330
D105
100
AcDbEntity
  8
Defpoints
 62
     0
100
AcDbPoint
 10
19.38993479611265
 20
144.8774855251608
 30
0.0
  0
ENDBLK
  5
D110
330
D105
100
AcDbEntity
  8
0
100
AcDbBlockEnd
  0
BLOCK
  5
D113
330
D112
100
AcDbEntity
  8
0
100
AcDbBlockBegin
  2
_D_18
 70
     0
 10
0.0
 20
0.0
 30
0.0
  3
_D_18
  1
_D_18
  0
LINE
  5
D114
330
D112
100
AcDbEntity
  8
0
  6
Continuous
 62
     0
370
    -2
100
AcDbLine
 10
56.07672380471701
 20
144.8774855251608
 30
0.0
 11
75.97298420987501
 21
144.8774855251609
 31
0.0
  0
LINE
  5
D115
330
D112
100
AcDbEntity
  8
0
  6
Continuous
 62
     0
370
    -2
100
AcDbLine
 10
49.776723804717
 20
134.3774855251608
 30
0.0
 11
75.97298420987505
 21
134.3774855251609
 31
0.0
  0
LINE
  5
D116
330
D112
100
AcDbEntity
  8
0
  6
Continuous
 62
     0
370
    -2
100
AcDbLine
 10
75.97298420987502
 20
141.6774855251609
 30
0.0
 11
75.97298420987504
 21
137.5774855251609
 31
0.0
  0
SOLID
  5
D117
330
D112
100
AcDbEntity
  8
0
 62
     0
100
AcDbTrace
 10
76.50631754320835
 20
141.6774855251609
 30
0.0
 11
75.43965087654169
 21
141.6774855251609
 31
0.0
 12
75.97298420987501
 22
144.8774855251609
 32
0.0
 13
75.97298420987501
 23
144.8774855251609
 33
0.0
  0
SOLID
  5
D118
330
D112
100
AcDbEntity
  8
0
 62
     0
100
AcDbTrace
 10
75.4396508765417
 20
137.5774855251609
 30
0.0
 11
76.50631754320837
 21
137.5774855251609
 31
0.0
 12
75.97298420987505
 22
134.3774855251609
 32
0.0
 13
75.97298420987505
 23
134.3774855251609
 33
0.0
  0
MTEXT
  5
D119
330
D112
100
AcDbEntity
  8
0
  6
HIDDEN
 62
     0
370
     0
100
AcDbMText
 10
71.97298420987504
 20
139.6544614558492
 30
0.0
 40
3.2
 41
0.0
 71
     2
 72
     1
  1
\A1;10.5
  7
SLDTEXTSTYLE4
 11
-4.060244204343429E-15
 21
1.0
 31
0.0
 73
     1
 44
1.0
  0
POINT
  5
D11A
330
D112
100
AcDbEntity
  8
Defpoints
 62
     0
100
AcDbPoint
 10
56.01422380471701
 20
144.8774855251608
 30
0.0
  0
POINT
  5
D11B
330
D112
100
AcDbEntity
  8
Defpoints
 62
     0
100
AcDbPoint
 10
49.714223804717
 20
134.3774855251608
 30
0.0
  0
POINT
  5
D22E
330
D112
100
AcDbEntity
  8
Defpoints
 62
     0
100
AcDbPoint
 10
75.97298420987502
 20
134.3774855251609
 30
0.0
  0
ENDBLK
  5
D11C
330
D112
100
AcDbEntity
  8
0
100
AcDbBlockEnd
  0
BLOCK
  5
D12B
330
D12A
100
AcDbEntity
  8
0
100
AcDbBlockBegin
  2
SW_CENTERMARKSYMBOL_1
 70
     0
 10
0.0
 20
0.0
 30
0.0
  3
SW_CENTERMARKSYMBOL_1
  1
SW_CENTERMARKSYMBOL_1
  0
LINE
  5
D12C
330
D12A
100
AcDbEntity
  8
0
  6
Continuous
 62
     0
370
     0
100
AcDbLine
 10
0.0
 20
0.0
 30
0.0
 11
0.0
 21
2.500000000000002
 31
0.0
  0
LINE
  5
D12D
330
D12A
100
AcDbEntity
  8
0
  6
Continuous
 62
     0
370
     0
100
AcDbLine
 10
0.0
 20
0.0
 30
0.0
 11
-2.500000000000002
 21
0.0
 31
0.0
  0
LINE
  5
D12E
330
D12A
100
AcDbEntity
  8
0
  6
Continuous
 62
     0
370
     0
100
AcDbLine
 10
0.0
 20
0.0
 30
0.0
 11
0.0
 21
-2.500000000000002
 31
0.0
  0
LINE
  5
D12F
330
D12A
100
AcDbEntity
  8
0
  6
Continuous
 62
     0
370
     0
100
AcDbLine
 10
0.0
 20
0.0
 30
0.0
 11
2.500000000000002
 21
0.0
 31
0.0
  0
LINE
  5
D130
330
D12A
100
AcDbEntity
  8
0
  6
Continuous
 62
     0
370
     0
100
AcDbLine
 10
0.0
 20
4.999999999999977
 30
0.0
 11
0.0
 21
7.699999999999985
 31
0.0
  0
LINE
  5
D131
330
D12A
100
AcDbEntity
  8
0
  6
Continuous
 62
     0
370
     0
100
AcDbLine
 10
-5.000000000000004
 20
0.0
 30
0.0
 11
-7.699999999999998
 21
0.0
 31
0.0
  0
LINE
  5
D132
330
D12A
100
AcDbEntity
  8
0
  6
Continuous
 62
     0
370
     0
100
AcDbLine
 10
0.0
 20
-5.000000000000004
 30
0.0
 11
0.0
 21
-7.700000000000013
 31
0.0
  0
LINE
  5
D133
330
D12A
100
AcDbEntity
  8
0
  6
Continuous
 62
     0
370
     0
100
AcDbLine
 10
5.000000000000004
 20
0.0
 30
0.0
 11
7.699999999999998
 21
0.0
 31
0.0
  0
ENDBLK
  5
D134
330
D12A
100
AcDbEntity
  8
0
100
AcDbBlockEnd
  0
BLOCK
  5
D137
330
D136
100
AcDbEntity
  8
0
100
AcDbBlockBegin
  2
SW_CENTERMARKSYMBOL_2
 70
     0
 10
0.0
 20
0.0
 30
0.0
  3
SW_CENTERMARKSYMBOL_2
  1
SW_CENTERMARKSYMBOL_2
  0
LINE
  5
D138
330
D136
100
AcDbEntity
  8
0
  6
Continuous
 62
     0
370
     0
100
AcDbLine
 10
0.0
 20
0.0
 30
0.0
 11
0.0
 21
2.500000000000002
 31
0.0
  0
LINE
  5
D139
330
D136
100
AcDbEntity
  8
0
  6
Continuous
 62
     0
370
     0
100
AcDbLine
 10
0.0
 20
0.0
 30
0.0
 11
-2.500000000000002
 21
0.0
 31
0.0
  0
LINE
  5
D13A
330
D136
100
AcDbEntity
  8
0
  6
Continuous
 62
     0
370
     0
100
AcDbLine
 10
0.0
 20
0.0
 30
0.0
 11
0.0
 21
-2.500000000000002
 31
0.0
  0
LINE
  5
D13B
330
D136
100
AcDbEntity
  8
0
  6
Continuous
 62
     0
370
     0
100
AcDbLine
 10
0.0
 20
0.0
 30
0.0
 11
2.499999999999995
 21
0.0
 31
0.0
  0
LINE
  5
D13C
330
D136
100
AcDbEntity
  8
0
  6
Continuous
 62
     0
370
     0
100
AcDbLine
 10
0.0
 20
5.000000000000004
 30
0.0
 11
0.0
 21
7.699999999999985
 31
0.0
  0
LINE
  5
D13D
330
D136
100
AcDbEntity
  8
0
  6
Continuous
 62
     0
370
     0
100
AcDbLine
 10
-4.999999999999997
 20
0.0
 30
0.0
 11
-7.699999999999998
 21
0.0
 31
0.0
  0
LINE
  5
D13E
330
D136
100
AcDbEntity
  8
0
  6
Continuous
 62
     0
370
     0
100
AcDbLine
 10
0.0
 20
-5.000000000000004
 30
0.0
 11
0.0
 21
-7.700000000000013
 31
0.0
  0
LINE
  5
D13F
330
D136
100
AcDbEntity
  8
0
  6
Continuous
 62
     0
370
     0
100
AcDbLine
 10
4.999999999999997
 20
0.0
 30
0.0
 11
7.700000000000006
 21
0.0
 31
0.0
  0
ENDBLK
  5
D140
330
D136
100
AcDbEntity
  8
0
100
AcDbBlockEnd
  0
BLOCK
  5
D168
330
D167
100
AcDbEntity
  8
0
100
AcDbBlockBegin
  2
_D_19
 70
     0
 10
0.0
 20
0.0
 30
0.0
  3
_D_19
  1
_D_19
  0
LINE
  5
D169
330
D167
100
AcDbEntity
  8
0
  6
Continuous
 62
     0
370
    -2
100
AcDbLine
 10
27.95172380471703
 20
73.83536970474518
 30
0.0
 11
19.69666748393385
 21
73.83536970474515
 31
0.0
  0
LINE
  5
D16A
330
D167
100
AcDbEntity
  8
0
  6
Continuous
 62
     0
370
    -2
100
AcDbLine
 10
31.45172380471697
 20
59.83536970474523
 30
0.0
 11
19.6966674839339
 21
59.83536970474519
 31
0.0
  0
LINE
  5
D16B
330
D167
100
AcDbEntity
  8
0
  6
Continuous
 62
     0
370
    -2
100
AcDbLine
 10
19.69666748393387
 20
70.63536970474514
 30
0.0
 11
19.69666748393389
 21
63.03536970474519
 31
0.0
  0
SOLID
  5
D16C
330
D167
100
AcDbEntity
  8
0
 62
     0
100
AcDbTrace
 10
20.2300008172672
 20
70.63536970474514
 30
0.0
 11
19.16333415060053
 21
70.63536970474514
 31
0.0
 12
19.69666748393385
 22
73.83536970474515
 32
0.0
 13
19.69666748393385
 23
73.83536970474515
 33
0.0
  0
SOLID
  5
D16D
330
D167
100
AcDbEntity
  8
0
 62
     0
100
AcDbTrace
 10
19.16333415060056
 20
63.03536970474519
 30
0.0
 11
20.23000081726723
 21
63.03536970474519
 31
0.0
 12
19.6966674839339
 22
59.83536970474519
 32
0.0
 13
19.6966674839339
 23
59.83536970474519
 33
0.0
  0
MTEXT
  5
D16E
330
D167
100
AcDbEntity
  8
0
  6
HIDDEN
 62
     0
370
     0
100
AcDbMText
 10
15.69666748393388
 20
67.05368711346044
 30
0.0
 40
3.2
 41
0.0
 71
     2
 72
     1
  1
\A1;14
  7
SLDTEXTSTYLE4
 11
-3.552713678800512E-15
 21
1.0
 31
0.0
 73
     1
 44
1.0
  0
POINT
  5
D22F
330
D167
100
AcDbEntity
  8
Defpoints
 62
     0
100
AcDbPoint
 10
28.01422380471703
 20
73.83536970474518
 30
0.0
  0
POINT
  5
D230
330
D167
100
AcDbEntity
  8
Defpoints
 62
     0
100
AcDbPoint
 10
31.51422380471697
 20
59.83536970474523
 30
0.0
  0
POINT
  5
D231
330
D167
100
AcDbEntity
  8
Defpoints
 62
     0
100
AcDbPoint
 10
19.69666748393386
 20
59.83536970474519
 30
0.0
  0
ENDBLK
  5
D16F
330
D167
100
AcDbEntity
  8
0
100
AcDbBlockEnd
  0
BLOCK
  5
D172
330
D171
100
AcDbEntity
  8
0
100
AcDbBlockBegin
  2
_D_20
 70
     0
 10
0.0
 20
0.0
 30
0.0
  3
_D_20
  1
_D_20
  0
LINE
  5
D173
330
D171
100
AcDbEntity
  8
0
  6
Continuous
 62
     0
370
    -2
100
AcDbLine
 10
27.95172380471703
 20
73.83536970474518
 30
0.0
 11
12.01422380471687
 21
73.83536970474512
 31
0.0
  0
LINE
  5
D174
330
D171
100
AcDbEntity
  8
0
  6
Continuous
 62
     0
370
    -2
100
AcDbLine
 10
41.95172380471694
 20
49.8353697047452
 30
0.0
 11
12.01422380471695
 21
49.8353697047451
 31
0.0
  0
LINE
  5
D175
330
D171
100
AcDbEntity
  8
0
  6
Continuous
 62
     0
370
    -2
100
AcDbLine
 10
12.01422380471688
 20
70.63536970474512
 30
0.0
 11
12.01422380471694
 21
53.0353697047451
 31
0.0
  0
SOLID
  5
D176
330
D171
100
AcDbEntity
  8
0
 62
     0
100
AcDbTrace
 10
12.54755713805021
 20
70.63536970474512
 30
0.0
 11
11.48089047138355
 21
70.63536970474512
 31
0.0
 12
12.01422380471687
 22
73.83536970474512
 32
0.0
 13
12.01422380471687
 23
73.83536970474512
 33
0.0
  0
SOLID
  5
D177
330
D171
100
AcDbEntity
  8
0
 62
     0
100
AcDbTrace
 10
11.48089047138361
 20
53.0353697047451
 30
0.0
 11
12.54755713805028
 21
53.0353697047451
 31
0.0
 12
12.01422380471695
 22
49.8353697047451
 32
0.0
 13
12.01422380471695
 23
49.8353697047451
 33
0.0
  0
MTEXT
  5
D178
330
D171
100
AcDbEntity
  8
0
  6
HIDDEN
 62
     0
370
     0
100
AcDbMText
 10
8.014223804716908
 20
63.37087677820521
 30
0.0
 40
3.2
 41
0.0
 71
     2
 72
     1
  1
\A1;24
  7
SLDTEXTSTYLE4
 11
-3.478698810492153E-15
 21
1.0
 31
0.0
 73
     1
 44
1.0
  0
POINT
  5
D232
330
D171
100
AcDbEntity
  8
Defpoints
 62
     0
100
AcDbPoint
 10
28.01422380471703
 20
73.83536970474518
 30
0.0
  0
POINT
  5
D233
330
D171
100
AcDbEntity
  8
Defpoints
 62
     0
100
AcDbPoint
 10
42.01422380471694
 20
49.8353697047452
 30
0.0
  0
POINT
  5
D234
330
D171
100
AcDbEntity
  8
Defpoints
 62
     0
100
AcDbPoint
 10
12.01422380471686
 20
49.83536970474509
 30
0.0
  0
ENDBLK
  5
D179
330
D171
100
AcDbEntity
  8
0
100
AcDbBlockEnd
  0
BLOCK
  5
D17C
330
D17B
100
AcDbEntity
  8
0
100
AcDbBlockBegin
  2
_D_21
 70
     0
 10
0.0
 20
0.0
 30
0.0
  3
_D_21
  1
_D_21
  0
LINE
  5
D17D
330
D17B
100
AcDbEntity
  8
0
  6
Continuous
 62
     0
370
    -2
100
AcDbLine
 10
36.01422380471698
 20
64.3978697047452
 30
0.0
 11
36.01422380471698
 21
80.45522621732579
 31
0.0
  0
LINE
  5
D17E
330
D17B
100
AcDbEntity
  8
0
  6
Continuous
 62
     0
370
    -2
100
AcDbLine
 10
48.01422380471697
 20
64.39786970474518
 30
0.0
 11
48.01422380471697
 21
80.45522621732579
 31
0.0
  0
LINE
  5
D17F
330
D17B
100
AcDbEntity
  8
0
  6
Continuous
 62
     0
370
    -2
100
AcDbLine
 10
39.21422380471698
 20
80.45522621732579
 30
0.0
 11
44.81422380471697
 21
80.45522621732579
 31
0.0
  0
SOLID
  5
D180
330
D17B
100
AcDbEntity
  8
0
 62
     0
100
AcDbTrace
 10
39.21422380471698
 20
80.98855955065912
 30
0.0
 11
39.21422380471698
 21
79.92189288399246
 31
0.0
 12
36.01422380471698
 22
80.45522621732579
 32
0.0
 13
36.01422380471698
 23
80.45522621732579
 33
0.0
  0
SOLID
  5
D181
330
D17B
100
AcDbEntity
  8
0
 62
     0
100
AcDbTrace
 10
44.81422380471697
 20
79.92189288399246
 30
0.0
 11
44.81422380471697
 21
80.98855955065912
 31
0.0
 12
48.01422380471697
 22
80.45522621732579
 32
0.0
 13
48.01422380471697
 23
80.45522621732579
 33
0.0
  0
MTEXT
  5
D182
330
D17B
100
AcDbEntity
  8
0
  6
HIDDEN
 62
     0
370
     0
100
AcDbMText
 10
41.92600875374624
 20
84.45522621732577
 30
0.0
 40
3.2
 41
0.0
 71
     2
 72
     1
  1
\A1;12
  7
SLDTEXTSTYLE4
 73
     1
 44
1.0
  0
POINT
  5
D235
330
D17B
100
AcDbEntity
  8
Defpoints
 62
     0
100
AcDbPoint
 10
36.01422380471698
 20
64.3353697047452
 30
0.0
  0
POINT
  5
D236
330
D17B
100
AcDbEntity
  8
Defpoints
 62
     0
100
AcDbPoint
 10
48.01422380471697
 20
64.33536970474518
 30
0.0
  0
POINT
  5
D237
330
D17B
100
AcDbEntity
  8
Defpoints
 62
     0
100
AcDbPoint
 10
48.01422380471697
 20
80.45522621732579
 30
0.0
  0
ENDBLK
  5
D183
330
D17B
100
AcDbEntity
  8
0
100
AcDbBlockEnd
  0
BLOCK
  5
D186
330
D185
100
AcDbEntity
  8
0
100
AcDbBlockBegin
  2
_D_22
 70
     0
 10
0.0
 20
0.0
 30
0.0
  3
_D_22
  1
_D_22
  0
LINE
  5
D187
330
D185
100
AcDbEntity
  8
0
  6
Continuous
 62
     0
370
    -2
100
AcDbLine
 10
28.01422380471703
 20
73.89786970474518
 30
0.0
 11
28.01422380471703
 21
88.78256725558583
 31
0.0
  0
LINE
  5
D188
330
D185
100
AcDbEntity
  8
0
  6
Continuous
 62
     0
370
    -2
100
AcDbLine
 10
56.01422380471703
 20
73.89786970474509
 30
0.0
 11
56.01422380471703
 21
88.78256725558583
 31
0.0
  0
LINE
  5
D189
330
D185
100
AcDbEntity
  8
0
  6
Continuous
 62
     0
370
    -2
100
AcDbLine
 10
31.21422380471703
 20
88.78256725558583
 30
0.0
 11
52.81422380471702
 21
88.78256725558583
 31
0.0
  0
SOLID
  5
D18A
330
D185
100
AcDbEntity
  8
0
 62
     0
100
AcDbTrace
 10
31.21422380471703
 20
89.31590058891916
 30
0.0
 11
31.21422380471703
 21
88.2492339222525
 31
0.0
 12
28.01422380471703
 22
88.78256725558583
 32
0.0
 13
28.01422380471703
 23
88.78256725558583
 33
0.0
  0
SOLID
  5
D18B
330
D185
100
AcDbEntity
  8
0
 62
     0
100
AcDbTrace
 10
52.81422380471702
 20
88.2492339222525
 30
0.0
 11
52.81422380471702
 21
89.31590058891916
 31
0.0
 12
56.01422380471703
 22
88.78256725558583
 32
0.0
 13
56.01422380471703
 23
88.78256725558583
 33
0.0
  0
MTEXT
  5
D18C
330
D185
100
AcDbEntity
  8
0
  6
HIDDEN
 62
     0
370
     0
100
AcDbMText
 10
41.92600875374625
 20
92.78256725558582
 30
0.0
 40
3.2
 41
0.0
 71
     2
 72
     1
  1
\A1;28
  7
SLDTEXTSTYLE4
 73
     1
 44
1.0
  0
POINT
  5
D238
330
D185
100
AcDbEntity
  8
Defpoints
 62
     0
100
AcDbPoint
 10
28.01422380471703
 20
73.83536970474518
 30
0.0
  0
POINT
  5
D239
330
D185
100
AcDbEntity
  8
Defpoints
 62
     0
100
AcDbPoint
 10
56.01422380471703
 20
73.83536970474509
 30
0.0
  0
POINT
  5
D23A
330
D185
100
AcDbEntity
  8
Defpoints
 62
     0
100
AcDbPoint
 10
56.01422380471703
 20
88.78256725558578
 30
0.0
  0
ENDBLK
  5
D18D
330
D185
100
AcDbEntity
  8
0
100
AcDbBlockEnd
  0
BLOCK
  5
D190
330
D18F
100
AcDbEntity
  8
0
100
AcDbBlockBegin
  2
_D_23
 70
     0
 10
0.0
 20
0.0
 30
0.0
  3
_D_23
  1
_D_23
  0
LINE
  5
D191
330
D18F
100
AcDbEntity
  8
0
  6
Continuous
 62
     0
370
    -2
100
AcDbLine
 10
48.01422380471697
 20
64.39786970474518
 30
0.0
 11
48.01422380471697
 21
80.45522621732567
 31
0.0
  0
LINE
  5
D192
330
D18F
100
AcDbEntity
  8
0
  6
Continuous
 62
     0
370
    -2
100
AcDbLine
 10
56.01422380471703
 20
73.89786970474509
 30
0.0
 11
56.01422380471703
 21
80.45522621732567
 31
0.0
  0
LINE
  5
D193
330
D18F
100
AcDbEntity
  8
0
  6
Continuous
 62
     0
370
    -2
100
AcDbLine
 10
51.21422380471697
 20
80.45522621732567
 30
0.0
 11
52.81422380471702
 21
80.45522621732567
 31
0.0
  0
SOLID
  5
D194
330
D18F
100
AcDbEntity
  8
0
 62
     0
100
AcDbTrace
 10
51.21422380471697
 20
80.988559550659
 30
0.0
 11
51.21422380471697
 21
79.92189288399234
 31
0.0
 12
48.01422380471697
 22
80.45522621732567
 32
0.0
 13
48.01422380471697
 23
80.45522621732567
 33
0.0
  0
SOLID
  5
D195
330
D18F
100
AcDbEntity
  8
0
 62
     0
100
AcDbTrace
 10
52.81422380471702
 20
79.92189288399234
 30
0.0
 11
52.81422380471702
 21
80.988559550659
 31
0.0
 12
56.01422380471703
 22
80.45522621732567
 32
0.0
 13
56.01422380471703
 23
80.45522621732567
 33
0.0
  0
MTEXT
  5
D196
330
D18F
100
AcDbEntity
  8
0
  6
HIDDEN
 62
     0
370
     0
100
AcDbMText
 10
52.14964961117376
 20
84.45522621732566
 30
0.0
 40
3.2
 41
0.0
 71
     2
 72
     1
  1
\A1;8
  7
SLDTEXTSTYLE4
 73
     1
 44
1.0
  0
POINT
  5
D197
330
D18F
100
AcDbEntity
  8
Defpoints
 62
     0
100
AcDbPoint
 10
48.01422380471697
 20
64.33536970474518
 30
0.0
  0
POINT
  5
D198
330
D18F
100
AcDbEntity
  8
Defpoints
 62
     0
100
AcDbPoint
 10
56.01422380471703
 20
73.83536970474509
 30
0.0
  0
POINT
  5
D23B
330
D18F
100
AcDbEntity
  8
Defpoints
 62
     0
100
AcDbPoint
 10
56.01422380471703
 20
80.45522621732567
 30
0.0
  0
ENDBLK
  5
D199
330
D18F
100
AcDbEntity
  8
0
100
AcDbBlockEnd
  0
BLOCK
  5
D19C
330
D19B
100
AcDbEntity
  8
0
100
AcDbBlockBegin
  2
_D_24
 70
     0
 10
0.0
 20
0.0
 30
0.0
  3
_D_24
  1
_D_24
  0
LINE
  5
D19D
330
D19B
100
AcDbEntity
  8
0
  6
Continuous
 62
     0
370
    -2
100
AcDbLine
 10
36.01422380471698
 20
64.3978697047452
 30
0.0
 11
36.01422380471698
 21
80.4552262173257
 31
0.0
  0
LINE
  5
D19E
330
D19B
100
AcDbEntity
  8
0
  6
Continuous
 62
     0
370
    -2
100
AcDbLine
 10
28.01422380471703
 20
73.89786970474518
 30
0.0
 11
28.01422380471703
 21
80.4552262173257
 31
0.0
  0
LINE
  5
D19F
330
D19B
100
AcDbEntity
  8
0
  6
Continuous
 62
     0
370
    -2
100
AcDbLine
 10
32.81422380471697
 20
80.4552262173257
 30
0.0
 11
31.21422380471703
 21
80.4552262173257
 31
0.0
  0
SOLID
  5
D1A0
330
D19B
100
AcDbEntity
  8
0
 62
     0
100
AcDbTrace
 10
32.81422380471697
 20
79.92189288399237
 30
0.0
 11
32.81422380471697
 21
80.98855955065903
 31
0.0
 12
36.01422380471698
 22
80.4552262173257
 32
0.0
 13
36.01422380471698
 23
80.4552262173257
 33
0.0
  0
SOLID
  5
D1A1
330
D19B
100
AcDbEntity
  8
0
 62
     0
100
AcDbTrace
 10
31.21422380471703
 20
80.98855955065903
 30
0.0
 11
31.21422380471703
 21
79.92189288399237
 31
0.0
 12
28.01422380471703
 22
80.4552262173257
 32
0.0
 13
28.01422380471703
 23
80.4552262173257
 33
0.0
  0
MTEXT
  5
D1A2
330
D19B
100
AcDbEntity
  8
0
  6
HIDDEN
 62
     0
370
     0
100
AcDbMText
 10
32.80014163810432
 20
84.45522621732569
 30
0.0
 40
3.2
 41
0.0
 71
     2
 72
     1
  1
\A1;8
  7
SLDTEXTSTYLE4
 73
     1
 44
1.0
  0
POINT
  5
D1A3
330
D19B
100
AcDbEntity
  8
Defpoints
 62
     0
100
AcDbPoint
 10
36.01422380471698
 20
64.3353697047452
 30
0.0
  0
POINT
  5
D1A4
330
D19B
100
AcDbEntity
  8
Defpoints
 62
     0
100
AcDbPoint
 10
28.01422380471703
 20
73.83536970474518
 30
0.0
  0
POINT
  5
D23C
330
D19B
100
AcDbEntity
  8
Defpoints
 62
     0
100
AcDbPoint
 10
28.01422380471703
 20
80.45522621732573
 30
0.0
  0
ENDBLK
  5
D1A5
330
D19B
100
AcDbEntity
  8
0
100
AcDbBlockEnd
  0
BLOCK
  5
D1A8
330
D1A7
100
AcDbEntity
  8
0
100
AcDbBlockBegin
  2
SW_CENTERMARKSYMBOL_3
 70
     0
 10
0.0
 20
0.0
 30
0.0
  3
SW_CENTERMARKSYMBOL_3
  1
SW_CENTERMARKSYMBOL_3
  0
LINE
  5
D1A9
330
D1A7
100
AcDbEntity
  8
0
  6
Continuous
 62
     0
370
     0
100
AcDbLine
 10
0.0
 20
0.0
 30
0.0
 11
0.0
 21
2.500000000000002
 31
0.0
  0
LINE
  5
D1AA
330
D1A7
100
AcDbEntity
  8
0
  6
Continuous
 62
     0
370
     0
100
AcDbLine
 10
0.0
 20
0.0
 30
0.0
 11
-2.500000000000002
 21
0.0
 31
0.0
  0
LINE
  5
D1AB
330
D1A7
100
AcDbEntity
  8
0
  6
Continuous
 62
     0
370
     0
100
AcDbLine
 10
0.0
 20
0.0
 30
0.0
 11
0.0
 21
-2.500000000000002
 31
0.0
  0
LINE
  5
D1AC
330
D1A7
100
AcDbEntity
  8
0
  6
Continuous
 62
     0
370
     0
100
AcDbLine
 10
0.0
 20
0.0
 30
0.0
 11
2.500000000000002
 21
0.0
 31
0.0
  0
LINE
  5
D1AD
330
D1A7
100
AcDbEntity
  8
0
  6
Continuous
 62
     0
370
     0
100
AcDbLine
 10
0.0
 20
2.500000000000002
 30
0.0
 11
0.0
 21
39.71854213812823
 31
0.0
  0
LINE
  5
D1AE
330
D1A7
100
AcDbEntity
  8
0
  6
Continuous
 62
     0
370
     0
100
AcDbLine
 10
-2.500000000000002
 20
0.0
 30
0.0
 11
-4.999999999999997
 21
0.0
 31
0.0
  0
LINE
  5
D1AF
330
D1A7
100
AcDbEntity
  8
0
  6
Continuous
 62
     0
370
     0
100
AcDbLine
 10
0.0
 20
-2.500000000000002
 30
0.0
 11
0.0
 21
-11.29325963163111
 31
0.0
  0
LINE
  5
D1B0
330
D1A7
100
AcDbEntity
  8
0
  6
Continuous
 62
     0
370
     0
100
AcDbLine
 10
2.500000000000002
 20
0.0
 30
0.0
 11
4.99999999999999
 21
0.0
 31
0.0
  0
ENDBLK
  5
D1B1
330
D1A7
100
AcDbEntity
  8
0
100
AcDbBlockEnd
  0
BLOCK
  5
D1B4
330
D1B3
100
AcDbEntity
  8
0
100
AcDbBlockBegin
  2
SW_CENTERMARKSYMBOL_4
 70
     0
 10
0.0
 20
0.0
 30
0.0
  3
SW_CENTERMARKSYMBOL_4
  1
SW_CENTERMARKSYMBOL_4
  0
LINE
  5
D1B5
330
D1B3
100
AcDbEntity
  8
0
  6
Continuous
 62
     0
370
     0
100
AcDbLine
 10
0.0
 20
0.0
 30
0.0
 11
0.0
 21
2.500000000000002
 31
0.0
  0
LINE
  5
D1B6
330
D1B3
100
AcDbEntity
  8
0
  6
Continuous
 62
     0
370
     0
100
AcDbLine
 10
0.0
 20
0.0
 30
0.0
 11
-2.499999999999995
 21
0.0
 31
0.0
  0
LINE
  5
D1B7
330
D1B3
100
AcDbEntity
  8
0
  6
Continuous
 62
     0
370
     0
100
AcDbLine
 10
0.0
 20
0.0
 30
0.0
 11
0.0
 21
-2.500000000000002
 31
0.0
  0
LINE
  5
D1B8
330
D1B3
100
AcDbEntity
  8
0
  6
Continuous
 62
     0
370
     0
100
AcDbLine
 10
0.0
 20
0.0
 30
0.0
 11
2.500000000000002
 21
0.0
 31
0.0
  0
LINE
  5
D1B9
330
D1B3
100
AcDbEntity
  8
0
  6
Continuous
 62
     0
370
     0
100
AcDbLine
 10
0.0
 20
2.500000000000002
 30
0.0
 11
0.0
 21
4.500000000000004
 31
0.0
  0
LINE
  5
D1BA
330
D1B3
100
AcDbEntity
  8
0
  6
Continuous
 62
     0
370
     0
100
AcDbLine
 10
-2.499999999999995
 20
0.0
 30
0.0
 11
-4.499999999999997
 21
0.0
 31
0.0
  0
LINE
  5
D1BB
330
D1B3
100
AcDbEntity
  8
0
  6
Continuous
 62
     0
370
     0
100
AcDbLine
 10
0.0
 20
-2.500000000000002
 30
0.0
 11
0.0
 21
-4.500000000000004
 31
0.0
  0
LINE
  5
D1BC
330
D1B3
100
AcDbEntity
  8
0
  6
Continuous
 62
     0
370
     0
100
AcDbLine
 10
2.500000000000002
 20
0.0
 30
0.0
 11
4.500000000000004
 21
0.0
 31
0.0
  0
ENDBLK
  5
D1BD
330
D1B3
100
AcDbEntity
  8
0
100
AcDbBlockEnd
  0
BLOCK
  5
D1C0
330
D1BF
100
AcDbEntity
  8
0
100
AcDbBlockBegin
  2
SW_CENTERMARKSYMBOL_5
 70
     0
 10
0.0
 20
0.0
 30
0.0
  3
SW_CENTERMARKSYMBOL_5
  1
SW_CENTERMARKSYMBOL_5
  0
LINE
  5
D1C1
330
D1BF
100
AcDbEntity
  8
0
  6
Continuous
 62
     0
370
     0
100
AcDbLine
 10
0.0
 20
0.0
 30
0.0
 11
0.0
 21
2.500000000000002
 31
0.0
  0
LINE
  5
D1C2
330
D1BF
100
AcDbEntity
  8
0
  6
Continuous
 62
     0
370
     0
100
AcDbLine
 10
0.0
 20
0.0
 30
0.0
 11
-2.500000000000002
 21
0.0
 31
0.0
  0
LINE
  5
D1C3
330
D1BF
100
AcDbEntity
  8
0
  6
Continuous
 62
     0
370
     0
100
AcDbLine
 10
0.0
 20
0.0
 30
0.0
 11
0.0
 21
-2.500000000000002
 31
0.0
  0
LINE
  5
D1C4
330
D1BF
100
AcDbEntity
  8
0
  6
Continuous
 62
     0
370
     0
100
AcDbLine
 10
0.0
 20
0.0
 30
0.0
 11
2.500000000000002
 21
0.0
 31
0.0
  0
LINE
  5
D1C5
330
D1BF
100
AcDbEntity
  8
0
  6
Continuous
 62
     0
370
     0
100
AcDbLine
 10
0.0
 20
2.500000000000002
 30
0.0
 11
0.0
 21
4.500000000000004
 31
0.0
  0
LINE
  5
D1C6
330
D1BF
100
AcDbEntity
  8
0
  6
Continuous
 62
     0
370
     0
100
AcDbLine
 10
-2.500000000000002
 20
0.0
 30
0.0
 11
-4.500000000000004
 21
0.0
 31
0.0
  0
LINE
  5
D1C7
330
D1BF
100
AcDbEntity
  8
0
  6
Continuous
 62
     0
370
     0
100
AcDbLine
 10
0.0
 20
-2.500000000000002
 30
0.0
 11
0.0
 21
-4.500000000000004
 31
0.0
  0
LINE
  5
D1C8
330
D1BF
100
AcDbEntity
  8
0
  6
Continuous
 62
     0
370
     0
100
AcDbLine
 10
2.500000000000002
 20
0.0
 30
0.0
 11
4.500000000000004
 21
0.0
 31
0.0
  0
ENDBLK
  5
D1C9
330
D1BF
100
AcDbEntity
  8
0
100
AcDbBlockEnd
  0
BLOCK
  5
D1CC
330
D1CB
100
AcDbEntity
  8
0
100
AcDbBlockBegin
  2
SW_CENTERMARKSYMBOL_6
 70
     0
 10
0.0
 20
0.0
 30
0.0
  3
SW_CENTERMARKSYMBOL_6
  1
SW_CENTERMARKSYMBOL_6
  0
LINE
  5
D1CD
330
D1CB
100
AcDbEntity
  8
0
  6
Continuous
 62
     0
370
     0
100
AcDbLine
 10
0.0
 20
0.0
 30
0.0
 11
0.0
 21
2.500000000000002
 31
0.0
  0
LINE
  5
D1CE
330
D1CB
100
AcDbEntity
  8
0
  6
Continuous
 62
     0
370
     0
100
AcDbLine
 10
0.0
 20
0.0
 30
0.0
 11
-2.499999999999995
 21
0.0
 31
0.0
  0
LINE
  5
D1CF
330
D1CB
100
AcDbEntity
  8
0
  6
Continuous
 62
     0
370
     0
100
AcDbLine
 10
0.0
 20
0.0
 30
0.0
 11
0.0
 21
-2.500000000000002
 31
0.0
  0
LINE
  5
D1D0
330
D1CB
100
AcDbEntity
  8
0
  6
Continuous
 62
     0
370
     0
100
AcDbLine
 10
0.0
 20
0.0
 30
0.0
 11
2.500000000000002
 21
0.0
 31
0.0
  0
LINE
  5
D1D1
330
D1CB
100
AcDbEntity
  8
0
  6
Continuous
 62
     0
370
     0
100
AcDbLine
 10
0.0
 20
2.500000000000002
 30
0.0
 11
0.0
 21
4.449999999999954
 31
0.0
  0
LINE
  5
D1D2
330
D1CB
100
AcDbEntity
  8
0
  6
Continuous
 62
     0
370
     0
100
AcDbLine
 10
-2.499999999999995
 20
0.0
 30
0.0
 11
-4.449999999999974
 21
0.0
 31
0.0
  0
LINE
  5
D1D3
330
D1CB
100
AcDbEntity
  8
0
  6
Continuous
 62
     0
370
     0
100
AcDbLine
 10
0.0
 20
-2.500000000000002
 30
0.0
 11
0.0
 21
-4.449999999999982
 31
0.0
  0
LINE
  5
D1D4
330
D1CB
100
AcDbEntity
  8
0
  6
Continuous
 62
     0
370
     0
100
AcDbLine
 10
2.500000000000002
 20
0.0
 30
0.0
 11
4.449999999999982
 21
0.0
 31
0.0
  0
ENDBLK
  5
D1D5
330
D1CB
100
AcDbEntity
  8
0
100
AcDbBlockEnd
  0
BLOCK
  5
DE59
330
DE58
100
AcDbEntity
  8
0
100
AcDbBlockBegin
  2
SW_NOTE_0
 70
     0
 10
0.0
 20
0.0
 30
0.0
  3
SW_NOTE_0
  1
SW_NOTE_0
  0
MTEXT
  5
DE5A
330
DE58
100
AcDbEntity
  8
0
  6
Continuous
 62
     0
370
     0
100
AcDbMText
 10
0.0
 20
2.387460876369325
 30
0.0
 40
1.852083333333333
 41
0.0
 71
     1
 72
     1
  1
FINITURA
  7
SLDTEXTSTYLE0
 73
     1
 44
1.0
  0
MTEXT
  5
DE5B
330
DE58
100
AcDbEntity
  8
0
  6
Continuous
 62
     0
370
     0
100
AcDbMText
 10
0.0
 20
-0.0819835382314046
 30
0.0
 40
1.852083333333333
 41
0.0
 71
     1
 72
     1
  1
SPECIFICA:
  7
SLDTEXTSTYLE0
 73
     1
 44
1.0
  0
ENDBLK
  5
DE5C
330
DE58
100
AcDbEntity
  8
0
100
AcDbBlockEnd
  0
BLOCK
  5
DE64
330
DE63
100
AcDbEntity
  8
0
100
AcDbBlockBegin
  2
SW_NOTE_1
 70
     0
 10
0.0
 20
0.0
 30
0.0
  3
SW_NOTE_1
  1
SW_NOTE_1
  0
MTEXT
  5
DE65
330
DE63
100
AcDbEntity
  8
0
  6
Continuous
 62
     0
370
     0
100
AcDbMText
 10
0.0
 20
2.387460876369325
 30
0.0
 40
1.852083333333333
 41
0.0
 71
     1
 72
     1
  1
CROMATURA
  7
SLDTEXTSTYLE0
 73
     1
 44
1.0
  0
MTEXT
  5
DE66
330
DE63
100
AcDbEntity
  8
0
  6
Continuous
 62
     0
370
     0
100
AcDbMText
 10
0.0
 20
-0.0819835382314046
 30
0.0
 40
1.852083333333333
 41
0.0
 71
     1
 72
     1
  1
A KANBAN
  7
SLDTEXTSTYLE0
 73
     1
 44
1.0
  0
ENDBLK
  5
DE67
330
DE63
100
AcDbEntity
  8
0
100
AcDbBlockEnd
  0
BLOCK
  5
DE81
330
DE80
100
AcDbEntity
  8
0
100
AcDbBlockBegin
  2
SW_NOTE_2
 70
     0
 10
0.0
 20
0.0
 30
0.0
  3
SW_NOTE_2
  1
SW_NOTE_2
  0
MTEXT
  5
DE82
330
DE80
100
AcDbEntity
  8
0
  6
Continuous
 62
     0
370
     0
100
AcDbMText
 10
0.0
 20
2.728526715850658
 30
0.0
 40
2.116666666666666
 41
0.0
 71
     1
 72
     1
  1
Approvato:
  7
SLDTEXTSTYLE0
 73
     1
 44
1.0
  0
MTEXT
  5
DE83
330
DE80
100
AcDbEntity
  8
0
  6
Continuous
 62
     0
370
     0
100
AcDbMText
 10
15.84560198038815
 20
2.728526715850658
 30
0.0
 40
2.116666666666666
 41
0.0
 71
     1
 72
     1
  1
A. Biasotti
  7
SLDTEXTSTYLE0
 73
     1
 44
1.0
  0
ENDBLK
  5
DE84
330
DE80
100
AcDbEntity
  8
0
100
AcDbBlockEnd
  0
BLOCK
  5
DE89
330
DE88
100
AcDbEntity
  8
0
100
AcDbBlockBegin
  2
SW_NOTE_3
 70
     0
 10
0.0
 20
0.0
 30
0.0
  3
SW_NOTE_3
  1
SW_NOTE_3
  0
MTEXT
  5
DE8A
330
DE88
100
AcDbEntity
  8
0
  6
Continuous
 62
     0
370
     0
100
AcDbMText
 10
0.0
 20
2.449228705566728
 30
0.0
 40
1.9
 41
0.0
 71
     1
 72
     1
  1
Dimensioni in mm   -
  7
SLDTEXTSTYLE0
 73
     1
 44
1.0
  0
MTEXT
  5
DE8B
330
DE88
100
AcDbEntity
  8
0
  6
Continuous
 62
     0
370
     0
100
AcDbMText
 10
25.96666663885117
 20
2.449228705566728
 30
0.0
 40
1.9
 41
0.0
 71
     1
 72
     1
  1
NB
  7
SLDTEXTSTYLE0
 73
     1
 44
1.0
  0
MTEXT
  5
DE8C
330
DE88
100
AcDbEntity
  8
0
  6
Continuous
 62
     0
370
     0
100
AcDbMText
 10
29.73500080406666
 20
2.449228705566728
 30
0.0
 40
1.9
 41
0.0
 71
     1
 72
     1
  1
:  LE QUOTE INDICATE A DISEGNO SI RIFERISCONO ALLA LAVORAZIONE MECCANICA. - PRIMA DEI TRATTAMENTI SUPERFICIALI
  7
SLDTEXTSTYLE0
 73
     1
 44
1.0
  0
ENDBLK
  5
DE8D
330
DE88
100
AcDbEntity
  8
0
100
AcDbBlockEnd
  0
BLOCK
  5
613C2
330
613C1
100
AcDbEntity
  8
0
100
AcDbBlockBegin
  2
*D41
 70
     1
 10
0.0
 20
0.0
 30
0.0
  3
*D41
  1
*D5711
  0
LINE
  5
613C4
330
613C1
100
AcDbEntity
  8
0
  6
Continuous
 62
     0
370
    -2
100
AcDbLine
 10
5831.422308196427
 20
1743.611854991437
 30
0.0
 11
5884.260239097214
 21
1743.611854991437
 31
0.0
  0
LINE
  5
613C5
330
613C1
100
AcDbEntity
  8
0
  6
Continuous
 62
     0
370
    -2
100
AcDbLine
 10
5831.422308196427
 20
1678.611853650333
 30
0.0
 11
5884.260239097214
 21
1678.611853650333
 31
0.0
  0
LINE
  5
613C6
330
613C1
100
AcDbEntity
  8
0
  6
Continuous
 62
     0
370
    -2
100
AcDbLine
 10
5883.260239097214
 20
1737.861854991437
 30
0.0
 11
5883.260239097214
 21
1684.361853650333
 31
0.0
  0
SOLID
  5
613C7
330
613C1
100
AcDbEntity
  8
0
 62
     0
100
AcDbTrace
 10
5884.218572430547
 20
1737.861854991437
 30
0.0
 11
5882.301905763881
 21
1737.861854991437
 31
0.0
 12
5883.260239097214
 22
1743.611854991437
 32
0.0
 13
5883.260239097214
 23
1743.611854991437
 33
0.0
  0
SOLID
  5
613C8
330
613C1
100
AcDbEntity
  8
0
 62
     0
100
AcDbTrace
 10
5882.301905763881
 20
1684.361853650333
 30
0.0
 11
5884.218572430547
 21
1684.361853650333
 31
0.0
 12
5883.260239097214
 22
1678.611853650333
 32
0.0
 13
5883.260239097214
 23
1678.611853650333
 33
0.0
  0
MTEXT
  5
613C9
330
613C1
100
AcDbEntity
  8
0
  6
ByBlock
370
    15
100
AcDbMText
 10
5877.478989097214
 20
1711.111854320885
 30
0.0
 40
6.25
 41
0.0
 71
     5
 72
     1
  1
65
 11
0.0
 21
1.0
 31
0.0
 73
     1
 44
1.0
  0
POINT
  5
613CA
330
613C1
100
AcDbEntity
  8
Defpoints
 62
     0
100
AcDbPoint
 10
5830.422308196427
 20
1743.611854991437
 30
0.0
  0
POINT
  5
613CB
330
613C1
100
AcDbEntity
  8
Defpoints
 62
     0
100
AcDbPoint
 10
5830.422308196427
 20
1678.611853650333
 30
0.0
  0
POINT
  5
613CC
330
613C1
100
AcDbEntity
  8
Defpoints
 62
     0
100
AcDbPoint
 10
5883.260239097214
 20
1678.611853650333
 30
0.0
  0
ENDBLK
  5
613C3
330
613C1
100
AcDbEntity
  8
0
100
AcDbBlockEnd
  0
BLOCK
  5
628C3
330
628C2
100
AcDbEntity
  8
0
100
AcDbBlockBegin
  2
*D42
 70
     1
 10
0.0
 20
0.0
 30
0.0
  3
*D42
  1
*D5795
  0
LINE
  5
628C5
330
628C2
100
AcDbEntity
  8
0
  6
Continuous
 62
     0
370
    -2
100
AcDbLine
 10
5717.922307615282
 20
1637.173916429548
 30
0.0
 11
5717.922307615282
 21
1653.830761875568
 31
0.0
  0
LINE
  5
628C6
330
628C2
100
AcDbEntity
  8
0
  6
Continuous
 62
     0
370
    -2
100
AcDbLine
 10
5862.92230886698
 20
1637.906601014996
 30
0.0
 11
5862.92230886698
 21
1653.830761875568
 31
0.0
  0
LINE
  5
628C7
330
628C2
100
AcDbEntity
  8
0
  6
Continuous
 62
     0
370
    -2
100
AcDbLine
 10
5723.672307615282
 20
1652.830761875568
 30
0.0
 11
5857.17230886698
 21
1652.830761875568
 31
0.0
  0
SOLID
  5
628C8
330
628C2
100
AcDbEntity
  8
0
 62
     0
100
AcDbTrace
 10
5723.672307615282
 20
1653.789095208901
 30
0.0
 11
5723.672307615282
 21
1651.872428542235
 31
0.0
 12
5717.922307615282
 22
1652.830761875568
 32
0.0
 13
5717.922307615282
 23
1652.830761875568
 33
0.0
  0
SOLID
  5
628C9
330
628C2
100
AcDbEntity
  8
0
 62
     0
100
AcDbTrace
 10
5857.17230886698
 20
1651.872428542235
 30
0.0
 11
5857.17230886698
 21
1653.789095208901
 31
0.0
 12
5862.92230886698
 22
1652.830761875568
 32
0.0
 13
5862.92230886698
 23
1652.830761875568
 33
0.0
  0
MTEXT
  5
628CA
330
628C2
100
AcDbEntity
  8
0
  6
ByBlock
370
    15
100
AcDbMText
 10
5790.422308241131
 20
1658.612011875568
 30
0.0
 40
6.25
 41
0.0
 71
     5
 72
     1
  1
145
 73
     1
 44
1.0
  0
POINT
  5
628CB
330
628C2
100
AcDbEntity
  8
Defpoints
 62
     0
100
AcDbPoint
 10
5717.922307615282
 20
1636.173916429548
 30
0.0
  0
POINT
  5
628CC
330
628C2
100
AcDbEntity
  8
Defpoints
 62
     0
100
AcDbPoint
 10
5862.92230886698
 20
1636.906601014996
 30
0.0
  0
POINT
  5
628CD
330
628C2
100
AcDbEntity
  8
Defpoints
 62
     0
100
AcDbPoint
 10
5862.92230886698
 20
1652.830761875568
 30
0.0
  0
ENDBLK
  5
628C4
330
628C2
100
AcDbEntity
  8
0
100
AcDbBlockEnd
  0
BLOCK
  5
628CF
330
628CE
100
AcDbEntity
  8
0
100
AcDbBlockBegin
  2
*D43
 70
     1
 10
0.0
 20
0.0
 30
0.0
  3
*D43
  1
*D5796
  0
LINE
  5
628D1
330
628CE
100
AcDbEntity
  8
0
  6
Continuous
 62
     0
370
    -2
100
AcDbLine
 10
5702.922307019236
 20
1601.156601372624
 30
0.0
 11
5702.922307019236
 21
1582.873557002641
 31
0.0
  0
LINE
  5
628D2
330
628CE
100
AcDbEntity
  8
0
  6
Continuous
 62
     0
370
    -2
100
AcDbLine
 10
5862.92230886698
 20
1601.156601372624
 30
0.0
 11
5862.92230886698
 21
1582.873557002641
 31
0.0
  0
LINE
  5
628D3
330
628CE
100
AcDbEntity
  8
0
  6
Continuous
 62
     0
370
    -2
100
AcDbLine
 10
5708.672307019236
 20
1583.873557002641
 30
0.0
 11
5857.17230886698
 21
1583.873557002641
 31
0.0
  0
SOLID
  5
628D4
330
628CE
100
AcDbEntity
  8
0
 62
     0
100
AcDbTrace
 10
5708.672307019236
 20
1584.831890335974
 30
0.0
 11
5708.672307019236
 21
1582.915223669308
 31
0.0
 12
5702.922307019236
 22
1583.873557002641
 32
0.0
 13
5702.922307019236
 23
1583.873557002641
 33
0.0
  0
SOLID
  5
628D5
330
628CE
100
AcDbEntity
  8
0
 62
     0
100
AcDbTrace
 10
5857.17230886698
 20
1582.915223669308
 30
0.0
 11
5857.17230886698
 21
1584.831890335974
 31
0.0
 12
5862.92230886698
 22
1583.873557002641
 32
0.0
 13
5862.92230886698
 23
1583.873557002641
 33
0.0
  0
MTEXT
  5
628D6
330
628CE
100
AcDbEntity
  8
0
  6
ByBlock
370
    15
100
AcDbMText
 10
5782.922307943108
 20
1589.654807002641
 30
0.0
 40
6.25
 41
0.0
 71
     5
 72
     1
  1
160
 73
     1
 44
1.0
  0
POINT
  5
628D7
330
628CE
100
AcDbEntity
  8
Defpoints
 62
     0
100
AcDbPoint
 10
5702.922307019236
 20
1602.156601372624
 30
0.0
  0
POINT
  5
628D8
330
628CE
100
AcDbEntity
  8
Defpoints
 62
     0
100
AcDbPoint
 10
5862.92230886698
 20
1602.156601372624
 30
0.0
  0
POINT
  5
628D9
330
628CE
100
AcDbEntity
  8
Defpoints
 62
     0
100
AcDbPoint
 10
5862.92230886698
 20
1583.873557002641
 30
0.0
  0
ENDBLK
  5
628D0
330
628CE
100
AcDbEntity
  8
0
100
AcDbBlockEnd
  0
BLOCK
  5
628DE
330
628DD
100
AcDbEntity
  8
0
100
AcDbBlockBegin
  2
*D44
 70
     1
 10
0.0
 20
0.0
 30
0.0
  3
*D44
  1
*D5797
  0
LINE
  5
628E0
330
628DD
100
AcDbEntity
  8
0
  6
Continuous
 62
     0
370
    -2
100
AcDbLine
 10
5738.526741427258
 20
1696.868430384526
 30
0.0
 11
5717.977971643377
 21
1684.871749926597
 31
0.0
  0
LINE
  5
628E1
330
628DD
100
AcDbEntity
  8
0
  6
Continuous
 62
     0
370
    -2
100
AcDbLine
 10
5787.321043848453
 20
1725.355277065429
 30
0.0
 11
5792.286731169818
 21
1728.25431991203
 31
0.0
  0
MTEXT
  5
628E2
330
628DD
100
AcDbEntity
  8
0
  6
ByBlock
370
    15
100
AcDbMText
 10
5722.805871790691
 20
1694.496904521113
 30
0.0
 40
6.25
 41
0.0
 71
     5
 72
     1
  1
%%c45
 11
0.8635977950201155
 21
0.5041813646262568
 31
0.0
 73
     1
 44
1.0
  0
LINE
  5
628E3
330
628DD
100
AcDbEntity
  8
0
  6
Continuous
 62
     0
370
    -2
100
AcDbLine
 10
5782.355356527088
 20
1722.456234218828
 30
0.0
 11
5743.492428748624
 21
1699.767473231127
 31
0.0
  0
SOLID
  5
628E4
330
628DD
100
AcDbEntity
  8
0
 62
     0
100
AcDbTrace
 10
5786.837870040687
 20
1726.18289161899
 30
0.0
 11
5787.804217656219
 21
1724.527662511868
 31
0.0
 12
5782.355356527088
 22
1722.456234218828
 32
0.0
 13
5782.355356527088
 23
1722.456234218828
 33
0.0
  0
SOLID
  5
628E5
330
628DD
100
AcDbEntity
  8
0
 62
     0
100
AcDbTrace
 10
5739.009915235025
 20
1696.040815830965
 30
0.0
 11
5738.043567619492
 21
1697.696044938087
 31
0.0
 12
5743.492428748624
 22
1699.767473231127
 32
0.0
 13
5743.492428748624
 23
1699.767473231127
 33
0.0
  0
POINT
  5
628E6
330
628DD
100
AcDbEntity
  8
Defpoints
 62
     0
100
AcDbPoint
 10
5743.492428748624
 20
1699.767473231127
 30
0.0
  0
POINT
  5
628E7
330
628DD
100
AcDbEntity
  8
Defpoints
 62
     0
100
AcDbPoint
 10
5782.355356527088
 20
1722.456234218828
 30
0.0
  0
ENDBLK
  5
628DF
330
628DD
100
AcDbEntity
  8
0
100
AcDbBlockEnd
  0
BLOCK
  5
644F7
330
644F4
100
AcDbEntity
  8
0
100
AcDbBlockBegin
  2
A$C4A843887
 70
     0
 10
0.0
 20
0.0
 30
0.0
  3
A$C4A843887
  1
A$C4A843887
  0
LINE
  5
644F8
330
644F4
100
AcDbEntity
  8
0
100
AcDbLine
 10
-0.0000030725166198
 20
0.9999970166581988
 30
0.0
 11
-0.0000030725166198
 21
3.749997016657744
 31
0.0
  0
LINE
  5
644F9
330
644F4
100
AcDbEntity
  8
0
100
AcDbLine
 10
26.99999692748338
 20
0.9999970166581988
 30
0.0
 11
26.99999692748338
 21
3.749997016657744
 31
0.0
  0
LINE
  5
644FA
330
644F4
100
AcDbEntity
  8
0
100
AcDbLine
 10
25.99999692748338
 20
-0.0000029833418012
 30
0.0
 11
0.9999969274833802
 21
-0.0000029833418012
 31
0.0
  0
LINE
  5
644FB
330
644F4
100
AcDbEntity
  8
0
100
AcDbLine
 10
26.99999692748338
 20
3.749997016657744
 30
0.0
 11
-0.0000030725166198
 21
3.749997016657744
 31
0.0
  0
ARC
  5
644FC
330
644F4
100
AcDbEntity
  8
0
100
AcDbCircle
 10
25.99999692748338
 20
0.9999970166581988
 30
0.0
 40
1.0
100
AcDbArc
 50
270.0
 51
0.0
  0
ARC
  5
644FD
330
644F4
100
AcDbEntity
  8
0
100
AcDbCircle
 10
0.9999969274833802
 20
0.9999970166581988
 30
0.0
 40
1.0
100
AcDbArc
 50
180.0
 51
270.0
  0
ENDBLK
  5
644FE
330
644F4
100
AcDbEntity
  8
0
100
AcDbBlockEnd
  0
BLOCK
  5
652A5
330
652A4
100
AcDbEntity
  8
0
100
AcDbBlockBegin
  2
*D46
 70
     1
 10
0.0
 20
0.0
 30
0.0
  3
*D46
  1
*D5969
  0
LINE
  5
652A7
330
652A4
100
AcDbEntity
  8
0
  6
Continuous
 62
     0
370
    -2
100
AcDbLine
 10
5863.422307853701
 20
1601.656601290667
 30
0.0
 11
5899.884588335288
 21
1601.656601290667
 31
0.0
  0
LINE
  5
652A8
330
652A4
100
AcDbEntity
  8
0
  6
Continuous
 62
     0
370
    -2
100
AcDbLine
 10
5884.87392951011
 20
1622.156600925589
 30
0.0
 11
5899.884588335288
 21
1622.156600925589
 31
0.0
  0
LINE
  5
652A9
330
652A4
100
AcDbEntity
  8
0
  6
Continuous
 62
     0
370
    -2
100
AcDbLine
 10
5898.884588335288
 20
1601.656601290667
 30
0.0
 11
5898.884588335288
 21
1622.156600925589
 31
0.0
  0
LINE
  5
652AA
330
652A4
100
AcDbEntity
  8
0
  6
Continuous
 62
     0
370
    -2
100
AcDbLine
 10
5898.884588335288
 20
1595.906601290667
 30
0.0
 11
5898.884588335288
 21
1590.156601290667
 31
0.0
  0
LINE
  5
652AB
330
652A4
100
AcDbEntity
  8
0
  6
Continuous
 62
     0
370
    -2
100
AcDbLine
 10
5898.884588335288
 20
1627.906600925589
 30
0.0
 11
5898.884588335288
 21
1633.656600925589
 31
0.0
  0
SOLID
  5
652AC
330
652A4
100
AcDbEntity
  8
0
 62
     0
100
AcDbTrace
 10
5899.842921668621
 20
1595.906601290667
 30
0.0
 11
5897.926255001955
 21
1595.906601290667
 31
0.0
 12
5898.884588335288
 22
1601.656601290667
 32
0.0
 13
5898.884588335288
 23
1601.656601290667
 33
0.0
  0
SOLID
  5
652AD
330
652A4
100
AcDbEntity
  8
0
 62
     0
100
AcDbTrace
 10
5897.926255001955
 20
1627.906600925589
 30
0.0
 11
5899.842921668621
 21
1627.906600925589
 31
0.0
 12
5898.884588335288
 22
1622.156600925589
 32
0.0
 13
5898.884588335288
 23
1622.156600925589
 33
0.0
  0
MTEXT
  5
652AE
330
652A4
100
AcDbEntity
  8
0
  6
ByBlock
370
    15
100
AcDbMText
 10
5892.818963335288
 20
1611.906601108128
 30
0.0
 40
6.25
 41
0.0
 71
     5
 72
     1
  1
20,5
 11
0.0
 21
1.0
 31
0.0
 73
     1
 44
1.0
  0
POINT
  5
652AF
330
652A4
100
AcDbEntity
  8
Defpoints
 62
     0
100
AcDbPoint
 10
5862.422307853701
 20
1601.656601290667
 30
0.0
  0
POINT
  5
652B0
330
652A4
100
AcDbEntity
  8
Defpoints
 62
     0
100
AcDbPoint
 10
5883.87392951011
 20
1622.156600925589
 30
0.0
  0
POINT
  5
652B1
330
652A4
100
AcDbEntity
  8
Defpoints
 62
     0
100
AcDbPoint
 10
5898.884588335288
 20
1622.156600925589
 30
0.0
  0
ENDBLK
  5
652A6
330
652A4
100
AcDbEntity
  8
0
100
AcDbBlockEnd
  0
BLOCK
  5
652B3
330
652B2
100
AcDbEntity
  8
0
100
AcDbBlockBegin
  2
*D47
 70
     1
 10
0.0
 20
0.0
 30
0.0
  3
*D47
  1
*D5970
  0
LINE
  5
652B5
330
652B2
100
AcDbEntity
  8
0
  6
Continuous
 62
     0
370
    -2
100
AcDbLine
 10
5863.422307853701
 20
1637.406600165629
 30
0.0
 11
5919.215472961174
 21
1637.406600165629
 31
0.0
  0
LINE
  5
652B6
330
652B2
100
AcDbEntity
  8
0
  6
Continuous
 62
     0
370
    -2
100
AcDbLine
 10
5863.422307827638
 20
1601.656600985306
 30
0.0
 11
5919.215472961174
 21
1601.656600985306
 31
0.0
  0
LINE
  5
652B7
330
652B2
100
AcDbEntity
  8
0
  6
Continuous
 62
     0
370
    -2
100
AcDbLine
 10
5918.215472961174
 20
1631.656600165629
 30
0.0
 11
5918.215472961174
 21
1607.406600985306
 31
0.0
  0
SOLID
  5
652B8
330
652B2
100
AcDbEntity
  8
0
 62
     0
100
AcDbTrace
 10
5919.173806294507
 20
1631.656600165629
 30
0.0
 11
5917.257139627841
 21
1631.656600165629
 31
0.0
 12
5918.215472961174
 22
1637.406600165629
 32
0.0
 13
5918.215472961174
 23
1637.406600165629
 33
0.0
  0
SOLID
  5
652B9
330
652B2
100
AcDbEntity
  8
0
 62
     0
100
AcDbTrace
 10
5917.257139627841
 20
1607.406600985306
 30
0.0
 11
5919.173806294507
 21
1607.406600985306
 31
0.0
 12
5918.215472961174
 22
1601.656600985306
 32
0.0
 13
5918.215472961174
 23
1601.656600985306
 33
0.0
  0
MTEXT
  5
652BA
330
652B2
100
AcDbEntity
  8
0
  6
ByBlock
370
    15
100
AcDbMText
 10
5911.262347929924
 20
1619.531600575468
 30
0.0
 40
6.25
 41
0.0
 71
     5
 72
     1
  1
{36\fBook Antiqua|b0|i0|c0|p0;\C256;\H1.4x;÷\fCentury Gothic|b0|i0|c0|p0;\C7;\H0.714286x;40}
 11
0.0
 21
1.0
 31
0.0
 73
     1
 44
1.0
  0
POINT
  5
652BB
330
652B2
100
AcDbEntity
  8
Defpoints
 62
     0
100
AcDbPoint
 10
5862.422307853701
 20
1637.406600165629
 30
0.0
  0
POINT
  5
652BC
330
652B2
100
AcDbEntity
  8
Defpoints
 62
     0
100
AcDbPoint
 10
5862.422307827638
 20
1601.656600985306
 30
0.0
  0
POINT
  5
652BD
330
652B2
100
AcDbEntity
  8
Defpoints
 62
     0
100
AcDbPoint
 10
5918.215472961174
 20
1601.656600985306
 30
0.0
  0
ENDBLK
  5
652B4
330
652B2
100
AcDbEntity
  8
0
100
AcDbBlockEnd
  0
BLOCK
  5
652BF
330
652BE
100
AcDbEntity
  8
0
100
AcDbBlockBegin
  2
*D48
 70
     1
 10
0.0
 20
0.0
 30
0.0
  3
*D48
  1
*D5971
  0
LINE
  5
652C1
330
652BE
100
AcDbEntity
  8
0
  6
Continuous
 62
     0
370
    -2
100
AcDbLine
 10
5701.922307019236
 20
1630.156600374246
 30
0.0
 11
5687.205120243331
 21
1630.156600374246
 31
0.0
  0
LINE
  5
652C2
330
652BE
100
AcDbEntity
  8
0
  6
Continuous
 62
     0
370
    -2
100
AcDbLine
 10
5701.922307019236
 20
1622.156600925589
 30
0.0
 11
5687.205120243331
 21
1622.156600925589
 31
0.0
  0
LINE
  5
652C3
330
652BE
100
AcDbEntity
  8
0
  6
Continuous
 62
     0
370
    -2
100
AcDbLine
 10
5688.205120243331
 20
1630.156600374246
 30
0.0
 11
5688.205120243331
 21
1669.652729595245
 31
0.0
  0
LINE
  5
652C4
330
652BE
100
AcDbEntity
  8
0
  6
Continuous
 62
     0
370
    -2
100
AcDbLine
 10
5688.205120243331
 20
1630.156600374246
 30
0.0
 11
5688.205120243331
 21
1622.156600925589
 31
0.0
  0
LINE
  5
652C5
330
652BE
100
AcDbEntity
  8
0
  6
Continuous
 62
     0
370
    -2
100
AcDbLine
 10
5688.205120243331
 20
1635.906600374246
 30
0.0
 11
5688.205120243331
 21
1641.656600374246
 31
0.0
  0
LINE
  5
652C6
330
652BE
100
AcDbEntity
  8
0
  6
Continuous
 62
     0
370
    -2
100
AcDbLine
 10
5688.205120243331
 20
1616.406600925589
 30
0.0
 11
5688.205120243331
 21
1610.656600925589
 31
0.0
  0
SOLID
  5
652C7
330
652BE
100
AcDbEntity
  8
0
 62
     0
100
AcDbTrace
 10
5687.246786909998
 20
1635.906600374246
 30
0.0
 11
5689.163453576664
 21
1635.906600374246
 31
0.0
 12
5688.205120243331
 22
1630.156600374246
 32
0.0
 13
5688.205120243331
 23
1630.156600374246
 33
0.0
  0
SOLID
  5
652C8
330
652BE
100
AcDbEntity
  8
0
 62
     0
100
AcDbTrace
 10
5689.163453576664
 20
1616.406600925589
 30
0.0
 11
5687.246786909998
 21
1616.406600925589
 31
0.0
 12
5688.205120243331
 22
1622.156600925589
 32
0.0
 13
5688.205120243331
 23
1622.156600925589
 33
0.0
  0
MTEXT
  5
652C9
330
652BE
100
AcDbEntity
  8
0
  6
ByBlock
370
    15
100
AcDbMText
 10
5681.251995243331
 20
1655.654664984745
 30
0.0
 40
6.25
 41
0.0
 71
     5
 72
     1
  1
{8 \fBook Antiqua|b0|i0|c0|p0;\C256;\H1.4x;÷\fCentury Gothic|b0|i0|c0|p0;\C7;\H0.714286x; 12}
 11
0.0
 21
1.0
 31
0.0
 73
     1
 44
1.0
  0
POINT
  5
652CA
330
652BE
100
AcDbEntity
  8
Defpoints
 62
     0
100
AcDbPoint
 10
5702.922307019236
 20
1630.156600374246
 30
0.0
  0
POINT
  5
652CB
330
652BE
100
AcDbEntity
  8
Defpoints
 62
     0
100
AcDbPoint
 10
5702.922307019236
 20
1622.156600925589
 30
0.0
  0
POINT
  5
652CC
330
652BE
100
AcDbEntity
  8
Defpoints
 62
     0
100
AcDbPoint
 10
5688.205120243331
 20
1622.156600925589
 30
0.0
  0
ENDBLK
  5
652C0
330
652BE
100
AcDbEntity
  8
0
100
AcDbBlockEnd
  0
BLOCK
  5
69750
330
6974F
100
AcDbEntity
  8
0
100
AcDbBlockBegin
  2
*D49
 70
     1
 10
0.0
 20
0.0
 30
0.0
  3
*D49
  1
*D6236
  0
LINE
  5
69752
330
6974F
100
AcDbEntity
  8
0
  6
Continuous
 62
     0
370
    -2
100
AcDbLine
 10
5691.923725690844
 20
1724.961854076506
 30
0.0
 11
5671.118634790815
 21
1724.961854076506
 31
0.0
  0
LINE
  5
69753
330
6974F
100
AcDbEntity
  8
0
  6
Continuous
 62
     0
370
    -2
100
AcDbLine
 10
5691.923725690844
 20
1696.961853736108
 30
0.0
 11
5671.118634790815
 21
1696.961853736108
 31
0.0
  0
LINE
  5
69754
330
6974F
100
AcDbEntity
  8
0
  6
Continuous
 62
     0
370
    -2
100
AcDbLine
 10
5672.118634790815
 20
1719.211854076506
 30
0.0
 11
5672.118634790815
 21
1702.711853736108
 31
0.0
  0
SOLID
  5
69755
330
6974F
100
AcDbEntity
  8
0
 62
     0
100
AcDbTrace
 10
5673.076968124148
 20
1719.211854076506
 30
0.0
 11
5671.160301457482
 21
1719.211854076506
 31
0.0
 12
5672.118634790815
 22
1724.961854076506
 32
0.0
 13
5672.118634790815
 23
1724.961854076506
 33
0.0
  0
SOLID
  5
69756
330
6974F
100
AcDbEntity
  8
0
 62
     0
100
AcDbTrace
 10
5671.160301457482
 20
1702.711853736108
 30
0.0
 11
5673.076968124148
 21
1702.711853736108
 31
0.0
 12
5672.118634790815
 22
1696.961853736108
 32
0.0
 13
5672.118634790815
 23
1696.961853736108
 33
0.0
  0
MTEXT
  5
69757
330
6974F
100
AcDbEntity
  8
0
  6
Continuous
370
     0
100
AcDbMText
 10
5666.337384790815
 20
1710.961853906307
 30
0.0
 40
6.25
 41
0.0
 71
     5
 72
     1
  1
28
 11
0.0
 21
1.0
 31
0.0
 73
     1
 44
1.0
  0
POINT
  5
69758
330
6974F
100
AcDbEntity
  8
Defpoints
 62
     0
100
AcDbPoint
 10
5692.923725690844
 20
1724.961854076506
 30
0.0
  0
POINT
  5
69759
330
6974F
100
AcDbEntity
  8
Defpoints
 62
     0
100
AcDbPoint
 10
5692.923725690844
 20
1696.961853736108
 30
0.0
  0
POINT
  5
6975A
330
6974F
100
AcDbEntity
  8
Defpoints
 62
     0
100
AcDbPoint
 10
5672.118634790815
 20
1696.961853736108
 30
0.0
  0
ENDBLK
  5
69751
330
6974F
100
AcDbEntity
  8
0
100
AcDbBlockEnd
  0
BLOCK
  5
69A4B
330
69A4A
100
AcDbEntity
  8
0
100
AcDbBlockBegin
  2
*D50
 70
     1
 10
0.0
 20
0.0
 30
0.0
  3
*D50
  1
*D6260
  0
LINE
  5
69A4D
330
69A4A
100
AcDbEntity
  8
0
  6
Continuous
 62
     0
370
    -2
100
AcDbLine
 10
5694.491448109152
 20
1608.886600929761
 30
0.0
 11
5659.057808116891
 21
1608.886600929761
 31
0.0
  0
LINE
  5
69A4E
330
69A4A
100
AcDbEntity
  8
0
  6
Continuous
 62
     0
370
    -2
100
AcDbLine
 10
5701.922307019236
 20
1622.156600925589
 30
0.0
 11
5659.057808116891
 21
1622.156600925589
 31
0.0
  0
LINE
  5
69A4F
330
69A4A
100
AcDbEntity
  8
0
  6
Continuous
 62
     0
370
    -2
100
AcDbLine
 10
5660.057808116891
 20
1627.906600925589
 30
0.0
 11
5660.057808116891
 21
1652.41535092559
 31
0.0
  0
LINE
  5
69A50
330
69A4A
100
AcDbEntity
  8
0
  6
Continuous
 62
     0
370
    -2
100
AcDbLine
 10
5660.057808116891
 20
1608.886600929761
 30
0.0
 11
5660.057808116891
 21
1622.156600925589
 31
0.0
  0
LINE
  5
69A51
330
69A4A
100
AcDbEntity
  8
0
  6
Continuous
 62
     0
370
    -2
100
AcDbLine
 10
5660.057808116891
 20
1603.136600929761
 30
0.0
 11
5660.057808116891
 21
1597.386600929761
 31
0.0
  0
SOLID
  5
69A52
330
69A4A
100
AcDbEntity
  8
0
 62
     0
100
AcDbTrace
 10
5661.016141450224
 20
1603.136600929761
 30
0.0
 11
5659.099474783558
 21
1603.136600929761
 31
0.0
 12
5660.057808116891
 22
1608.886600929761
 32
0.0
 13
5660.057808116891
 23
1608.886600929761
 33
0.0
  0
SOLID
  5
69A53
330
69A4A
100
AcDbEntity
  8
0
 62
     0
100
AcDbTrace
 10
5659.099474783558
 20
1627.906600925589
 30
0.0
 11
5661.016141450224
 21
1627.906600925589
 31
0.0
 12
5660.057808116891
 22
1622.156600925589
 32
0.0
 13
5660.057808116891
 23
1622.156600925589
 33
0.0
  0
MTEXT
  5
69A54
330
69A4A
100
AcDbEntity
  8
0
  6
Continuous
370
     0
100
AcDbMText
 10
5653.99218311689
 20
1643.035975925589
 30
0.0
 40
6.25
 41
0.0
 71
     5
 72
     1
  1
13,3
 11
0.0
 21
1.0
 31
0.0
 73
     1
 44
1.0
  0
POINT
  5
69A55
330
69A4A
100
AcDbEntity
  8
Defpoints
 62
     0
100
AcDbPoint
 10
5695.491448109152
 20
1608.886600929761
 30
0.0
  0
POINT
  5
69A56
330
69A4A
100
AcDbEntity
  8
Defpoints
 62
     0
100
AcDbPoint
 10
5702.922307019236
 20
1622.156600925589
 30
0.0
  0
POINT
  5
69A57
330
69A4A
100
AcDbEntity
  8
Defpoints
 62
     0
100
AcDbPoint
 10
5660.057808116891
 20
1622.156600925589
 30
0.0
  0
ENDBLK
  5
69A4C
330
69A4A
100
AcDbEntity
  8
0
100
AcDbBlockEnd
  0
ENDSEC
  0
SECTION
  2
ENTITIES
  0
HATCH
  5
297E
330
1F
100
AcDbEntity
  8
0
  6
ByBlock
 62
   254
370
     0
100
AcDbHatch
 10
0.0
 20
0.0
 30
0.0
210
0.0
220
0.0
230
1.0
  2
SOLID
 70
     1
 71
     0
 91
        0
 75
     0
 76
     1
 98
        0
1001
ACAD
1010
0.0
1020
0.0
1030
0.0
  0
TEXT
  5
61141
330
1F
100
AcDbEntity
  8
0
  6
Continuous
 62
     0
370
    15
100
AcDbText
 10
5535.227315209476
 20
1761.393499742937
 30
0.0
 40
17.96134648357718
  1
672WSC
 41
0.6999999999999998
100
AcDbText
  0
LINE
  5
61267
330
1F
100
AcDbEntity
  8
0
  6
Continuous
 62
     0
370
    15
100
AcDbLine
 10
5692.923725690844
 20
1724.961854076506
 30
0.0
 11
5692.923725690844
 21
1696.961853736108
 31
0.0
  0
ARC
  5
61268
330
1F
100
AcDbEntity
  8
0
  6
Continuous
 62
     0
370
    15
100
AcDbCircle
 10
5775.622307827635
 20
1711.111853724988
 30
0.0
 40
5.250000000021046
100
AcDbArc
 50
270.0000000000596
 51
90.00000000011913
  0
LINE
  5
61269
330
1F
100
AcDbEntity
  8
0
  6
Continuous
 62
     0
370
    15
100
AcDbLine
 10
5762.622307886483
 20
1716.361853784443
 30
0.0
 11
5775.622307805458
 21
1716.361853784443
 31
0.0
  0
ARC
  5
6126A
330
1F
100
AcDbEntity
  8
0
  6
Continuous
 62
     0
370
    15
100
AcDbCircle
 10
5755.622307827641
 20
1711.111853724977
 30
0.0
 40
8.750000000004729
100
AcDbArc
 50
36.86989764610249
 51
323.1301023541238
  0
LINE
  5
6126B
330
1F
100
AcDbEntity
  8
0
  6
Continuous
 62
     0
370
    15
100
AcDbLine
 10
5775.622307805458
 20
1705.861853926004
 30
0.0
 11
5762.622307886483
 21
1705.861853926004
 31
0.0
  0
LINE
  5
6126C
330
1F
100
AcDbEntity
  8
0
  6
Continuous
 62
     0
370
    15
100
AcDbLine
 10
5830.422308196427
 20
1678.611853650333
 30
0.0
 11
5702.922307019236
 21
1678.611853650333
 31
0.0
  0
LINE
  5
6126D
330
1F
100
AcDbEntity
  8
0
  6
Continuous
 62
     0
370
    15
100
AcDbLine
 10
5702.922307019236
 20
1743.611854991437
 30
0.0
 11
5830.422308196427
 21
1743.611854991437
 31
0.0
  0
LINE
  5
6126E
330
1F
100
AcDbEntity
  8
0
  6
Continuous
 62
     0
370
    15
100
AcDbLine
 10
5702.922307019236
 20
1678.611853650333
 30
0.0
 11
5702.922307019236
 21
1743.611854991437
 31
0.0
  0
LINE
  5
6126F
330
1F
100
AcDbEntity
  8
0
  6
Continuous
 62
     0
370
    15
100
AcDbLine
 10
5694.201448109152
 20
1696.961853736108
 30
0.0
 11
5694.201448109152
 21
1724.961854076506
 31
0.0
  0
LINE
  5
61270
330
1F
100
AcDbEntity
  8
0
  6
Continuous
 62
     0
370
    15
100
AcDbLine
 10
5694.201448109152
 20
1724.961854076506
 30
0.0
 11
5692.923725690844
 21
1724.961854076506
 31
0.0
  0
LINE
  5
61271
330
1F
100
AcDbEntity
  8
0
  6
Continuous
 62
     0
370
    15
100
AcDbLine
 10
5694.201448109152
 20
1696.961853736108
 30
0.0
 11
5692.923725690844
 21
1696.961853736108
 31
0.0
  0
LINE
  5
61272
330
1F
100
AcDbEntity
  8
0
  6
Continuous
 62
     0
370
    15
100
AcDbLine
 10
5702.922307019236
 20
1724.961854076506
 30
0.0
 11
5694.201448109152
 21
1724.961854076506
 31
0.0
  0
LINE
  5
61273
330
1F
100
AcDbEntity
  8
0
  6
Continuous
 62
     0
370
    15
100
AcDbLine
 10
5702.922307019236
 20
1696.961853736108
 30
0.0
 11
5694.201448109152
 21
1696.961853736108
 31
0.0
  0
LINE
  5
61274
330
1F
100
AcDbEntity
  8
0
  6
Continuous
 62
     0
370
    15
100
AcDbLine
 10
5775.619641196096
 20
1706.011853671195
 30
0.0
 11
5762.544235115053
 21
1706.011853671195
 31
0.0
  0
ARC
  5
61275
330
1F
100
AcDbEntity
  8
0
  6
Continuous
 62
     0
370
    15
100
AcDbCircle
 10
5775.619641160974
 20
1711.111853724977
 30
0.0
 40
5.100000000000009
100
AcDbArc
 50
270.0
 51
90.0
  0
LINE
  5
61276
330
1F
100
AcDbEntity
  8
0
  6
Continuous
 62
     0
370
    15
100
AcDbLine
 10
5762.544235115053
 20
1716.211853107931
 30
0.0
 11
5775.619641196096
 21
1716.211853107931
 31
0.0
  0
ARC
  5
61277
330
1F
100
AcDbEntity
  8
0
  6
Continuous
 62
     0
370
    15
100
AcDbCircle
 10
5755.619641160974
 20
1711.111853724977
 30
0.0
 40
8.600000000000014
100
AcDbArc
 50
36.37184240993242
 51
323.6281575900676
  0
LINE
  5
61287
330
1F
100
AcDbEntity
  8
0
  6
Continuous
 62
     0
370
    15
100
AcDbLine
 10
5821.13256603028
 20
1704.311891275611
 30
0.0
 11
5825.632557116715
 21
1704.319872999044
 31
0.0
  0
LINE
  5
61288
330
1F
100
AcDbEntity
  8
0
  6
Continuous
 62
     0
370
    15
100
AcDbLine
 10
5825.632557116715
 20
1704.319872999044
 30
0.0
 11
5825.613405961346
 21
1715.119854817472
 31
0.0
  0
LINE
  5
61289
330
1F
100
AcDbEntity
  8
0
  6
Continuous
 62
     0
370
    15
100
AcDbLine
 10
5825.613405961346
 20
1715.119854817472
 30
0.0
 11
5822.113410947896
 21
1715.113648005249
 31
0.0
  0
LINE
  5
6128A
330
1F
100
AcDbEntity
  8
0
  6
Continuous
 62
     0
370
    15
100
AcDbLine
 10
5822.113410947896
 20
1715.113648005249
 30
0.0
 11
5822.108445932586
 21
1717.913643637851
 31
0.0
  0
LINE
  5
6128B
330
1F
100
AcDbEntity
  8
0
  6
Continuous
 62
     0
370
    15
100
AcDbLine
 10
5822.108445932586
 20
1717.913643637851
 30
0.0
 11
5817.608453186519
 21
1717.905662760041
 31
0.0
  0
LINE
  5
6128C
330
1F
100
AcDbEntity
  8
0
  6
Continuous
 62
     0
370
    15
100
AcDbLine
 10
5817.608453186519
 20
1717.905662760041
 30
0.0
 11
5817.627606001516
 21
1707.105680095989
 31
0.0
  0
LINE
  5
6128D
330
1F
100
AcDbEntity
  8
0
  6
Continuous
 62
     0
370
    15
100
AcDbLine
 10
5817.627606001516
 20
1707.105680095989
 30
0.0
 11
5821.127599249637
 21
1707.11188754638
 31
0.0
  0
LINE
  5
6128E
330
1F
100
AcDbEntity
  8
0
  6
Continuous
 62
     0
370
    15
100
AcDbLine
 10
5821.127599249637
 20
1707.11188754638
 30
0.0
 11
5821.13256603028
 21
1704.311891275611
 31
0.0
  0
LINE
  5
6128F
330
1F
100
AcDbEntity
  8
0
  6
Continuous
 62
     0
370
    15
100
AcDbLine
 10
5825.629899140019
 20
1705.819869313948
 30
0.0
 11
5821.129904840028
 21
1705.811889489214
 31
0.0
  0
LINE
  5
61290
330
1F
100
AcDbEntity
  8
0
  6
Continuous
 62
     0
370
    15
100
AcDbLine
 10
5817.611112822843
 20
1716.405665599513
 30
0.0
 11
5822.111105463207
 21
1716.41364626987
 31
0.0
  0
ARC
  5
61291
330
1F
100
AcDbEntity
  8
0
  6
Continuous
 62
     0
370
    15
100
AcDbCircle
 10
5830.422308196427
 20
1711.111854320885
 30
0.0
 40
32.50000067055234
100
AcDbArc
 50
270.0
 51
90.0
  0
LINE
  5
61292
330
1F
100
AcDbEntity
  8
0
  6
Continuous
 62
     0
370
    15
100
AcDbLine
 10
5525.837431027785
 20
1537.643442875314
 30
0.0
 11
5525.837431027785
 21
1516.485424540718
 31
0.0
  0
LINE
  5
61293
330
1F
100
AcDbEntity
  8
0
  6
Continuous
 62
     0
370
    15
100
AcDbLine
 10
5525.837431027785
 20
1492.721718132557
 30
0.0
 11
5525.837431027785
 21
1484.807450024179
 31
0.0
  0
LINE
  5
61294
330
1F
100
AcDbEntity
  8
0
  6
Continuous
 62
     0
370
    15
100
AcDbLine
 10
5615.182903971283
 20
1589.221485779434
 30
0.0
 11
5525.83743036924
 21
1537.643441738512
 31
0.0
  0
LINE
  5
61295
330
1F
100
AcDbEntity
  8
0
  6
Continuous
 62
     0
370
    15
100
AcDbLine
 10
5645.350852906662
 20
1582.914634376936
 30
0.0
 11
5631.681565726656
 21
1590.805745898922
 31
0.0
  0
SPLINE
  5
61296
330
1F
100
AcDbEntity
  8
0
  6
Continuous
 62
     0
370
    15
100
AcDbSpline
210
0.0
220
0.0
230
1.0
 70
     8
 71
     3
 72
    16
 73
    12
 74
     0
 42
0.000000001
 43
0.0000000001
 40
0.0
 40
0.0
 40
0.0
 40
0.0
 40
0.0159505440064093
 40
0.1509112740414537
 40
0.2862571661642802
 40
0.4219503103632215
 40
0.5579204649111091
 40
0.6940886231526119
 40
0.8303830126183778
 40
0.9596678071452418
 40
1.0
 40
1.0
 40
1.0
 40
1.0
 10
5626.628095369926
 20
1592.3228251335
 30
0.0
 10
5626.573057584141
 20
1592.329623877029
 30
0.0
 10
5626.052334129827
 20
1592.393948143799
 30
0.0
 10
5625.014912343669
 20
1592.376930507638
 30
0.0
 10
5623.520035941801
 20
1592.261470975154
 30
0.0
 10
5621.979490679654
 20
1591.985113234498
 30
0.0
 10
5620.407889773902
 20
1591.567672341061
 30
0.0
 10
5618.811412811283
 20
1591.006535251808
 30
0.0
 10
5617.226699208684
 20
1590.316598683318
 30
0.0
 10
5616.014536167413
 20
1589.695350782064
 30
0.0
 10
5615.342664300333
 20
1589.312517402667
 30
0.0
 10
5615.182903971283
 20
1589.221485779434
 30
0.0
  0
LINE
  5
61297
330
1F
100
AcDbEntity
  8
0
  6
Continuous
 62
     0
370
    15
100
AcDbLine
 10
5561.940216654875
 20
1476.21182900789
 30
0.0
 11
5640.678998055193
 21
1521.666759974883
 31
0.0
  0
LINE
  5
61298
330
1F
100
AcDbEntity
  8
0
  6
Continuous
 62
     0
370
    15
100
AcDbLine
 10
5541.386342857195
 20
1480.257878650959
 30
0.0
 11
5542.305581757559
 21
1479.727213329309
 31
0.0
  0
LINE
  5
6129D
330
1F
100
AcDbEntity
  8
0
  6
Continuous
 62
     0
370
    15
100
AcDbLine
 10
5525.618681640026
 20
1516.035141136813
 30
0.0
 11
5525.618681640026
 21
1493.171998126062
 31
0.0
  0
LINE
  5
6129E
330
1F
100
AcDbEntity
  8
0
  6
Continuous
 62
     0
370
    15
100
AcDbLine
 10
5541.18667150383
 20
1480.371544874715
 30
0.0
 11
5541.336155509514
 21
1480.324383130629
 31
0.0
  0
LINE
  5
6129F
330
1F
100
AcDbEntity
  8
0
  6
Continuous
 62
     0
370
    15
100
AcDbLine
 10
5640.939789095477
 20
1581.510902188281
 30
0.0
 11
5638.741315552237
 21
1582.780053950138
 31
0.0
  0
LINE
  5
612A0
330
1F
100
AcDbEntity
  8
0
  6
Continuous
 62
     0
370
    15
100
AcDbLine
 10
5541.186674467281
 20
1490.813186498975
 30
0.0
 11
5541.186674467281
 21
1478.156805642519
 31
0.0
  0
LINE
  5
612A1
330
1F
100
AcDbEntity
  8
0
  6
Continuous
 62
     0
370
    15
100
AcDbLine
 10
5541.186674467281
 20
1478.156805642519
 30
0.0
 11
5556.990509863546
 21
1487.280165620606
 31
0.0
  0
LWPOLYLINE
  5
612A2
330
1F
100
AcDbEntity
  8
0
  6
Continuous
 62
     0
370
    15
100
AcDbPolyline
 90
       11
 70
   128
 43
0.0
 10
5643.745577570016
 20
1581.987928414165
 10
5643.521651363875
 20
1582.074818622846
 10
5642.18618632196
 20
1582.479400685154
 10
5640.776706145702
 20
1582.719754803308
 10
5639.301497959194
 20
1582.794479427056
 10
5637.76920713473
 20
1582.703130395311
 10
5636.188832024473
 20
1582.446246792379
 10
5634.569639666737
 20
1582.025331944307
 10
5632.921139444219
 20
1581.442859505048
 10
5631.25300405865
 20
1580.702247608137
 10
5629.575019481421
 20
1579.807840620292
  0
LINE
  5
612A3
330
1F
100
AcDbEntity
  8
0
  6
Continuous
 62
     0
370
    15
100
AcDbLine
 10
5629.575019481421
 20
1579.807840620292
 30
0.0
 11
5541.186674467281
 21
1528.782335152051
 31
0.0
  0
LINE
  5
612A4
330
1F
100
AcDbEntity
  8
0
  6
Continuous
 62
     0
370
    15
100
AcDbLine
 10
5541.186674467281
 20
1528.782335152051
 30
0.0
 11
5541.186674467281
 21
1516.125952014206
 31
0.0
  0
LINE
  5
612A5
330
1F
100
AcDbEntity
  8
0
  6
Continuous
 62
     0
370
    15
100
AcDbLine
 10
5541.186674467281
 20
1516.125952014206
 30
0.0
 11
5540.126012146011
 21
1515.513644689464
 31
0.0
  0
LINE
  5
612A6
330
1F
100
AcDbEntity
  8
0
  6
Continuous
 62
     0
370
    15
100
AcDbLine
 10
5540.126012146011
 20
1529.394838485438
 30
0.0
 11
5540.126012146011
 21
1515.513644689464
 31
0.0
  0
LINE
  5
612A7
330
1F
100
AcDbEntity
  8
0
  6
Continuous
 62
     0
370
    15
100
AcDbLine
 10
5629.575019481421
 20
1581.03265127842
 30
0.0
 11
5540.126012146011
 21
1529.394838485438
 31
0.0
  0
LWPOLYLINE
  5
612A8
330
1F
100
AcDbEntity
  8
0
  6
Continuous
 62
     0
370
    15
100
AcDbPolyline
 90
       12
 70
   128
 43
0.0
 10
5645.336673784861
 20
1582.906448707742
 10
5645.206050164616
 20
1582.972096516703
 10
5643.903422786043
 20
1583.51459837094
 10
5642.520663711743
 20
1583.894810514405
 10
5641.065506888412
 20
1584.110607488082
 10
5639.54609192617
 20
1584.160783194521
 10
5637.97091141499
 20
1584.045053184178
 10
5636.348779314572
 20
1583.764069867636
 10
5634.688767734055
 20
1583.319403509963
 10
5633.000156882645
 20
1582.713538433097
 10
5631.292390288583
 20
1581.949863894492
 10
5629.575019481421
 20
1581.03265127842
  0
LINE
  5
612A9
330
1F
100
AcDbEntity
  8
0
  6
Continuous
 62
     0
370
    15
100
AcDbLine
 10
5540.126012146011
 20
1476.319684617798
 30
0.0
 11
5554.866324902614
 21
1484.829086044481
 31
0.0
  0
LINE
  5
612AA
330
1F
100
AcDbEntity
  8
0
  6
Continuous
 62
     0
370
    15
100
AcDbLine
 10
5549.232605312598
 20
1481.576808951831
 30
0.0
 11
5556.990509863546
 21
1486.055351920626
 31
0.0
  0
LINE
  5
612AB
330
1F
100
AcDbEntity
  8
0
  6
Continuous
 62
     0
370
    15
100
AcDbLine
 10
5540.126012146011
 20
1490.200879174235
 30
0.0
 11
5540.126012146011
 21
1476.319684617798
 31
0.0
  0
LINE
  5
612AC
330
1F
100
AcDbEntity
  8
0
  6
Continuous
 62
     0
370
    15
100
AcDbLine
 10
5541.186674467281
 20
1490.813186498975
 30
0.0
 11
5540.126012146011
 21
1490.200879174235
 31
0.0
  0
LINE
  5
612AD
330
1F
100
AcDbEntity
  8
0
  6
Continuous
 62
     0
370
    15
100
AcDbLine
 10
5540.126012146011
 20
1476.319684617798
 30
0.0
 11
5525.983876179836
 21
1484.483765933713
 31
0.0
  0
LINE
  5
612AE
330
1F
100
AcDbEntity
  8
0
  6
Continuous
 62
     0
370
    15
100
AcDbLine
 10
5540.126012146011
 20
1529.394838485438
 30
0.0
 11
5525.983876179836
 21
1537.558919801354
 31
0.0
  0
LINE
  5
612AF
330
1F
100
AcDbEntity
  8
0
  6
Continuous
 62
     0
370
    15
100
AcDbLine
 10
5540.126012146011
 20
1515.513644689464
 30
0.0
 11
5530.650781239652
 21
1520.983579060879
 31
0.0
  0
LINE
  5
612B0
330
1F
100
AcDbEntity
  8
0
  6
Continuous
 62
     0
370
    15
100
AcDbLine
 10
5530.650781239652
 20
1520.983579060879
 30
0.0
 11
5530.650781239652
 21
1519.285270978023
 31
0.0
  0
LINE
  5
612B1
330
1F
100
AcDbEntity
  8
0
  6
Continuous
 62
     0
370
    15
100
AcDbLine
 10
5536.436077126215
 20
1492.331033319558
 30
0.0
 11
5540.126012146011
 21
1490.200879174235
 31
0.0
  0
LWPOLYLINE
  5
612B2
330
1F
100
AcDbEntity
  8
0
  6
Continuous
 62
     0
370
    15
100
AcDbPolyline
 90
       19
 70
   128
 43
0.0
 10
5534.822711282171
 20
1523.066149552687
 10
5535.185478385769
 20
1522.93059384298
 10
5535.504490516327
 20
1522.959118321415
 10
5535.741269947219
 20
1523.148282251591
 10
5535.867257661084
 20
1523.475270920618
 10
5535.867257661084
 20
1523.900643443442
 10
5535.741269947219
 20
1524.373093670182
 10
5535.504490516327
 20
1524.835638072676
 10
5535.185478385769
 20
1525.232486117065
 10
5534.822711282171
 20
1525.515771629406
 10
5534.459944127128
 20
1525.651328129277
 10
5534.14093204802
 20
1525.622803621141
 10
5533.904152617128
 20
1525.433638930503
 10
5533.778164903262
 20
1525.106651021939
 10
5533.778164903262
 20
1524.681278499115
 10
5533.904152617128
 20
1524.208827511912
 10
5534.14093204802
 20
1523.74628386988
 10
5534.459944127128
 20
1523.349435855192
 10
5534.822711282171
 20
1523.066149552687
  0
LWPOLYLINE
  5
612B3
330
1F
100
AcDbEntity
  8
0
  6
Continuous
 62
     0
370
    15
100
AcDbPolyline
 90
       19
 70
   128
 43
0.0
 10
5534.822711282173
 20
1486.321813839128
 10
5535.185478385771
 20
1486.186258129422
 10
5535.504490516327
 20
1486.214782607857
 10
5535.741269947219
 20
1486.403945017107
 10
5535.867257661084
 20
1486.730934446597
 10
5535.867257661084
 20
1487.15630696942
 10
5535.741269947219
 20
1487.628755675235
 10
5535.504490516327
 20
1488.091300838191
 10
5535.185478385769
 20
1488.48814888258
 10
5534.822711282173
 20
1488.771435155385
 10
5534.459944127128
 20
1488.906990894792
 10
5534.14093204802
 20
1488.878466386656
 10
5533.904152617128
 20
1488.689300935555
 10
5533.778164903262
 20
1488.362314547917
 10
5533.778164903262
 20
1487.936942025093
 10
5533.904152617128
 20
1487.464490277427
 10
5534.14093204802
 20
1487.001948156321
 10
5534.459944127128
 20
1486.605100141634
 10
5534.822711282173
 20
1486.321813839128
  0
LINE
  5
612B4
330
1F
100
AcDbEntity
  8
0
  6
Continuous
 62
     0
370
    15
100
AcDbLine
 10
5615.432883515248
 20
1589.196732594335
 30
0.0
 11
5525.983876179836
 21
1537.558919801354
 31
0.0
  0
LINE
  5
612B5
330
1F
100
AcDbEntity
  8
0
  6
Continuous
 62
     0
370
    15
100
AcDbLine
 10
5629.575019481421
 20
1581.03265127842
 30
0.0
 11
5615.432883515248
 21
1589.196732594335
 31
0.0
  0
ARC
  5
612B6
330
1F
100
AcDbEntity
  8
0
  6
Continuous
 62
     0
370
    15
100
AcDbCircle
 10
5537.086417906261
 20
1525.597770831429
 30
0.0
 40
2.265189099478128
100
AcDbArc
 50
182.0745129007291
 51
237.9201203960219
  0
ELLIPSE
  5
612B7
330
1F
100
AcDbEntity
  8
0
  6
Continuous
 62
     0
370
    15
100
AcDbEllipse
 10
5526.337430464562
 20
1537.354751506219
 30
0.0
 11
0.5000000026484912
 21
-0.2886907760355371
 31
0.0
210
0.0
220
0.0
230
1.0
 40
0.000070372929117
 41
2.356235119948494
 42
3.14163328698076
  0
ELLIPSE
  5
612B8
330
1F
100
AcDbEntity
  8
0
  6
Continuous
 62
     0
370
    15
100
AcDbEllipse
 10
5526.337430464562
 20
1485.096139545531
 30
0.0
 11
0.3535677558937635
 21
0.612364140313133
 31
0.0
210
0.0
220
0.0
230
1.0
 40
0.5773346305489198
 41
2.356235122223455
 42
3.141633285620895
  0
LINE
  5
612B9
330
1F
100
AcDbEntity
  8
0
  6
Continuous
 62
     0
370
    15
100
AcDbLine
 10
5531.71144356092
 20
1519.897578302764
 30
0.0
 11
5531.71144356092
 21
1520.371274160777
 31
0.0
  0
LINE
  5
612BA
330
1F
100
AcDbEntity
  8
0
  6
Continuous
 62
     0
370
    15
100
AcDbLine
 10
5541.186674467281
 20
1490.813186498975
 30
0.0
 11
5537.990362184792
 21
1492.658378303645
 31
0.0
  0
ARC
  5
612BB
330
1F
100
AcDbEntity
  8
0
  6
Continuous
 62
     0
370
    15
100
AcDbCircle
 10
5537.08641607752
 20
1488.853434130037
 30
0.0
 40
2.265187291231652
100
AcDbArc
 50
182.0745280503958
 51
237.9201463191455
  0
ARC
  5
612BC
330
1F
100
AcDbEntity
  8
0
  6
Continuous
 62
     0
370
    15
100
AcDbCircle
 10
5625.94561368237
 20
1580.673970604901
 30
0.0
 40
11.64276670138429
100
AcDbArc
 50
60.48428346226081
 51
85.95298997302623
  0
LINE
  5
612BD
330
1F
100
AcDbEntity
  8
0
  6
Continuous
 62
     0
370
    15
100
AcDbLine
 10
5561.586703377545
 20
1476.176813440929
 30
0.0
 11
5561.586703377545
 21
1529.25196730857
 31
0.0
  0
ELLIPSE
  5
612BE
330
1F
100
AcDbEntity
  8
0
  6
Continuous
 62
     0
370
    15
100
AcDbEllipse
 10
5561.940256897306
 20
1529.047798968434
 30
0.0
 11
0.4999999974232594
 21
-0.2886907730185726
 31
0.0
210
0.0
220
0.0
230
1.0
 40
0.0000703729298401
 41
0.7854387936126582
 42
2.356235124710782
  0
LINE
  5
612BF
330
1F
100
AcDbEntity
  8
0
  6
Continuous
 62
     0
370
    15
100
AcDbLine
 10
5562.293810274636
 20
1528.843698356509
 30
0.0
 11
5562.293810274636
 21
1476.585085434595
 31
0.0
  0
ELLIPSE
  5
612C0
330
1F
100
AcDbEntity
  8
0
  6
Continuous
 62
     0
370
    15
100
AcDbEllipse
 10
5561.940256897306
 20
1476.789187007746
 30
0.0
 11
0.3535677558937494
 21
0.6123641403131046
 31
0.0
210
0.0
220
0.0
230
1.0
 40
0.5773346305489282
 41
3.141633285620869
 42
4.712429612415737
  0
LINE
  5
612C1
330
1F
100
AcDbEntity
  8
0
  6
Continuous
 62
     0
370
    15
100
AcDbLine
 10
5561.586703377545
 20
1529.25196730857
 30
0.0
 11
5640.42910857369
 21
1574.766719019573
 31
0.0
  0
LINE
  5
612C2
330
1F
100
AcDbEntity
  8
0
  6
Continuous
 62
     0
370
    15
100
AcDbLine
 10
5641.136271620629
 20
1574.358482482131
 30
0.0
 11
5562.293810274636
 21
1528.843698356509
 31
0.0
  0
LINE
  5
612C3
330
1F
100
AcDbEntity
  8
0
  6
Continuous
 62
     0
370
    15
100
AcDbLine
 10
5556.990509205001
 20
1478.830139859097
 30
0.0
 11
5556.990509205001
 21
1531.905293726738
 31
0.0
  0
LINE
  5
612C4
330
1F
100
AcDbEntity
  8
0
  6
Continuous
 62
     0
370
    15
100
AcDbLine
 10
5556.990509205001
 20
1531.905293726738
 30
0.0
 11
5561.586703377545
 21
1529.25196730857
 31
0.0
  0
LINE
  5
612C5
330
1F
100
AcDbEntity
  8
0
  6
Continuous
 62
     0
370
    15
100
AcDbLine
 10
5556.990509205001
 20
1478.830139859097
 30
0.0
 11
5561.586703377545
 21
1476.176813440929
 31
0.0
  0
LWPOLYLINE
  5
612C6
330
1F
100
AcDbEntity
  8
0
  6
Continuous
 62
     0
370
    15
100
AcDbPolyline
 90
       19
 70
   128
 43
0.0
 10
5559.995712529819
 20
1485.260682364634
 10
5559.931748101761
 20
1484.878696612864
 10
5559.747566373766
 20
1484.616639027467
 10
5559.465382686276
 20
1484.506117291202
 10
5559.11923457072
 20
1484.560458668229
 10
5558.750871114737
 20
1484.773110364951
 10
5558.404722999185
 20
1485.118423095263
 10
5558.122540628781
 20
1485.554746421872
 10
5557.938358900787
 20
1486.02945570399
 10
5557.874393155636
 20
1486.485293972758
 10
5557.938358900787
 20
1486.867275922338
 10
5558.122540628781
 20
1487.129333507734
 10
5558.404722999185
 20
1487.239859046192
 10
5558.750871114737
 20
1487.185517669163
 10
5559.11923457072
 20
1486.972865972441
 10
5559.465382686276
 20
1486.627553242129
 10
5559.747566373766
 20
1486.19122611333
 10
5559.931748101761
 20
1485.716516831212
 10
5559.995712529819
 20
1485.260682364634
  0
LWPOLYLINE
  5
612C7
330
1F
100
AcDbEntity
  8
0
  6
Continuous
 62
     0
370
    15
100
AcDbPolyline
 90
       19
 70
   128
 43
0.0
 10
5559.995712529819
 20
1522.005018838656
 10
5559.931748101761
 20
1521.623034607811
 10
5559.747566373766
 20
1521.360977022415
 10
5559.465382686276
 20
1521.250453765223
 10
5559.11923457072
 20
1521.304795142251
 10
5558.750871114735
 20
1521.517446838973
 10
5558.404722999185
 20
1521.862759569285
 10
5558.122540628781
 20
1522.299084416819
 10
5557.938358900787
 20
1522.773793698937
 10
5557.874393155636
 20
1523.22963044678
 10
5557.938358900787
 20
1523.611613917285
 10
5558.122540628781
 20
1523.873671502682
 10
5558.404722999185
 20
1523.98419475975
 10
5558.750871114735
 20
1523.929854143184
 10
5559.11923457072
 20
1523.717202446463
 10
5559.465382686276
 20
1523.371888955689
 10
5559.747566373766
 20
1522.935564108278
 10
5559.931748101761
 20
1522.46085482616
 10
5559.995712529819
 20
1522.005018838656
  0
LINE
  5
612C8
330
1F
100
AcDbEntity
  8
0
  6
Continuous
 62
     0
370
    15
100
AcDbLine
 10
5556.990509205001
 20
1531.905293726738
 30
0.0
 11
5635.832914401144
 21
1577.420045437741
 31
0.0
  0
LWPOLYLINE
  5
612C9
330
1F
100
AcDbEntity
  8
0
  6
Continuous
 62
     0
370
    15
100
AcDbPolyline
 90
       18
 70
   128
 43
0.0
 10
5602.033210795298
 20
1529.942298326149
 10
5602.715346096236
 20
1530.263095143674
 10
5603.374252083415
 20
1530.426984137162
 10
5603.987490519667
 20
1530.428385436207
 10
5604.534178361837
 20
1530.26724970473
 10
5604.995698700741
 20
1529.949064752089
 10
5605.356334960106
 20
1529.484666510416
 10
5605.603806272675
 20
1528.889869007307
 10
5605.729685409013
 20
1528.184928437911
 10
5605.729685409013
 20
1527.393849310708
 10
5605.603806272675
 20
1526.543571023616
 10
5605.356334960106
 20
1525.663049985291
 10
5604.995698700741
 20
1524.782269221027
 10
5604.534178361837
 20
1523.931224227333
 10
5603.987490519667
 20
1523.138896909058
 10
5603.374252083415
 20
1522.432267419986
 10
5602.715346096236
 20
1521.8354005143
 10
5602.033210795298
 20
1521.36861991694
  0
LINE
  5
612CA
330
1F
100
AcDbEntity
  8
0
  6
Continuous
 62
     0
370
    15
100
AcDbLine
 10
5592.840822697166
 20
1524.635645632377
 30
0.0
 11
5602.033210795298
 21
1529.942298326149
 31
0.0
  0
LWPOLYLINE
  5
612CB
330
1F
100
AcDbEntity
  8
0
  6
Continuous
 62
     0
370
    15
100
AcDbPolyline
 90
       36
 70
   128
 43
0.0
 10
5592.840822697166
 20
1516.061967223167
 10
5592.262350615911
 20
1514.95847501797
 10
5591.594955269738
 20
1513.906508715285
 10
5590.852214529323
 20
1512.927467227279
 10
5590.049238039848
 20
1512.041267180213
 10
5589.202357705117
 20
1511.265934574913
 10
5588.328803683635
 20
1510.617244357761
 10
5587.446344823313
 20
1510.108389653074
 10
5586.572931730356
 20
1509.749722478756
 10
5585.726334569763
 20
1509.548540090207
 10
5584.92377296333
 20
1509.508935203862
 10
5584.181573546497
 20
1509.631710857481
 10
5583.514834110656
 20
1509.914372076571
 10
5582.937118038493
 20
1510.351168488979
 10
5582.460177715302
 20
1510.933214503985
 10
5582.093716135854
 20
1511.648669564375
 10
5581.845185389808
 20
1512.482978471619
 10
5581.719643098986
 20
1513.419170261267
 10
5581.719643098986
 20
1514.438201942424
 10
5581.845185389808
 20
1515.51934177575
 10
5582.093716135854
 20
1516.640598934992
 10
5582.460177715302
 20
1517.779161528913
 10
5582.937118038493
 20
1518.911870359413
 10
5583.514834110656
 20
1520.015683170658
 10
5584.181573546497
 20
1521.068145356694
 10
5584.92377296333
 20
1522.047847357516
 10
5585.726334569763
 20
1522.934859617879
 10
5586.572931730356
 20
1523.711137505124
 10
5587.446344823313
 20
1524.360891623085
 10
5588.328803683635
 20
1524.870902611597
 10
5589.202357705117
 20
1525.230795638871
 10
5590.049238039848
 20
1525.433250635498
 10
5590.852214529323
 20
1525.474147889597
 10
5591.594955269738
 20
1525.352656607008
 10
5592.262350615911
 20
1525.071247808753
 10
5592.840822697166
 20
1524.635645632377
  0
LINE
  5
612CC
330
1F
100
AcDbEntity
  8
0
  6
Continuous
 62
     0
370
    15
100
AcDbLine
 10
5602.033210795298
 20
1521.36861991694
 30
0.0
 11
5592.840822697166
 21
1516.061967223167
 31
0.0
  0
LINE
  5
612CD
330
1F
100
AcDbEntity
  8
0
  6
Continuous
 62
     0
370
    15
100
AcDbLine
 10
5562.293810274636
 20
1476.585085434595
 30
0.0
 11
5640.782636491143
 21
1521.895720345402
 31
0.0
  0
ARC
  5
612CE
330
1F
100
AcDbEntity
  8
0
  6
Continuous
 62
     0
370
    15
100
AcDbCircle
 10
5561.156610452654
 20
1523.899801803344
 30
0.0
 40
2.222305943242298
100
AcDbArc
 50
181.4869468146364
 51
238.5076723609582
  0
LINE
  5
612CF
330
1F
100
AcDbEntity
  8
0
  6
Continuous
 62
     0
370
    15
100
AcDbLine
 10
5591.780163010075
 20
1525.24795143644
 30
0.0
 11
5592.840822697166
 21
1524.635645632377
 31
0.0
  0
LINE
  5
612D0
330
1F
100
AcDbEntity
  8
0
  6
Continuous
 62
     0
370
    15
100
AcDbLine
 10
5591.780163010075
 20
1516.674273027229
 30
0.0
 11
5592.840822697166
 21
1516.061967223167
 31
0.0
  0
LWPOLYLINE
  5
612D1
330
1F
100
AcDbEntity
  8
0
  6
Continuous
 62
     0
370
    15
100
AcDbPolyline
 90
       13
 70
   128
 43
0.0
 10
5591.780163010075
 20
1516.674273027229
 10
5591.20169092882
 20
1515.570780822032
 10
5590.534295582647
 20
1514.518814519347
 10
5589.791554842232
 20
1513.539773031341
 10
5588.988578352757
 20
1512.653572984275
 10
5588.141698018026
 20
1511.878240378975
 10
5587.268143996544
 20
1511.229550161822
 10
5586.385685136222
 20
1510.720695457137
 10
5585.512272043265
 20
1510.362028282819
 10
5584.665674882672
 20
1510.160845894269
 10
5583.863113276238
 20
1510.121241007924
 10
5583.120913859406
 20
1510.244016661542
 10
5583.018354771912
 20
1510.275474467385
  0
LINE
  5
612D2
330
1F
100
AcDbEntity
  8
0
  6
Continuous
 62
     0
370
    15
100
AcDbLine
 10
5591.703136351698
 20
1525.319587044044
 30
0.0
 11
5591.780163010075
 21
1525.24795143644
 31
0.0
  0
ARC
  5
612D3
330
1F
100
AcDbEntity
  8
0
  6
Continuous
 62
     0
370
    15
100
AcDbCircle
 10
5561.156603158106
 20
1487.155461926466
 30
0.0
 40
2.222298582583884
100
AcDbArc
 50
181.4868835910856
 51
238.5077766573373
  0
LINE
  5
612D4
330
1F
100
AcDbEntity
  8
0
  6
Continuous
 62
     0
370
    15
100
AcDbLine
 10
5600.972551108207
 20
1521.980925721002
 30
0.0
 11
5602.033210795298
 21
1521.36861991694
 31
0.0
  0
LINE
  5
612D5
330
1F
100
AcDbEntity
  8
0
  6
Continuous
 62
     0
370
    15
100
AcDbLine
 10
5600.972551108207
 20
1521.980925721002
 30
0.0
 11
5591.780163010075
 21
1516.674273027229
 31
0.0
  0
LWPOLYLINE
  5
612D6
330
1F
100
AcDbEntity
  8
0
  6
Continuous
 62
     0
370
    15
100
AcDbPolyline
 90
       13
 70
   128
 43
0.0
 10
5604.073551667829
 20
1530.414626054104
 10
5604.295675273015
 20
1530.096972314478
 10
5604.543146585584
 20
1529.50217481137
 10
5604.66902572192
 20
1528.797234241973
 10
5604.66902572192
 20
1528.006155114769
 10
5604.543146585584
 20
1527.155876827678
 10
5604.295675273015
 20
1526.275355789353
 10
5603.93503901365
 20
1525.39457502509
 10
5603.473518674746
 20
1524.543530031396
 10
5602.926830832575
 20
1523.75120271312
 10
5602.313592396324
 20
1523.044573224049
 10
5601.654686409143
 20
1522.447706318362
 10
5600.972551108207
 20
1521.980925721002
  0
LINE
  5
612D7
330
1F
100
AcDbEntity
  8
0
  6
Continuous
 62
     0
370
    15
100
AcDbLine
 10
5589.040494709043
 20
1525.175283643025
 30
0.0
 11
5586.741656760199
 21
1523.848192743083
 31
0.0
  0
LINE
  5
612D9
330
1F
100
AcDbEntity
  8
0
  6
Continuous
 62
     0
370
    15
100
AcDbLine
 10
5543.555478160284
 20
1528.843430675321
 30
0.0
 11
5542.636239259922
 21
1529.374095996972
 31
0.0
  0
ARC
  5
612DA
330
1F
100
AcDbEntity
  8
0
  6
Continuous
 62
     0
370
    15
100
AcDbCircle
 10
5545.625759580591
 20
1525.606913763993
 30
0.0
 40
3.842018593990986
100
AcDbArc
 50
122.6055593639979
 51
177.3944774619044
  0
ARC
  5
612DB
330
1F
100
AcDbEntity
  8
0
  6
Continuous
 62
     0
370
    15
100
AcDbCircle
 10
5544.678477597927
 20
1526.173294933404
 30
0.0
 40
3.796822997949116
100
AcDbArc
 50
122.5394945368669
 51
156.877164449335
  0
LINE
  5
612DC
330
1F
100
AcDbEntity
  8
0
  6
Continuous
 62
     0
370
    15
100
AcDbLine
 10
5543.555478160284
 20
1479.850981536317
 30
0.0
 11
5556.990510522091
 21
1487.606860630259
 31
0.0
  0
ARC
  5
612DD
330
1F
100
AcDbEntity
  8
0
  6
Continuous
 62
     0
370
    15
100
AcDbCircle
 10
5542.865399490973
 20
1480.697008104002
 30
0.0
 40
1.091773567673756
100
AcDbArc
 50
170.7859998865916
 51
309.2031004886027
  0
LINE
  5
612DE
330
1F
100
AcDbEntity
  8
0
  6
Continuous
 62
     0
370
    15
100
AcDbLine
 10
5541.787712893192
 20
1525.781569144458
 30
0.0
 11
5541.787712893192
 21
1480.871825494553
 31
0.0
  0
LINE
  5
612DF
330
1F
100
AcDbEntity
  8
0
  6
Continuous
 62
     0
370
    15
100
AcDbLine
 10
5629.46895496151
 20
1578.440225135214
 30
0.0
 11
5543.555478160284
 21
1528.843430675321
 31
0.0
  0
ARC
  5
612E0
330
1F
100
AcDbEntity
  8
0
  6
Continuous
 62
     0
370
    15
100
AcDbCircle
 10
5638.76285219601
 20
1564.551945903101
 30
0.0
 40
16.7110988817199
100
AcDbArc
 50
78.98281662485098
 51
123.7900413290903
  0
LINE
  5
612E1
330
1F
100
AcDbEntity
  8
0
  6
Continuous
 62
     0
370
    15
100
AcDbLine
 10
5588.984268837497
 20
1525.142824758738
 30
0.0
 11
5589.01349635985
 21
1525.165519552143
 31
0.0
  0
LINE
  5
612E2
330
1F
100
AcDbEntity
  8
0
  6
Continuous
 62
     0
370
    15
100
AcDbLine
 10
5540.868473992829
 20
1515.942258866841
 30
0.0
 11
5540.868473992829
 21
1490.996876966783
 31
0.0
  0
LINE
  5
612E3
330
1F
100
AcDbEntity
  8
0
  6
Continuous
 62
     0
370
    15
100
AcDbLine
 10
5629.46895496151
 20
1578.440225135214
 30
0.0
 11
5628.549716061147
 21
1578.970890456864
 31
0.0
  0
LINE
  5
612E4
330
1F
100
AcDbEntity
  8
0
  6
Continuous
 62
     0
370
    15
100
AcDbLine
 10
5628.549716061147
 20
1578.970890456864
 30
0.0
 11
5542.636239259922
 21
1529.374095996972
 31
0.0
  0
LINE
  5
612E5
330
1F
100
AcDbEntity
  8
0
  6
Continuous
 62
     0
370
    15
100
AcDbLine
 10
5541.186672162376
 20
1480.417786230483
 30
0.0
 11
5541.386342857195
 21
1480.257878650959
 31
0.0
  0
LWPOLYLINE
  5
612E6
330
1F
100
AcDbEntity
  8
0
  6
Continuous
 62
     0
370
    15
100
AcDbPolyline
 90
       10
 70
   128
 43
0.0
 10
5642.210355234674
 20
1581.101663691286
 10
5641.018521384129
 20
1581.490615410299
 10
5639.633586478772
 20
1581.759712722582
 10
5638.180310458556
 20
1581.860585325806
 10
5636.667654797144
 20
1581.79261184137
 10
5635.104955021481
 20
1581.556218012974
 10
5633.501839052275
 20
1581.152856942247
 10
5631.868192959677
 20
1580.585017457056
 10
5630.21408457213
 20
1579.856195981541
 10
5628.549716061147
 20
1578.970890456864
  0
LINE
  5
612FE
330
1F
100
AcDbEntity
  8
0
  6
Continuous
 62
     0
370
    15
100
AcDbLine
 10
5537.423325070371
 20
1515.194177733327
 30
0.0
 11
5539.051362997938
 21
1516.13402402372
 31
0.0
  0
LINE
  5
612FF
330
1F
100
AcDbEntity
  8
0
  6
Continuous
 62
     0
370
    15
100
AcDbLine
 10
5526.761088761798
 20
1515.194177923412
 30
0.0
 11
5537.423325070371
 21
1515.194177733327
 31
0.0
  0
LWPOLYLINE
  5
61300
330
1F
100
AcDbEntity
  8
0
  6
Continuous
 62
     0
370
    15
100
AcDbPolyline
 90
        9
 70
   128
 43
0.0
 10
5525.912558443801
 20
1516.549953193877
 10
5525.731786988545
 20
1516.365016435064
 10
5525.634416243953
 20
1516.160242423793
 10
5525.626305939066
 20
1515.947947896459
 10
5525.70793845773
 20
1515.740895718546
 10
5525.874404350643
 20
1515.551536826338
 10
5526.115698186453
 20
1515.391261577829
 10
5526.417302680758
 20
1515.269703662093
 10
5526.761088761798
 20
1515.194177923412
  0
LINE
  5
61301
330
1F
100
AcDbEntity
  8
0
  6
Continuous
 62
     0
370
    15
100
AcDbLine
 10
5532.121716460124
 20
1520.134423819097
 30
0.0
 11
5525.912558443801
 21
1516.549953193877
 31
0.0
  0
LINE
  5
61302
330
1F
100
AcDbEntity
  8
0
  6
Continuous
 62
     0
370
    15
100
AcDbLine
 10
5526.761088761798
 20
1515.194177923412
 30
0.0
 11
5526.761088761798
 21
1492.331034912661
 31
0.0
  0
LINE
  5
61303
330
1F
100
AcDbEntity
  8
0
  6
Continuous
 62
     0
370
    15
100
AcDbLine
 10
5537.423325070371
 20
1515.194177733327
 30
0.0
 11
5537.423325070371
 21
1492.331034722577
 31
0.0
  0
LINE
  5
61304
330
1F
100
AcDbEntity
  8
0
  6
Continuous
 62
     0
370
    15
100
AcDbLine
 10
5526.761088761798
 20
1492.331034912661
 30
0.0
 11
5537.423325070371
 21
1492.331034722577
 31
0.0
  0
LWPOLYLINE
  5
61305
330
1F
100
AcDbEntity
  8
0
  6
Continuous
 62
     0
370
    15
100
AcDbPolyline
 90
        7
 70
   128
 43
0.0
 10
5525.618681640026
 20
1493.171998126062
 10
5525.626305939068
 20
1493.084804885709
 10
5525.70793845773
 20
1492.877752707796
 10
5525.874404350643
 20
1492.688393815587
 10
5526.115698186453
 20
1492.528118567078
 10
5526.417302680758
 20
1492.406560651342
 10
5526.761088761798
 20
1492.331034912661
  0
LINE
  5
61306
330
1F
100
AcDbEntity
  8
0
  6
Continuous
 62
     0
370
    15
100
AcDbLine
 10
5537.423325070371
 20
1492.331034722577
 30
0.0
 11
5539.487730393994
 21
1493.522790548669
 31
0.0
  0
ARC
  5
61307
330
1F
100
AcDbEntity
  8
0
  6
Continuous
 62
     0
370
    15
100
AcDbCircle
 10
5532.579217144754
 20
1519.994253770423
 30
0.0
 40
0.6578963459210059
100
AcDbArc
 50
159.3925307562133
 51
177.8437561264078
  0
ARC
  5
61308
330
1F
100
AcDbEntity
  8
0
  6
Continuous
 62
     0
370
    15
100
AcDbCircle
 10
5540.822153627714
 20
1509.266434129551
 30
0.0
 40
0.7390337433750948
100
AcDbArc
 50
242.2175888015434
 51
273.5934277143426
  0
LINE
  5
61309
330
1F
100
AcDbEntity
  8
0
  6
Continuous
 62
     0
370
    15
100
AcDbLine
 10
5539.346307960905
 20
1509.26571968207
 30
0.0
 11
5540.477678864539
 21
1508.61259316159
 31
0.0
  0
LINE
  5
6130A
330
1F
100
AcDbEntity
  8
0
  6
Continuous
 62
     0
370
    15
100
AcDbLine
 10
5539.346307960905
 20
1509.26571968207
 30
0.0
 11
5539.346307960905
 21
1513.266769517647
 31
0.0
  0
LINE
  5
6130B
330
1F
100
AcDbEntity
  8
0
  6
Continuous
 62
     0
370
    15
100
AcDbLine
 10
5539.346307960905
 20
1513.266769517647
 30
0.0
 11
5539.487729076907
 21
1513.185128845151
 31
0.0
  0
LINE
  5
6130C
330
1F
100
AcDbEntity
  8
0
  6
Continuous
 62
     0
370
    15
100
AcDbLine
 10
5539.487729076907
 20
1513.185128845151
 30
0.0
 11
5539.487729076907
 21
1515.882116239806
 31
0.0
  0
LINE
  5
6130D
330
1F
100
AcDbEntity
  8
0
  6
Continuous
 62
     0
370
    15
100
AcDbLine
 10
5539.346307960905
 20
1513.266769517647
 30
0.0
 11
5539.487731711082
 21
1513.348411710823
 31
0.0
  0
LINE
  5
6130E
330
1F
100
AcDbEntity
  8
0
  6
Continuous
 62
     0
370
    15
100
AcDbLine
 10
5539.346307960905
 20
1500.120462154573
 30
0.0
 11
5540.868473005012
 21
1500.999189330302
 31
0.0
  0
ARC
  5
6130F
330
1F
100
AcDbEntity
  8
0
  6
Continuous
 62
     0
370
    15
100
AcDbCircle
 10
5540.82444286606
 20
1500.131859955817
 30
0.0
 40
0.749558434620951
100
AcDbArc
 50
242.4434163622602
 51
273.3676001533404
  0
LINE
  5
61310
330
1F
100
AcDbEntity
  8
0
  6
Continuous
 62
     0
370
    15
100
AcDbLine
 10
5539.346307960905
 20
1500.120462154573
 30
0.0
 11
5540.477678864539
 21
1499.467335634093
 31
0.0
  0
LINE
  5
61311
330
1F
100
AcDbEntity
  8
0
  6
Continuous
 62
     0
370
    15
100
AcDbLine
 10
5539.084643861737
 20
1493.290094134721
 30
0.0
 11
5539.487729076907
 21
1493.05739799308
 31
0.0
  0
LINE
  5
61312
330
1F
100
AcDbEntity
  8
0
  6
Continuous
 62
     0
370
    15
100
AcDbLine
 10
5539.346307960905
 20
1496.119412889343
 30
0.0
 11
5539.487729076907
 21
1496.037772216846
 31
0.0
  0
LINE
  5
61313
330
1F
100
AcDbEntity
  8
0
  6
Continuous
 62
     0
370
    15
100
AcDbLine
 10
5539.346307960905
 20
1496.119412889343
 30
0.0
 11
5539.346307960905
 21
1500.120462154573
 31
0.0
  0
LINE
  5
61314
330
1F
100
AcDbEntity
  8
0
  6
Continuous
 62
     0
370
    15
100
AcDbLine
 10
5539.487729076907
 20
1493.05739799308
 30
0.0
 11
5539.487729076907
 21
1496.037772216846
 31
0.0
  0
LINE
  5
61315
330
1F
100
AcDbEntity
  8
0
  6
Continuous
 62
     0
370
    15
100
AcDbLine
 10
5525.983876179836
 20
1537.558919801354
 30
0.0
 11
5525.983876179836
 21
1516.591124414827
 31
0.0
  0
LINE
  5
61316
330
1F
100
AcDbEntity
  8
0
  6
Continuous
 62
     0
370
    15
100
AcDbLine
 10
5525.983876179836
 20
1492.605722541382
 30
0.0
 11
5525.983876179836
 21
1484.483765933713
 31
0.0
  0
ARC
  5
61317
330
1F
100
AcDbEntity
  8
0
  6
Continuous
 62
     0
370
    15
100
AcDbCircle
 10
5615.286424455571
 20
1588.99229334174
 30
0.0
 40
0.251486906543933
100
AcDbArc
 50
54.38241441752947
 51
114.3075022841596
  0
ARC
  5
61318
330
1F
100
AcDbEntity
  8
0
  6
Continuous
 62
     0
370
    15
100
AcDbCircle
 10
5626.254864217583
 20
1571.839973013605
 30
0.0
 40
20.45415286598334
100
AcDbArc
 50
88.56442134468767
 51
121.9436370539819
  0
LINE
  5
61319
330
1F
100
AcDbEntity
  8
0
  6
Continuous
 62
     0
370
    15
100
AcDbLine
 10
5541.787712893192
 20
1525.781569144458
 30
0.0
 11
5541.186672491647
 21
1526.128542382738
 31
0.0
  0
LINE
  5
6131A
330
1F
100
AcDbEntity
  8
0
  6
Continuous
 62
     0
370
    15
100
AcDbLine
 10
5541.787712893192
 20
1480.871825494553
 30
0.0
 11
5541.186672491647
 21
1481.218798732833
 31
0.0
  0
LINE
  5
6131D
330
1F
100
AcDbEntity
  8
0
  6
Continuous
 62
     0
370
    15
100
AcDbLine
 10
5531.91332729456
 20
1520.01412344723
 30
0.0
 11
5531.7114402682
 21
1520.130670346779
 31
0.0
  0
LWPOLYLINE
  5
6131E
330
1F
100
AcDbEntity
  8
0
  6
Continuous
 62
     0
370
    15
100
AcDbPolyline
 90
        3
 70
   128
 43
0.0
 10
5541.552950337174
 20
1528.993780647203
 10
5541.263327730921
 20
1528.645704414021
 10
5541.18667315019
 20
1528.538842235733
  0
ARC
  5
6131F
330
1F
100
AcDbEntity
  8
0
  6
Continuous
 62
     0
370
    15
100
AcDbCircle
 10
5541.784935362095
 20
1528.88542379151
 30
0.0
 40
0.819032076725948
100
AcDbArc
 50
29.45113267297786
 51
44.84125512590171
  0
LINE
  5
61320
330
1F
100
AcDbEntity
  8
0
  6
Continuous
 62
     0
370
    15
100
AcDbLine
 10
5540.477678864539
 20
1508.61259316159
 30
0.0
 11
5540.477678864539
 21
1515.716657356571
 31
0.0
  0
ARC
  5
61321
330
1F
100
AcDbEntity
  8
0
  6
Continuous
 62
     0
370
    15
100
AcDbCircle
 10
5627.353793815668
 20
1578.285016199926
 30
0.0
 40
0.8078256333375056
100
AcDbArc
 50
29.71980558770695
 51
44.94124309914107
  0
LINE
  5
61322
330
1F
100
AcDbEntity
  8
0
  6
Continuous
 62
     0
370
    15
100
AcDbLine
 10
5540.477678864543
 20
1491.222477576725
 30
0.0
 11
5540.477678864539
 21
1499.467335634093
 31
0.0
  0
ARC
  5
61323
330
1F
100
AcDbEntity
  8
0
  6
Continuous
 62
     0
370
    15
100
AcDbCircle
 10
5637.671078131541
 20
1564.32779278786
 30
0.0
 40
17.51654140110069
100
AcDbArc
 50
91.29225972667022
 51
114.6290138217036
  0
ARC
  5
61324
330
1F
100
AcDbEntity
  8
0
  6
Continuous
 62
     0
370
    15
100
AcDbCircle
 10
5646.654895103482
 20
1560.063285857011
 30
0.0
 40
20.45415286598334
100
AcDbArc
 50
88.56442134469278
 51
121.9436370539819
  0
LINE
  5
61325
330
1F
100
AcDbEntity
  8
0
  6
Continuous
 62
     0
370
    15
100
AcDbLine
 10
5656.67773331794
 20
1576.375698501169
 30
0.0
 11
5652.168260368684
 21
1578.978961822756
 31
0.0
  0
ARC
  5
61326
330
1F
100
AcDbEntity
  8
0
  6
Continuous
 62
     0
370
    15
100
AcDbCircle
 10
5640.014993737745
 20
1574.119382313412
 30
0.0
 40
0.7684045234800557
100
AcDbArc
 50
2.605493904851655
 51
57.39438300234321
  0
LWPOLYLINE
  5
61327
330
1F
100
AcDbEntity
  8
0
  6
Continuous
 62
     0
370
    15
100
AcDbPolyline
 90
       43
 70
   128
 43
0.0
 10
5640.782603896532
 20
1521.895700120564
 10
5642.473553898035
 20
1522.944928531843
 10
5644.155047200404
 20
1524.134413043351
 10
5645.817679788064
 20
1525.457505049974
 10
5647.452155646743
 20
1526.906803078204
 10
5649.04932627613
 20
1528.474198410199
 10
5650.600272349413
 20
1530.150935152698
 10
5652.0963116158
 20
1531.927628487379
 10
5653.529083194217
 20
1533.794346792948
 10
5654.890568646733
 20
1535.740647384914
 10
5656.173155198834
 20
1537.755646472247
 10
5657.36967788628
 20
1539.828079229986
 10
5658.473430091793
 20
1541.946347707418
 10
5659.478253107143
 20
1544.098613215911
 10
5660.378520328046
 20
1546.272835684358
 10
5661.169205742823
 20
1548.456860630683
 10
5661.845873395665
 20
1550.638466121422
 10
5662.404751143633
 20
1552.805458488067
 10
5662.842704314866
 20
1554.945714345114
 10
5663.157293660506
 20
1557.047269273599
 10
5663.346749012919
 20
1559.098365162404
 10
5663.410021969248
 20
1561.08753699112
 10
5663.346749012919
 20
1563.003656179911
 10
5663.157293660506
 20
1564.836010814378
 10
5662.842704314866
 20
1566.574348995912
 10
5662.404751143633
 20
1568.208954884515
 10
5661.845873395665
 20
1569.730681403647
 10
5661.169205742823
 20
1571.131023242199
 10
5660.378520328046
 20
1572.402141194736
 10
5659.478253107143
 20
1573.536938205317
 10
5658.473430091793
 20
1574.529059374417
 10
5657.36967788628
 20
1575.372963441449
 10
5656.173155198834
 20
1576.063919749339
 10
5654.890568646733
 20
1576.598076684704
 10
5653.529083194217
 20
1576.972437351441
 10
5652.0963116158
 20
1577.184914325046
 10
5650.600272349413
 20
1577.234317489161
 10
5649.04932627613
 20
1577.120369250769
 10
5647.452155646743
 20
1576.843710625865
 10
5645.817679788064
 20
1576.405882996265
 10
5644.155047200404
 20
1575.809338756824
 10
5642.473553898035
 20
1575.05741546736
 10
5640.782603896532
 20
1574.154313042477
  0
ARC
  5
61328
330
1F
100
AcDbEntity
  8
0
  6
Continuous
 62
     0
370
    15
100
AcDbCircle
 10
5651.027276815341
 20
1566.583385648101
 30
0.0
 40
11.29652432932563
100
AcDbArc
 50
33.68616504048717
 51
85.45939826806591
  0
ARC
  5
61329
330
1F
100
AcDbEntity
  8
0
  6
Continuous
 62
     0
370
    15
100
AcDbCircle
 10
5650.992597192155
 20
1558.317624646982
 30
0.0
 40
19.54891618185707
100
AcDbArc
 50
87.2762482609339
 51
122.7084754767596
  0
SPLINE
  5
6132A
330
1F
100
AcDbEntity
  8
0
  6
Continuous
 62
     0
370
    15
100
AcDbSpline
210
0.0
220
0.0
230
1.0
 70
     8
 71
     3
 72
    38
 73
    34
 74
     0
 42
0.000000001
 43
0.0000000001
 40
0.0
 40
0.0
 40
0.0
 40
0.0
 40
0.0178065531584154
 40
0.0516024102020985
 40
0.0853955154702021
 40
0.1191810027756879
 40
0.152958177583568
 40
0.1867270200189071
 40
0.2204882491320271
 40
0.2542429071123419
 40
0.2879920762707461
 40
0.3217372802203555
 40
0.3554799282813016
 40
0.3892213377650533
 40
0.422963161992168
 40
0.4567063691406991
 40
0.4904524154749473
 40
0.5242028004007134
 40
0.5579590156119171
 40
0.5917225459214023
 40
0.6254947391104737
 40
0.6592768125836516
 40
0.6930695812108003
 40
0.7268734457548078
 40
0.7606879392501353
 40
0.7945113392879807
 40
0.8283400280285471
 40
0.8621652003552731
 40
0.8959758324924997
 40
0.9297569067935845
 40
0.9634893497868141
 40
0.9971521800063478
 40
1.0
 40
1.0
 40
1.0
 40
1.0
 10
5640.678998055195
 20
1521.66676149581
 30
0.0
 10
5640.963525398383
 20
1521.834695943823
 30
0.0
 10
5641.788069966118
 20
1522.321360723713
 30
0.0
 10
5643.148684099102
 20
1523.225179556366
 30
0.0
 10
5644.750039398115
 20
1524.414206114027
 30
0.0
 10
5646.329651494243
 20
1525.721686000414
 30
0.0
 10
5647.879864717957
 20
1527.138769302608
 30
0.0
 10
5649.393228563613
 20
1528.659032853496
 30
0.0
 10
5650.862470984215
 20
1530.274807643104
 30
0.0
 10
5652.280526577462
 20
1531.978192323418
 30
0.0
 10
5653.64056128373
 20
1533.76083885413
 30
0.0
 10
5654.936016226926
 20
1535.614031109531
 30
0.0
 10
5656.160630285038
 20
1537.528728319637
 30
0.0
 10
5657.308456370945
 20
1539.495610950396
 30
0.0
 10
5658.373924429388
 20
1541.505091916185
 30
0.0
 10
5659.3518270776
 20
1543.547402948642
 30
0.0
 10
5660.237375732469
 20
1545.61261833267
 30
0.0
 10
5661.026216910033
 20
1547.690723270742
 30
0.0
 10
5661.714441247979
 20
1549.771655481243
 30
0.0
 10
5662.298618177017
 20
1551.84534834685
 30
0.0
 10
5662.775772222669
 20
1553.90178166311
 30
0.0
 10
5663.143444622694
 20
1555.931025757601
 30
0.0
 10
5663.399623126545
 20
1557.923274273714
 30
0.0
 10
5663.542836902539
 20
1559.868895849092
 30
0.0
 10
5663.572090692987
 20
1561.758454631981
 30
0.0
 10
5663.486925322433
 20
1563.582759619066
 30
0.0
 10
5663.287301442691
 20
1565.332697681572
 30
0.0
 10
5662.974118627571
 20
1566.999821891576
 30
0.0
 10
5662.547581746468
 20
1568.574401850498
 30
0.0
 10
5662.013269175033
 20
1570.052651269466
 30
0.0
 10
5661.360052917058
 20
1571.410296397197
 30
0.0
 10
5660.860868662761
 20
1572.308345522199
 30
0.0
 10
5660.55175489559
 20
1572.716521957421
 30
0.0
 10
5660.527644112537
 20
1572.748359599489
 30
0.0
  0
ARC
  5
6132B
330
1F
100
AcDbEntity
  8
0
  6
Continuous
 62
     0
370
    15
100
AcDbCircle
 10
5640.014961142446
 20
1574.119364904917
 30
0.0
 40
0.7684045234800557
100
AcDbArc
 50
2.605493904851655
 51
57.39438300250314
  0
LINE
  5
6132C
330
1F
100
AcDbEntity
  8
0
  6
Continuous
 62
     0
370
    15
100
AcDbLine
 10
5635.832825655991
 20
1577.419994206254
 30
0.0
 11
5640.429018511231
 21
1574.766668548549
 31
0.0
  0
LWPOLYLINE
  5
6132D
330
1F
100
AcDbEntity
  8
0
  6
Continuous
 62
     0
370
    15
100
AcDbPolyline
 90
       12
 70
   128
 43
0.0
 10
5635.77407301468
 20
1577.427592967068
 10
5637.491443821844
 20
1578.344804062215
 10
5639.199210415902
 20
1579.10847860082
 10
5640.887821267312
 20
1579.714343677686
 10
5642.547832847831
 20
1580.159010035359
 10
5644.169964948251
 20
1580.439994872827
 10
5645.745145459427
 20
1580.555723362244
 10
5647.26456042167
 20
1580.505548416268
 10
5648.719717245
 20
1580.289750682129
 10
5650.102476319302
 20
1579.909538538663
 10
5651.405103697873
 20
1579.367038965814
 10
5652.16826036869
 20
1578.978961822753
  0
LINE
  5
6132E
330
1F
100
AcDbEntity
  8
0
  6
Continuous
 62
     0
370
    15
100
AcDbLine
 10
5645.823701692829
 20
1582.641664583008
 30
0.0
 11
5631.681565726656
 21
1590.805745898922
 31
0.0
  0
LINE
  5
6132F
330
1F
100
AcDbEntity
  8
0
  6
Continuous
 62
     0
370
    15
100
AcDbLine
 10
5640.939789095475
 20
1581.510902188281
 30
0.0
 11
5638.741315552237
 21
1582.780053950138
 31
0.0
  0
LWPOLYLINE
  5
61330
330
1F
100
AcDbEntity
  8
0
  6
Continuous
 62
     0
370
    15
100
AcDbPolyline
 90
       13
 70
   128
 43
0.0
 10
5646.267387519019
 20
1580.513767693315
 10
5645.939700356643
 20
1580.783437148327
 10
5644.775277762696
 20
1581.508391120263
 10
5643.521651363875
 20
1582.074818622846
 10
5642.18618632196
 20
1582.479400685154
 10
5640.776706145702
 20
1582.719754803308
 10
5639.301497959194
 20
1582.794479427056
 10
5637.76920713473
 20
1582.703130395311
 10
5636.188832024473
 20
1582.446246792379
 10
5634.569639666737
 20
1582.025331944307
 10
5632.921139444219
 20
1581.442859505047
 10
5631.25300405865
 20
1580.702247608137
 10
5629.575019481421
 20
1579.807840620292
  0
LWPOLYLINE
  5
61331
330
1F
100
AcDbEntity
  8
0
  6
Continuous
 62
     0
370
    15
100
AcDbPolyline
 90
       15
 70
   128
 43
0.0
 10
5648.646051918786
 20
1580.300675147607
 10
5648.562788499059
 20
1580.405629555406
 10
5647.54226578264
 20
1581.413253473233
 10
5646.421264979372
 20
1582.270341402743
 10
5645.206050164616
 20
1582.972096516703
 10
5643.903422786043
 20
1583.51459837094
 10
5642.520663711743
 20
1583.894810514405
 10
5641.065506888412
 20
1584.110607488082
 10
5639.54609192617
 20
1584.160783194521
 10
5637.97091141499
 20
1584.045053184178
 10
5636.34877931457
 20
1583.764069867636
 10
5634.688767734053
 20
1583.319403509963
 10
5633.000156882645
 20
1582.713538433097
 10
5631.292390288583
 20
1581.949863894492
 10
5629.575019481421
 20
1581.03265127842
  0
LWPOLYLINE
  5
61332
330
1F
100
AcDbEntity
  8
0
  6
Continuous
 62
     0
370
    15
100
AcDbPolyline
 90
       11
 70
   128
 43
0.0
 10
5643.698116008887
 20
1580.302599749798
 10
5643.245829874875
 20
1580.524295801818
 10
5641.937760284491
 20
1580.959950088648
 10
5640.552825379136
 20
1581.229047400931
 10
5639.099549358918
 20
1581.329920004156
 10
5637.586893697508
 20
1581.261946519719
 10
5636.024193921843
 20
1581.025552691322
 10
5634.421077952638
 20
1580.622191620597
 10
5632.787431860042
 20
1580.054352135406
 10
5631.133323472492
 20
1579.32553065989
 10
5629.46895496151
 20
1578.440225135214
  0
LWPOLYLINE
  5
61333
330
1F
100
AcDbEntity
  8
0
  6
Continuous
 62
     0
370
    15
100
AcDbPolyline
 90
       11
 70
   128
 43
0.0
 10
5643.548496601472
 20
1580.456130992161
 10
5642.326590974511
 20
1581.054961123468
 10
5641.018521384129
 20
1581.490615410299
 10
5639.633586478771
 20
1581.759712722582
 10
5638.180310458556
 20
1581.860585325806
 10
5636.667654797144
 20
1581.79261184137
 10
5635.104955021481
 20
1581.556218012974
 10
5633.501839052273
 20
1581.152856942247
 10
5631.868192959677
 20
1580.585017457056
 10
5630.21408457213
 20
1579.856195981541
 10
5628.549716061147
 20
1578.970890456864
  0
ARC
  5
61334
330
1F
100
AcDbEntity
  8
0
  6
Continuous
 62
     0
370
    15
100
AcDbCircle
 10
5637.671078131541
 20
1564.32779278786
 30
0.0
 40
17.51654140110108
100
AcDbArc
 50
91.29225972667022
 51
114.6290138217621
  0
ARC
  5
61335
330
1F
100
AcDbEntity
  8
0
  6
Continuous
 62
     0
370
    15
100
AcDbCircle
 10
5580.230813848959
 20
1518.90401844653
 30
0.0
 40
7.961183470763097
100
AcDbArc
 50
285.0209076245454
 51
309.3008500548582
  0
LINE
  5
61336
330
1F
100
AcDbEntity
  8
0
  6
Continuous
 62
     0
370
    15
100
AcDbLine
 10
5585.273366583748
 20
1512.743409371768
 30
0.0
 11
5599.00679394088
 21
1523.407376599388
 31
0.0
  0
ARC
  5
61337
330
1F
100
AcDbEntity
  8
0
  6
Continuous
 62
     0
370
    15
100
AcDbCircle
 10
5593.225506774816
 20
1530.71361558868
 30
0.0
 40
9.316888400382531
100
AcDbArc
 50
308.3538946758176
 51
356.7753815258943
  0
ARC
  5
61338
330
1F
100
AcDbEntity
  8
0
  6
Continuous
 62
     0
370
    15
100
AcDbCircle
 10
5594.08799672472
 20
1530.244302402326
 30
0.0
 40
7.813054960429531
100
AcDbArc
 50
302.4964955461428
 51
357.1847579302586
  0
ARC
  5
61339
330
1F
100
AcDbEntity
  8
0
  6
Continuous
 62
     0
370
    15
100
AcDbCircle
 10
5579.053133697747
 20
1522.11206299454
 30
0.0
 40
10.68342724681098
100
AcDbArc
 50
286.1211404415962
 51
339.1933712997305
  0
LINE
  5
6133A
330
1F
100
AcDbEntity
  8
0
  6
Continuous
 62
     0
370
    15
100
AcDbLine
 10
5598.285545047438
 20
1523.654581930777
 30
0.0
 11
5589.03983682308
 21
1518.317148183329
 31
0.0
  0
LINE
  5
6133B
330
1F
100
AcDbEntity
  8
0
  6
Continuous
 62
     0
370
    15
100
AcDbLine
 10
5589.03983682308
 20
1518.317148183329
 30
0.0
 11
5587.696333916174
 21
1519.092735902638
 31
0.0
  0
ARC
  5
6133C
330
1F
100
AcDbEntity
  8
0
  6
Continuous
 62
     0
370
    15
100
AcDbCircle
 10
5576.889541757331
 20
1523.5284283203
 30
0.0
 40
11.68170038943304
100
AcDbArc
 50
294.6956504638179
 51
337.6840993845439
  0
LINE
  5
6133D
330
1F
100
AcDbEntity
  8
0
  6
Continuous
 62
     0
370
    15
100
AcDbLine
 10
5598.285545047438
 20
1523.654581930777
 30
0.0
 11
5596.942042140527
 21
1524.430169650087
 31
0.0
  0
LINE
  5
6133E
330
1F
100
AcDbEntity
  8
0
  6
Continuous
 62
     0
370
    15
100
AcDbLine
 10
5596.942042140527
 20
1524.430169650087
 30
0.0
 11
5587.696333916174
 21
1519.092735902638
 31
0.0
  0
ARC
  5
6133F
330
1F
100
AcDbEntity
  8
0
  6
Continuous
 62
     0
370
    15
100
AcDbCircle
 10
5592.714963837201
 20
1531.046079563092
 30
0.0
 40
7.851016173685083
100
AcDbArc
 50
302.5755759746765
 51
344.3416150666924
  0
LINE
  5
61340
330
1F
100
AcDbEntity
  8
0
  6
Continuous
 62
     0
370
    15
100
AcDbLine
 10
5587.55487723877
 20
1511.426321305633
 30
0.0
 11
5585.273366583748
 21
1512.743409371768
 31
0.0
  0
LINE
  5
6134B
330
1F
100
AcDbEntity
  8
0
  6
Continuous
 62
     0
370
    15
100
AcDbLine
 10
5702.922307019236
 20
1734.863347605324
 30
0.0
 11
5702.222307019235
 21
1734.863347605324
 31
0.0
  0
LINE
  5
6134C
330
1F
100
AcDbEntity
  8
0
  6
Continuous
 62
     0
370
    15
100
AcDbLine
 10
5702.222307019235
 20
1732.363347605324
 30
0.0
 11
5702.922307019236
 21
1732.363347605324
 31
0.0
  0
LINE
  5
6134D
330
1F
100
AcDbEntity
  8
0
  6
Continuous
 62
     0
370
    15
100
AcDbLine
 10
5702.922307019236
 20
1689.863347605324
 30
0.0
 11
5702.222307019235
 21
1689.863347605324
 31
0.0
  0
LINE
  5
6134E
330
1F
100
AcDbEntity
  8
0
  6
Continuous
 62
     0
370
    15
100
AcDbLine
 10
5702.222307019235
 20
1687.363347605324
 30
0.0
 11
5702.922307019236
 21
1687.363347605324
 31
0.0
  0
LINE
  5
6134F
330
1F
100
AcDbEntity
  8
0
  6
Continuous
 62
     0
370
    15
100
AcDbLine
 10
5702.222307019235
 20
1733.613347605324
 30
0.0
 11
5702.222307019235
 21
1734.863347605324
 31
0.0
  0
LINE
  5
61350
330
1F
100
AcDbEntity
  8
0
  6
Continuous
 62
     0
370
    15
100
AcDbLine
 10
5702.222307019235
 20
1732.363347605324
 30
0.0
 11
5702.222307019235
 21
1733.613347605324
 31
0.0
  0
LINE
  5
61351
330
1F
100
AcDbEntity
  8
0
  6
Continuous
 62
     0
370
    15
100
AcDbLine
 10
5702.222307019235
 20
1688.613347605324
 30
0.0
 11
5702.222307019235
 21
1689.863347605324
 31
0.0
  0
LINE
  5
61352
330
1F
100
AcDbEntity
  8
0
  6
Continuous
 62
     0
370
    15
100
AcDbLine
 10
5702.222307019235
 20
1687.363347605324
 30
0.0
 11
5702.222307019235
 21
1688.613347605324
 31
0.0
  0
LINE
  5
61353
330
1F
100
AcDbEntity
  8
0
  6
Continuous
 62
     0
370
    15
100
AcDbLine
 10
5861.372304980757
 20
1630.406600880885
 30
0.0
 11
5861.372304980757
 21
1630.156600374246
 31
0.0
  0
LINE
  5
61358
330
1F
100
AcDbEntity
  8
0
  6
Continuous
 62
     0
370
    15
100
AcDbLine
 10
5830.622305994036
 20
1630.156600374246
 30
0.0
 11
5861.372304980757
 21
1630.156600374246
 31
0.0
  0
LINE
  5
61359
330
1F
100
AcDbEntity
  8
0
  6
Continuous
 62
     0
370
    15
100
AcDbLine
 10
5702.922307019236
 20
1630.156600374246
 30
0.0
 11
5830.622305994036
 21
1630.156600374246
 31
0.0
  0
LINE
  5
6135A
330
1F
100
AcDbEntity
  8
0
  6
Continuous
 62
     0
370
    15
100
AcDbLine
 10
5719.622306590082
 20
1630.406600880885
 30
0.0
 11
5719.622306590082
 21
1630.156600374246
 31
0.0
  0
LINE
  5
6135B
330
1F
100
AcDbEntity
  8
0
  6
Continuous
 62
     0
370
    15
100
AcDbLine
 10
5862.92230886698
 20
1622.156600925589
 30
0.0
 11
5702.922307019236
 21
1622.156600925589
 31
0.0
  0
LINE
  5
6135C
330
1F
100
AcDbEntity
  8
0
  6
Continuous
 62
     0
370
    15
100
AcDbLine
 10
5862.92230886698
 20
1622.156600925589
 30
0.0
 11
5862.92230886698
 21
1602.156601372624
 31
0.0
  0
LINE
  5
6135D
330
1F
100
AcDbEntity
  8
0
  6
Continuous
 62
     0
370
    15
100
AcDbLine
 10
5702.922307019236
 20
1622.156600925589
 30
0.0
 11
5702.922307019236
 21
1602.156601372624
 31
0.0
  0
LINE
  5
6135E
330
1F
100
AcDbEntity
  8
0
  6
Continuous
 62
     0
370
    15
100
AcDbLine
 10
5703.422308032515
 20
1601.656601290667
 30
0.0
 11
5862.422307853701
 21
1601.656601290667
 31
0.0
  0
ARC
  5
6135F
330
1F
100
AcDbEntity
  8
0
  6
Continuous
 62
     0
370
    15
100
AcDbCircle
 10
5862.42230782764
 20
1602.156600985307
 30
0.0
 40
0.5
100
AcDbArc
 50
270.0
 51
0.0
  0
ARC
  5
61360
330
1F
100
AcDbEntity
  8
0
  6
Continuous
 62
     0
370
    15
100
AcDbCircle
 10
5703.42230782764
 20
1602.156600985307
 30
0.0
 40
0.5
100
AcDbArc
 50
180.0
 51
270.0
  0
LINE
  5
61361
330
1F
100
AcDbEntity
  8
0
  6
Continuous
 62
     0
370
    15
100
AcDbLine
 10
5701.970130269529
 20
1618.68660104599
 30
0.0
 11
5702.922307019236
 21
1618.68660104599
 31
0.0
  0
ARC
  5
61362
330
1F
100
AcDbEntity
  8
0
  6
Continuous
 62
     0
370
    15
100
AcDbCircle
 10
5695.713724938861
 20
1610.370040529624
 30
0.0
 40
1.500000000000064
100
AcDbArc
 50
148.7919565055801
 51
261.4782553776322
  0
LINE
  5
61363
330
1F
100
AcDbEntity
  8
0
  6
Continuous
 62
     0
370
    15
100
AcDbLine
 10
5702.922307019236
 20
1608.886600929761
 30
0.0
 11
5695.491448109152
 21
1608.886600929761
 31
0.0
  0
LINE
  5
61364
330
1F
100
AcDbEntity
  8
0
  6
Continuous
 62
     0
370
    15
100
AcDbLine
 10
5694.430790905954
 20
1611.147261216754
 30
0.0
 11
5701.970130269529
 21
1618.68660104599
 31
0.0
  0
ARC
  5
61365
330
1F
100
AcDbEntity
  8
0
  6
Continuous
 62
     0
370
    15
100
AcDbCircle
 10
5862.42230782764
 20
1636.906600985307
 30
0.0
 40
0.5000000000000018
100
AcDbArc
 50
0.0
 51
90.0
  0
LINE
  5
61366
330
1F
100
AcDbEntity
  8
0
  6
Continuous
 62
     0
370
    15
100
AcDbLine
 10
5862.422307853701
 20
1637.406600165629
 30
0.0
 11
5718.422308628561
 21
1637.406600165629
 31
0.0
  0
ARC
  5
61367
330
1F
100
AcDbEntity
  8
0
  6
Continuous
 62
     0
370
    15
100
AcDbCircle
 10
5718.42230782764
 20
1636.906600985307
 30
0.0
 40
0.5000000000000018
100
AcDbArc
 50
90.0
 51
180.0
  0
LINE
  5
61368
330
1F
100
AcDbEntity
  8
0
  6
Continuous
 62
     0
370
    15
100
AcDbLine
 10
5717.922307615282
 20
1630.406600880885
 30
0.0
 11
5862.92230886698
 21
1630.406600880885
 31
0.0
  0
LINE
  5
61369
330
1F
100
AcDbEntity
  8
0
  6
Continuous
 62
     0
370
    15
100
AcDbLine
 10
5862.92230886698
 20
1630.406600880885
 30
0.0
 11
5862.92230886698
 21
1636.906601014996
 31
0.0
  0
LINE
  5
6136A
330
1F
100
AcDbEntity
  8
0
  6
Continuous
 62
     0
370
    15
100
AcDbLine
 10
5717.922307615282
 20
1630.406600880885
 30
0.0
 11
5717.922307615282
 21
1636.906601014996
 31
0.0
  0
CIRCLE
  5
6137D
330
1F
100
AcDbEntity
  8
0
  6
CENTER
 62
     1
370
    15
100
AcDbCircle
 10
5762.923892637856
 20
1711.111853724977
 30
0.0
 40
22.50059460698289
  0
CIRCLE
  5
6137E
330
1F
100
AcDbEntity
  8
0
  6
CENTER
 62
     1
370
    15
100
AcDbCircle
 10
5824.925531110431
 20
1711.111853724977
 30
0.0
 40
22.50059460698289
  0
LINE
  5
61382
330
1F
100
AcDbEntity
  8
0
  6
Continuous
 62
     0
370
    15
100
AcDbLine
 10
5702.922307019236
 20
1622.156600925589
 30
0.0
 11
5702.922307019236
 21
1630.156600374246
 31
0.0
  0
LINE
  5
61383
330
1F
100
AcDbEntity
  8
0
  6
Continuous
 62
     0
370
    15
100
AcDbLine
 10
5861.372304980757
 20
1630.156600374246
 30
0.0
 11
5883.87392951011
 21
1630.156600374246
 31
0.0
  0
LINE
  5
61384
330
1F
100
AcDbEntity
  8
0
  6
Continuous
 62
     0
370
    15
100
AcDbLine
 10
5862.92230886698
 20
1622.156600925589
 30
0.0
 11
5883.87392951011
 21
1622.156600925589
 31
0.0
  0
LINE
  5
61385
330
1F
100
AcDbEntity
  8
0
  6
Continuous
 62
     0
370
    15
100
AcDbLine
 10
5883.87392951011
 20
1633.43626999125
 30
0.0
 11
5883.87392951011
 21
1619.207005120941
 31
0.0
  0
LINE
  5
61388
330
1F
100
AcDbEntity
  8
0
  6
CENTER
 62
     0
370
     0
100
AcDbLine
 10
5762.923892637856
 20
1686.374970712003
 30
0.0
 11
5762.923892637856
 21
1735.848736737951
 31
0.0
  0
LINE
  5
64F5D
330
1F
100
AcDbEntity
  8
0
  6
CENTER
 62
     0
370
     0
100
AcDbLine
 10
5688.99607968931
 20
1711.111854320885
 30
0.0
 11
5885.474410421563
 21
1711.111854320885
 31
0.0
  0
LINE
  5
64F5E
330
1F
100
AcDbEntity
  8
0
  6
CENTER
 62
     0
370
     0
100
AcDbLine
 10
5824.925531110431
 20
1686.374971307911
 30
0.0
 11
5824.925531110431
 21
1735.848737333859
 31
0.0
  0
CIRCLE
  5
65DCF
330
1F
100
AcDbEntity
  8
0
  6
Continuous
 62
     0
370
    15
100
AcDbCircle
 10
5821.622307827639
 20
1711.111853724978
 30
0.0
 40
9.25
  0
CIRCLE
  5
65DD0
330
1F
100
AcDbEntity
  8
0
  6
Continuous
 62
     0
370
    15
100
AcDbCircle
 10
5821.622307827639
 20
1711.111853724978
 30
0.0
 40
15.5
  0
SPLINE
  5
68F0F
330
1F
100
AcDbEntity
  8
0
  6
Continuous
 62
     0
370
    15
100
AcDbSpline
210
0.0
220
0.0
230
1.0
 70
     8
 71
     3
 72
    11
 73
     7
 74
     0
 42
0.000000001
 43
0.00000001
 40
0.0
 40
0.0
 40
0.0
 40
0.0
 40
0.2188181993202415
 40
0.4902648063906808
 40
0.7528618240188075
 40
1.0
 40
1.0
 40
1.0
 40
1.0
 10
5630.710815474873
 20
1531.166451342349
 30
0.0
 10
5631.109861396518
 20
1531.008691579592
 30
0.0
 10
5632.003928581624
 20
1530.655228934418
 30
0.0
 10
5633.561526049832
 20
1530.609933250722
 30
0.0
 10
5635.243297612978
 20
1530.891779998849
 30
0.0
 10
5636.356847761886
 20
1531.38288091579
 30
0.0
 10
5636.896737406775
 20
1531.620984516164
 30
0.0
  0
LINE
  5
68F10
330
1F
100
AcDbEntity
  8
0
  6
Continuous
 62
     0
370
    15
100
AcDbLine
 10
5630.415512263692
 20
1531.265298914713
 30
0.0
 11
5630.710815474873
 21
1531.166451342349
 31
0.0
  0
LINE
  5
68F11
330
1F
100
AcDbEntity
  8
0
  6
Continuous
 62
     0
370
    15
100
AcDbLine
 10
5628.468621573339
 20
1532.238744264879
 30
0.0
 11
5630.413165211065
 21
1531.266472446016
 31
0.0
  0
LINE
  5
68F12
330
1F
100
AcDbEntity
  8
0
  6
Continuous
 62
     0
370
    15
100
AcDbLine
 10
5642.487931744785
 20
1555.416006577925
 30
0.0
 11
5640.543388107058
 21
1556.388278396788
 31
0.0
  0
LINE
  5
68F13
330
1F
100
AcDbEntity
  8
0
  6
Continuous
 62
     0
370
    15
100
AcDbLine
 10
5642.693065724844
 20
1555.28364554509
 30
0.0
 11
5642.485584692159
 21
1555.417180109227
 31
0.0
  0
SPLINE
  5
68F14
330
1F
100
AcDbEntity
  8
0
  6
Continuous
 62
     0
370
    15
100
AcDbSpline
210
0.0
220
0.0
230
1.0
 70
     8
 71
     3
 72
    27
 73
    23
 74
     0
 42
0.000000001
 43
0.00000001
 40
0.0
 40
0.0
 40
0.0
 40
0.0
 40
0.0469643285387112
 40
0.0925215225626504
 40
0.1352768624004304
 40
0.1738355645393302
 40
0.2165063032145173
 40
0.2529792584427678
 40
0.2910687766747061
 40
0.3512151215105151
 40
0.4145520483266215
 40
0.4765408260334562
 40
0.5344380648031248
 40
0.5881883815545674
 40
0.6429984741729645
 40
0.6986660214374454
 40
0.7486133041247004
 40
0.7979632709700679
 40
0.8574212938756265
 40
0.9035689028014785
 40
0.9551990978724009
 40
1.0
 40
1.0
 40
1.0
 40
1.0
 10
5636.896737406775
 20
1531.620984516164
 30
0.0
 10
5637.262677603181
 20
1531.81858626331
 30
0.0
 10
5637.983593779179
 20
1532.207869259061
 30
0.0
 10
5639.015378985664
 20
1532.947729718575
 30
0.0
 10
5639.955323946996
 20
1533.742416281572
 30
0.0
 10
5640.839523225564
 20
1534.61242412871
 30
0.0
 10
5641.639394968042
 20
1535.51651618526
 30
0.0
 10
5642.389820929955
 20
1536.483961039409
 30
0.0
 10
5643.196776125689
 20
1537.660371049445
 30
0.0
 10
5644.067701703932
 20
1539.160125834822
 30
0.0
 10
5644.905358477284
 20
1540.971837307382
 30
0.0
 10
5645.551478080875
 20
1542.811240610889
 30
0.0
 10
5645.986051501784
 20
1544.562502449171
 30
0.0
 10
5646.236091998348
 20
1546.218821769304
 30
0.0
 10
5646.318082182405
 20
1547.807770393398
 30
0.0
 10
5646.231032219762
 20
1549.287909583852
 30
0.0
 10
5645.991531863134
 20
1550.631489538384
 30
0.0
 10
5645.59357154897
 20
1551.908880411432
 30
0.0
 10
5645.05328058546
 20
1553.014833983503
 30
0.0
 10
5644.349375032179
 20
1553.986743568325
 30
0.0
 10
5643.595686099256
 20
1554.753927144448
 30
0.0
 10
5642.979390405124
 20
1555.115610947155
 30
0.0
 10
5642.693065724844
 20
1555.28364554509
 30
0.0
  0
LINE
  5
68F15
330
1F
100
AcDbEntity
  8
0
  6
Continuous
 62
     0
370
    15
100
AcDbLine
 10
5628.468618939161
 20
1532.238740609621
 30
0.0
 11
5630.236380254987
 21
1531.354855408423
 31
0.0
  0
LINE
  5
68F16
330
1F
100
AcDbEntity
  8
0
  6
Continuous
 62
     0
370
    15
100
AcDbLine
 10
5642.311146788707
 20
1555.504389540332
 30
0.0
 11
5640.54338678997
 21
1556.388274593526
 31
0.0
  0
LWPOLYLINE
  5
68F17
330
1F
100
AcDbEntity
  8
0
  6
Continuous
 62
     0
370
    15
100
AcDbPolyline
 90
        3
 70
   128
 43
0.0
 10
5630.413165211065
 20
1531.266472446016
 10
5630.498750972412
 20
1531.224680919045
 10
5631.207984968263
 20
1530.949554129538
  0
LINE
  5
68F18
330
1F
100
AcDbEntity
  8
0
  6
Continuous
 62
     0
370
    15
100
AcDbLine
 10
5642.678222131633
 20
1555.315755595395
 30
0.0
 11
5642.487931744785
 21
1555.416006577925
 31
0.0
  0
LWPOLYLINE
  5
68F19
330
1F
100
AcDbEntity
  8
0
  6
Continuous
 62
     0
370
    15
100
AcDbPolyline
 90
       24
 70
   128
 43
0.0
 10
5634.506004840199
 20
1556.00485498846
 10
5633.455872645613
 20
1555.408829515927
 10
5632.418487238523
 20
1554.678122500653
 10
5631.4064426241
 20
1553.821603836558
 10
5630.432021974508
 20
1552.849669655747
 10
5629.507054066197
 20
1551.774118121465
 10
5628.642765765941
 20
1550.6080046948
 10
5627.84965032193
 20
1549.36548433365
 10
5627.137333020692
 20
1548.061640276355
 10
5626.514461868707
 20
1546.71229872157
 10
5625.988598274015
 20
1545.33383947538
 10
5625.566123532898
 20
1543.942994740508
 10
5625.252166389984
 20
1542.556647150545
 10
5625.050538500886
 20
1541.191626109607
 10
5624.963688334085
 20
1539.864500446825
 10
5624.992666926613
 20
1538.591379114933
 10
5625.137126566974
 20
1537.387717640486
 10
5625.395310258417
 20
1536.268125257246
 10
5625.764085963265
 20
1535.246193043824
 10
5626.23897689595
 20
1534.334326134807
 10
5626.814218157851
 20
1533.543592757452
 10
5627.482827860093
 20
1532.883592056095
 10
5628.236688783073
 20
1532.362334217026
 10
5628.468621573339
 20
1532.238744264879
  0
ARC
  5
68F1A
330
1F
100
AcDbEntity
  8
0
  6
Continuous
 62
     0
370
    15
100
AcDbCircle
 10
5637.908652022206
 20
1550.15080434779
 30
0.0
 40
6.771108974810307
100
AcDbArc
 50
67.10059327348446
 51
120.1671511032294
  0
LWPOLYLINE
  5
68F1B
330
1F
100
AcDbEntity
  8
0
  6
Continuous
 62
     0
370
    15
100
AcDbPolyline
 90
       49
 70
   128
 43
0.0
 10
5630.440140511202
 20
1539.628928833155
 10
5630.497610373324
 20
1540.731534166583
 10
5630.669034777108
 20
1541.872742576236
 10
5630.951480565315
 20
1543.033027641367
 10
5631.340116655434
 20
1544.192537642611
 10
5631.828293065024
 20
1545.331432691245
 10
5632.407655498456
 20
1546.430224516347
 10
5633.068291543796
 20
1547.47011370804
 10
5633.798897943108
 20
1548.433307655127
 10
5634.586974204544
 20
1549.303325844056
 10
5635.419034653669
 20
1550.065280905719
 10
5636.280844192396
 20
1550.706136834449
 10
5637.157655375016
 20
1551.214927538104
 10
5638.034466557635
 20
1551.582948017068
 10
5638.896276096363
 20
1551.803901627066
 10
5639.728336545487
 20
1551.874007014527
 10
5640.516411489833
 20
1551.792064428489
 10
5641.247019206236
 20
1551.55947753926
 10
5641.907655251576
 20
1551.180224392908
 10
5642.487019002097
 20
1550.660795659782
 10
5642.975192777509
 20
1550.010075703648
 10
5643.363828867627
 20
1549.239201792523
 10
5643.646275972923
 20
1548.361363174144
 10
5643.817700376707
 20
1547.391579168275
 10
5643.87517023883
 20
1546.346443696969
 10
5643.817700376707
 20
1545.243838262723
 10
5643.646275972923
 20
1544.102629827865
 10
5643.363828867627
 20
1542.942344028576
 10
5642.975192777509
 20
1541.782834228969
 10
5642.487019002097
 20
1540.643940900699
 10
5641.907655251576
 20
1539.545148013777
 10
5641.247019206236
 20
1538.505258822085
 10
5640.516411489833
 20
1537.542064216453
 10
5639.728336545487
 20
1536.672047089344
 10
5638.896276096363
 20
1535.910091624406
 10
5638.034466557635
 20
1535.269235695676
 10
5637.157655375016
 20
1534.760444992021
 10
5636.280844192396
 20
1534.392424513057
 10
5635.419034653669
 20
1534.171470903058
 10
5634.586974204544
 20
1534.101365918872
 10
5633.798897943108
 20
1534.183307443091
 10
5633.068291543796
 20
1534.415894990864
 10
5632.407655498456
 20
1534.795148137217
 10
5631.828293065024
 20
1535.314577932162
 10
5631.340116655434
 20
1535.965296167932
 10
5630.951480565315
 20
1536.73616987742
 10
5630.669034777108
 20
1537.614009229957
 10
5630.497610373324
 20
1538.583793261031
 10
5630.440140511202
 20
1539.628928833155
  0
LWPOLYLINE
  5
68F1C
330
1F
100
AcDbEntity
  8
0
  6
Continuous
 62
     0
370
    15
100
AcDbPolyline
 90
       25
 70
   128
 43
0.0
 10
5641.135451888416
 20
1551.606306603814
 10
5641.530878889502
 20
1551.327805340384
 10
5642.088213009141
 20
1550.774476366969
 10
5642.552110199811
 20
1550.092449674723
 10
5642.914633683099
 20
1549.293396262995
 10
5643.169577335563
 20
1548.390986466522
 10
5643.312584226739
 20
1547.400663101179
 10
5643.341201936878
 20
1546.339368280062
 10
5643.254943143044
 20
1545.225262076166
 10
5643.055285619114
 20
1544.077408220317
 10
5642.745643259816
 20
1542.915445613581
 10
5642.331313397174
 20
1541.759255496863
 10
5641.819387238449
 20
1540.628621271301
 10
5641.218623425596
 20
1539.542888278825
 10
5640.539300521298
 20
1538.520633512171
 10
5639.793043153208
 20
1537.579348719727
 10
5638.992619182247
 20
1536.735138763879
 10
5638.151726334182
 20
1536.002449795899
 10
5637.284747221067
 20
1535.393815299173
 10
5636.406520167755
 20
1534.919651572244
 10
5635.53207184283
 20
1534.588071215319
 10
5634.676363060425
 20
1534.404747562407
 10
5633.854034582039
 20
1534.372817021279
 10
5633.079159503811
 20
1534.492827049951
 10
5632.649521115536
 20
1534.634226274639
  0
LWPOLYLINE
  5
68F1D
330
1F
100
AcDbEntity
  8
0
  6
Continuous
 62
     0
370
    15
100
AcDbPolyline
 90
        3
 70
   128
 43
0.0
 10
5636.839449632209
 20
1549.22789794392
 10
5636.782809536166
 20
1550.213722335983
 10
5636.658131255737
 20
1550.942386980546
  0
ARC
  5
68F1E
330
1F
100
AcDbEntity
  8
0
  6
Continuous
 62
     0
370
    15
100
AcDbCircle
 10
5624.536724509724
 20
1549.379640052557
 30
0.0
 40
12.30366088231267
100
AcDbArc
 50
298.9601990458068
 51
359.2933483048383
  0
ARC
  5
68F1F
330
1F
100
AcDbEntity
  8
0
  6
Continuous
 62
     0
370
    15
100
AcDbCircle
 10
5621.191113713837
 20
1550.97094701912
 30
0.0
 40
13.35966477128606
100
AcDbArc
 50
314.7633097832572
 51
352.1066337838112
  0
LINE
  5
68F20
330
1F
100
AcDbEntity
  8
0
  6
Continuous
 62
     0
370
    15
100
AcDbLine
 10
5631.005818060486
 20
1542.226512121006
 30
0.0
 11
5631.510218372574
 21
1542.47871227705
 31
0.0
  0
ARC
  5
68F21
330
1F
100
AcDbEntity
  8
0
  6
Continuous
 62
     0
370
    15
100
AcDbCircle
 10
5631.528934649276
 20
1541.23850710713
 30
0.0
 40
1.117946721857297
100
AcDbArc
 50
117.8997672732968
 51
138.6150241115278
  0
LWPOLYLINE
  5
68F22
330
1F
100
AcDbEntity
  8
0
  6
Continuous
 62
     0
370
    15
100
AcDbPolyline
 90
       23
 70
   128
 43
0.0
 10
5636.450548477926
 20
1555.032583169597
 10
5635.38174259527
 20
1554.424667318869
 10
5634.326376288935
 20
1553.67737054921
 10
5633.29772318202
 20
1552.80009048943
 10
5632.308719722843
 20
1551.803861237625
 10
5631.371801865891
 20
1550.701209597385
 10
5630.498750972412
 20
1549.506000599383
 10
5629.700548930621
 20
1548.233267469049
 10
5628.987230641732
 20
1546.899013661038
 10
5628.36776811612
 20
1545.520018600528
 10
5627.849951935315
 20
1544.113625169909
 10
5627.440293787412
 20
1542.697517971718
 10
5627.143943490464
 20
1541.289505609384
 10
5626.964629723474
 20
1539.907295464588
 10
5626.904607342839
 20
1538.568269146064
 10
5626.964629723474
 20
1537.289265258585
 10
5627.143943490464
 20
1536.086368679142
 10
5627.440293787412
 20
1534.974706563347
 10
5627.849951935315
 20
1533.968257916333
 10
5628.36776811612
 20
1533.079680061606
 10
5628.987230641732
 20
1532.320147526709
 10
5629.700548930621
 20
1531.699212007588
 10
5630.413165211065
 20
1531.266472446016
  0
ARC
  5
68F23
330
1F
100
AcDbEntity
  8
0
  6
Continuous
 62
     0
370
    15
100
AcDbCircle
 10
5639.85224277924
 20
1549.19353658404
 30
0.0
 40
6.757661514747061
100
AcDbArc
 50
67.0436500587521
 51
120.2240943179579
  0
LINE
  5
68F24
330
1F
100
AcDbEntity
  8
0
  6
Continuous
 62
     0
370
    15
100
AcDbLine
 10
5631.209123262445
 20
1542.124859520026
 30
0.0
 11
5631.005818060486
 21
1542.226512121006
 31
0.0
  0
VIEWPORT
  5
3D5D3
330
1B
100
AcDbEntity
 67
     1
  8
0
100
AcDbViewport
 10
202.5
 20
128.5
 30
0.0
 40
486.0
 41
308.4
 68
     1
 69
     1
 12
202.5
 22
128.5
 13
0.0
 23
0.0
 14
0.5
 24
0.5
 15
0.0
 25
0.0
 16
0.0
 26
0.0
 36
1.0
 17
0.0
 27
0.0
 37
0.0
 42
50.0
 43
0.0
 44
0.0
 45
308.4
 50
0.0
 51
0.0
 72
   100
 90
   557152
  1

281
     0
 71
     1
 74
     0
110
0.0
120
0.0
130
0.0
111
1.0
121
0.0
131
0.0
112
0.0
122
1.0
132
0.0
 79
     0
146
0.0
  0
VIEWPORT
  5
3D5D4
330
1B
100
AcDbEntity
 67
     1
  8
0
100
AcDbViewport
 10
202.5
 20
128.5
 30
0.0
 40
324.0
 41
205.6
 68
     2
 69
     2
 12
2662.039759795405
 22
2586.566770327359
 13
0.0
 23
0.0
 14
0.5
 24
0.5
 15
0.0
 25
0.0
 16
0.0
 26
0.0
 36
1.0
 17
0.0
 27
0.0
 37
0.0
 42
50.0
 43
0.0
 44
0.0
 45
2749.176388913603
 50
0.0
 51
0.0
 72
   100
 90
   557152
  1

281
     0
 71
     1
 74
     0
110
0.0
120
0.0
130
0.0
111
1.0
121
0.0
131
0.0
112
0.0
122
1.0
132
0.0
 79
     0
146
0.0
  0
ENDSEC
  0
SECTION
  2
OBJECTS
  0
DICTIONARY
  5
C
330
0
100
AcDbDictionary
281
     1
  3
ACAD_DETAILVIEWSTYLE
350
C0B8
  3
ACAD_GROUP
350
D
  3
ACAD_IMAGE_VARS
350
E7
  3
ACAD_LAYOUT
350
1A
  3
ACAD_MLINESTYLE
350
17
  3
ACAD_PLOTSETTINGS
350
19
  3
ACAD_PLOTSTYLENAME
350
E
  3
ACAD_SCALELIST
350
AD
  3
ACAD_SECTIONVIEWSTYLE
350
C0B9
  3
AcadDim
350
BF00
  3
AcDbVariableDictionary
350
151
  3
AcStStandard
350
1F89E
  3
APPDATA
350
E6
  3
DWGPROPS
350
6B7FB
  0
DICTIONARY
  5
11A2
330
1F
100
AcDbDictionary
280
     1
281
     1
  3
ACAD_SORTENTS
360
11A3
  0
DICTIONARY
  5
1798
330
177F
100
AcDbDictionary
280
     1
281
     1
  3
ACAD_SORTENTS
360
1799
  0
DICTIONARY
  5
644F5
330
644F4
100
AcDbDictionary
280
     1
281
     1
  3
ACAD_SORTENTS
360
644F6
  0
DICTIONARY
  5
C0B8
102
{ACAD_REACTORS
330
C
102
}
330
C
100
AcDbDictionary
281
     1
  0
DICTIONARY
  5
D
102
{ACAD_REACTORS
330
C
102
}
330
C
100
AcDbDictionary
281
     1
  0
RASTERVARIABLES
  5
E7
102
{ACAD_REACTORS
330
C
102
}
330
C
100
AcDbRasterVariables
 90
        0
 70
     1
 71
     1
 72
     1
  0
DICTIONARY
  5
1A
102
{ACAD_REACTORS
330
C
102
}
330
C
100
AcDbDictionary
281
     1
  3
Layout1
350
1E
  3
Layout2
350
26
  3
Model
350
22
  0
DICTIONARY
  5
17
102
{ACAD_REACTORS
330
C
102
}
330
C
100
AcDbDictionary
281
     1
  3
Standard
350
18
  0
DICTIONARY
  5
19
102
{ACAD_REACTORS
330
C
102
}
330
C
100
AcDbDictionary
281
     1
  0
ACDBDICTIONARYWDFLT
  5
E
102
{ACAD_REACTORS
330
C
102
}
330
C
100
AcDbDictionary
281
     1
  3
Normal
350
F
100
AcDbDictionaryWithDefault
340
F
  0
DICTIONARY
  5
AD
102
{ACAD_REACTORS
330
C
102
}
330
C
100
AcDbDictionary
281
     1
  3
A0
350
AE
  3
A1
350
AF
  3
A2
350
B0
  3
A3
350
B1
  3
A4
350
B2
  3
A5
350
B3
  3
A6
350
B4
  3
A7
350
B5
  3
A8
350
B6
  3
A9
350
B7
  3
B0
350
B8
  3
B1
350
B9
  3
B2
350
BA
  3
B3
350
BB
  3
B4
350
BC
  3
B5
350
BD
  3
B6
350
BE
  3
B7
350
BF
  3
B8
350
C0
  3
B9
350
C1
  3
C0
350
C2
  3
C1
350
C3
  3
C2
350
C4
  3
C3
350
C5
  3
C4
350
C6
  3
C5
350
C7
  3
C6
350
C8
  3
C7
350
C9
  3
C8
350
CA
  3
C9
350
CB
  3
D0
350
CC
  3
D1
350
CD
  3
D2
350
CE
  0
DICTIONARY
  5
C0B9
102
{ACAD_REACTORS
330
C
102
}
330
C
100
AcDbDictionary
281
     1
  0
XRECORD
  5
BF00
102
{ACAD_REACTORS
330
C
102
}
330
C
100
AcDbXrecord
280
     1
340
0
 72
     0
 71
     0
 70
     0
 69
     0
 68
     1
 67
     3
 66
     0
 65
     0
 64
     0
 63
     3
 62
     1
 61
     0
 60
     0
 40
0.0
  0
DICTIONARY
  5
151
102
{ACAD_REACTORS
330
C
102
}
330
C
100
AcDbDictionary
281
     1
  3
HPTRANSPARENCY
350
C6AD
  0
DICTIONARY
  5
1F89E
102
{ACAD_REACTORS
330
C
102
}
330
C
100
AcDbDictionary
281
     1
  0
DICTIONARY
  5
E6
102
{ACAD_REACTORS
330
C
102
}
330
C
100
AcDbDictionary
281
     1
  0
XRECORD
  5
6B7FB
102
{ACAD_REACTORS
330
C
102
}
330
C
100
AcDbXrecord
280
     1
  1
DWGPROPS COOKIE
  2

  3

  4

  6

  7

  8
raffaele
  9

300
=
301
=
302
=
303
=
304
=
305
=
306
=
307
=
308
=
309
=
 40
0.0
 41
2456227.330943947
 42
2457417.431597153
  1

 90
        0
  0
SORTENTSTABLE
  5
11A3
102
{ACAD_REACTORS
330
11A2
102
}
330
11A2
100
AcDbSortentsTable
330
1F
331
0
  5
388B8
331
297E
  5
2C075
  0
SORTENTSTABLE
  5
1799
102
{ACAD_REACTORS
330
1798
330
1798
102
}
330
1798
100
AcDbSortentsTable
330
177F
  0
SORTENTSTABLE
  5
644F6
102
{ACAD_REACTORS
330
644F5
102
}
330
644F5
100
AcDbSortentsTable
330
644F4
  0
LAYOUT
  5
1E
102
{ACAD_REACTORS
330
1A
102
}
330
1A
100
AcDbPlotSettings
  1

  2
none_device
  4
ISO_A3_(420.00_x_297.00_MM)
  6

 40
7.5
 41
20.0
 42
7.5
 43
20.0
 44
420.0
 45
297.0
 46
0.0
 47
0.0
 48
0.0
 49
0.0
140
0.0
141
0.0
142
1.0
143
1.0
 70
   688
 72
     1
 73
     0
 74
     5
  7

 75
    16
147
1.0
148
0.0
149
0.0
100
AcDbLayout
  1
Layout1
 70
     1
 71
     1
 10
0.0
 20
0.0
 11
0.0
 21
0.0
 12
0.0
 22
0.0
 32
0.0
 14
1.000000000000000E+20
 24
1.000000000000000E+20
 34
1.000000000000000E+20
 15
-1.000000000000000E+20
 25
-1.000000000000000E+20
 35
-1.000000000000000E+20
146
0.0
 13
0.0
 23
0.0
 33
0.0
 16
1.0
 26
0.0
 36
0.0
 17
0.0
 27
1.0
 37
0.0
 76
     0
330
1B
331
3D5D3
  0
LAYOUT
  5
26
102
{ACAD_REACTORS
330
1A
102
}
330
1A
100
AcDbPlotSettings
  1

  2
none_device
  4

  6

 40
0.0
 41
0.0
 42
0.0
 43
0.0
 44
0.0
 45
0.0
 46
0.0
 47
0.0
 48
0.0
 49
0.0
140
0.0
141
0.0
142
1.0
143
1.0
 70
   688
 72
     0
 73
     0
 74
     5
  7

 75
    16
147
1.0
148
0.0
149
0.0
100
AcDbLayout
  1
Layout2
 70
     1
 71
     2
 10
0.0
 20
0.0
 11
0.0
 21
0.0
 12
0.0
 22
0.0
 32
0.0
 14
0.0
 24
0.0
 34
0.0
 15
0.0
 25
0.0
 35
0.0
146
0.0
 13
0.0
 23
0.0
 33
0.0
 16
1.0
 26
0.0
 36
0.0
 17
0.0
 27
1.0
 37
0.0
 76
     0
330
23
  0
LAYOUT
  5
22
102
{ACAD_REACTORS
330
1A
102
}
330
1A
100
AcDbPlotSettings
  1

  2
none_device
  4
ISO_A3_(420.00_x_297.00_MM)
  6

 40
7.5
 41
20.0
 42
7.5
 43
20.0
 44
420.0
 45
297.0
 46
0.0
 47
0.0
 48
0.0
 49
0.0
140
0.0
141
0.0
142
1.0
143
6.022727566214384
 70
  1712
 72
     1
 73
     0
 74
     0
  7

 75
     0
147
0.1660377277580488
148
0.0
149
0.0
100
AcDbLayout
  1
Model
 70
     1
 71
     0
 10
0.0
 20
0.0
 11
210.0
 21
297.0
 12
0.0
 22
0.0
 32
0.0
 14
5525.618681640026
 24
1476.156805909435
 34
0.0
 15
5885.474410421563
 25
1779.803879888603
 35
0.0
146
0.0
 13
0.0
 23
0.0
 33
0.0
 16
1.0
 26
0.0
 36
0.0
 17
0.0
 27
1.0
 37
0.0
 76
     0
330
1F
331
29
  0
MLINESTYLE
  5
18
102
{ACAD_REACTORS
330
17
102
}
330
17
100
AcDbMlineStyle
  2
Standard
 70
     0
  3

 62
   256
 51
90.0
 52
90.0
 71
     2
 49
0.5
 62
   256
  6
BYLAYER
 49
-0.5
 62
   256
  6
BYLAYER
  0
ACDBPLACEHOLDER
  5
F
102
{ACAD_REACTORS
330
E
102
}
330
E
  0
SCALE
  5
AE
102
{ACAD_REACTORS
330
AD
102
}
330
AD
100
AcDbScale
 70
     0
300
1:1
140
1.0
141
1.0
290
     1
  0
SCALE
  5
AF
102
{ACAD_REACTORS
330
AD
102
}
330
AD
100
AcDbScale
 70
     0
300
1:2
140
1.0
141
2.0
290
     0
  0
SCALE
  5
B0
102
{ACAD_REACTORS
330
AD
102
}
330
AD
100
AcDbScale
 70
     0
300
1:4
140
1.0
141
4.0
290
     0
  0
SCALE
  5
B1
102
{ACAD_REACTORS
330
AD
102
}
330
AD
100
AcDbScale
 70
     0
300
1:5
140
1.0
141
5.0
290
     0
  0
SCALE
  5
B2
102
{ACAD_REACTORS
330
AD
102
}
330
AD
100
AcDbScale
 70
     0
300
1:8
140
1.0
141
8.0
290
     0
  0
SCALE
  5
B3
102
{ACAD_REACTORS
330
AD
102
}
330
AD
100
AcDbScale
 70
     0
300
1:10
140
1.0
141
10.0
290
     0
  0
SCALE
  5
B4
102
{ACAD_REACTORS
330
AD
102
}
330
AD
100
AcDbScale
 70
     0
300
1:16
140
1.0
141
16.0
290
     0
  0
SCALE
  5
B5
102
{ACAD_REACTORS
330
AD
102
}
330
AD
100
AcDbScale
 70
     0
300
1:20
140
1.0
141
20.0
290
     0
  0
SCALE
  5
B6
102
{ACAD_REACTORS
330
AD
102
}
330
AD
100
AcDbScale
 70
     0
300
1:30
140
1.0
141
30.0
290
     0
  0
SCALE
  5
B7
102
{ACAD_REACTORS
330
AD
102
}
330
AD
100
AcDbScale
 70
     0
300
1:40
140
1.0
141
40.0
290
     0
  0
SCALE
  5
B8
102
{ACAD_REACTORS
330
AD
102
}
330
AD
100
AcDbScale
 70
     0
300
1:50
140
1.0
141
50.0
290
     0
  0
SCALE
  5
B9
102
{ACAD_REACTORS
330
AD
102
}
330
AD
100
AcDbScale
 70
     0
300
1:100
140
1.0
141
100.0
290
     0
  0
SCALE
  5
BA
102
{ACAD_REACTORS
330
AD
102
}
330
AD
100
AcDbScale
 70
     0
300
2:1
140
2.0
141
1.0
290
     0
  0
SCALE
  5
BB
102
{ACAD_REACTORS
330
AD
102
}
330
AD
100
AcDbScale
 70
     0
300
4:1
140
4.0
141
1.0
290
     0
  0
SCALE
  5
BC
102
{ACAD_REACTORS
330
AD
102
}
330
AD
100
AcDbScale
 70
     0
300
8:1
140
8.0
141
1.0
290
     0
  0
SCALE
  5
BD
102
{ACAD_REACTORS
330
AD
102
}
330
AD
100
AcDbScale
 70
     0
300
10:1
140
10.0
141
1.0
290
     0
  0
SCALE
  5
BE
102
{ACAD_REACTORS
330
AD
102
}
330
AD
100
AcDbScale
 70
     0
300
100:1
140
100.0
141
1.0
290
     0
  0
SCALE
  5
BF
102
{ACAD_REACTORS
330
AD
102
}
330
AD
100
AcDbScale
 70
     0
300
1/128" = 1'-0"
140
0.0078125
141
12.0
290
     0
  0
SCALE
  5
C0
102
{ACAD_REACTORS
330
AD
102
}
330
AD
100
AcDbScale
 70
     0
300
1/64" = 1'-0"
140
0.015625
141
12.0
290
     0
  0
SCALE
  5
C1
102
{ACAD_REACTORS
330
AD
102
}
330
AD
100
AcDbScale
 70
     0
300
1/32" = 1'-0"
140
0.03125
141
12.0
290
     0
  0
SCALE
  5
C2
102
{ACAD_REACTORS
330
AD
102
}
330
AD
100
AcDbScale
 70
     0
300
1/16" = 1'-0"
140
0.0625
141
12.0
290
     0
  0
SCALE
  5
C3
102
{ACAD_REACTORS
330
AD
102
}
330
AD
100
AcDbScale
 70
     0
300
3/32" = 1'-0"
140
0.09375
141
12.0
290
     0
  0
SCALE
  5
C4
102
{ACAD_REACTORS
330
AD
102
}
330
AD
100
AcDbScale
 70
     0
300
1/8" = 1'-0"
140
0.125
141
12.0
290
     0
  0
SCALE
  5
C5
102
{ACAD_REACTORS
330
AD
102
}
330
AD
100
AcDbScale
 70
     0
300
3/16" = 1'-0"
140
0.1875
141
12.0
290
     0
  0
SCALE
  5
C6
102
{ACAD_REACTORS
330
AD
102
}
330
AD
100
AcDbScale
 70
     0
300
1/4" = 1'-0"
140
0.25
141
12.0
290
     0
  0
SCALE
  5
C7
102
{ACAD_REACTORS
330
AD
102
}
330
AD
100
AcDbScale
 70
     0
300
3/8" = 1'-0"
140
0.375
141
12.0
290
     0
  0
SCALE
  5
C8
102
{ACAD_REACTORS
330
AD
102
}
330
AD
100
AcDbScale
 70
     0
300
1/2" = 1'-0"
140
0.5
141
12.0
290
     0
  0
SCALE
  5
C9
102
{ACAD_REACTORS
330
AD
102
}
330
AD
100
AcDbScale
 70
     0
300
3/4" = 1'-0"
140
0.75
141
12.0
290
     0
  0
SCALE
  5
CA
102
{ACAD_REACTORS
330
AD
102
}
330
AD
100
AcDbScale
 70
     0
300
1" = 1'-0"
140
1.0
141
12.0
290
     0
  0
SCALE
  5
CB
102
{ACAD_REACTORS
330
AD
102
}
330
AD
100
AcDbScale
 70
     0
300
1-1/2" = 1'-0"
140
1.5
141
12.0
290
     0
  0
SCALE
  5
CC
102
{ACAD_REACTORS
330
AD
102
}
330
AD
100
AcDbScale
 70
     0
300
3" = 1'-0"
140
3.0
141
12.0
290
     0
  0
SCALE
  5
CD
102
{ACAD_REACTORS
330
AD
102
}
330
AD
100
AcDbScale
 70
     0
300
6" = 1'-0"
140
6.0
141
12.0
290
     0
  0
SCALE
  5
CE
102
{ACAD_REACTORS
330
AD
102
}
330
AD
100
AcDbScale
 70
     0
300
1'-0" = 1'-0"
140
12.0
141
12.0
290
     0
  0
DICTIONARYVAR
  5
C6AD
102
{ACAD_REACTORS
330
151
102
}
330
151
100
DictionaryVariables
280
     0
  1
ByLayer
  0
ENDSEC
  0
EOF
