  0
SECTION
  2
HEADER
  9
$ACADVER
  1
AC1015
  9
$ACADMAINTVER
 70
     6
  9
$DWGCODEPAGE
  3
ANSI_1252
  9
$INSBASE
 10
0.0
 20
0.0
 30
0.0
  9
$EXTMIN
 10
438.7287825620273
 20
161.8222408326404
 30
0.0
  9
$EXTMAX
 10
607.3128875276999
 20
392.9271039091321
 30
0.0
  9
$LIMMIN
 10
0.0
 20
0.0
  9
$LIMMAX
 10
840.0
 20
594.0
  9
$ORTHOMODE
 70
     0
  9
$REGENMODE
 70
     1
  9
$FILLMODE
 70
     1
  9
$QTEXTMODE
 70
     0
  9
$MIRRTEXT
 70
     1
  9
$LTSCALE
 40
1.0
  9
$ATTMODE
 70
     1
  9
$TEXTSIZE
 40
2.8
  9
$TRACEWID
 40
1.0
  9
$TEXTSTYLE
  7
Standard
  9
$CLAYER
  8
0
  9
$CELTYPE
  6
ByLayer
  9
$CECOLOR
 62
   256
  9
$CELTSCALE
 40
1.0
  9
$DISPSILH
 70
     0
  9
$DIMSCALE
 40
1.0
  9
$DIMASZ
 40
3.2
  9
$DIMEXO
 40
0.1
  9
$DIMDLI
 40
3.75
  9
$DIMRND
 40
0.0
  9
$DIMDLE
 40
0.0
  9
$DIMEXE
 40
1.0
  9
$DIMTP
 40
0.0
  9
$DIMTM
 40
0.0
  9
$DIMTXT
 40
3.2
  9
$DIMCEN
 40
2.5
  9
$DIMTSZ
 40
0.0
  9
$DIMTOL
 70
     0
  9
$DIMLIM
 70
     0
  9
$DIMTIH
 70
     1
  9
$DIMTOH
 70
     1
  9
$DIMSE1
 70
     0
  9
$DIMSE2
 70
     0
  9
$DIMTAD
 70
     1
  9
$DIMZIN
 70
     0
  9
$DIMBLK
  1

  9
$DIMASO
 70
     1
  9
$DIMSHO
 70
     1
  9
$DIMPOST
  1

  9
$DIMAPOST
  1

  9
$DIMALT
 70
     0
  9
$DIMALTD
 70
     3
  9
$DIMALTF
 40
0.0393700787401575
  9
$DIMLFAC
 40
1.0
  9
$DIMTOFL
 70
     1
  9
$DIMTVP
 40
0.0
  9
$DIMTIX
 70
     0
  9
$DIMSOXD
 70
     0
  9
$DIMSAH
 70
     0
  9
$DIMBLK1
  1

  9
$DIMBLK2
  1

  9
$DIMSTYLE
  2
ISO-25
  9
$DIMCLRD
 70
     0
  9
$DIMCLRE
 70
     0
  9
$DIMCLRT
 70
     0
  9
$DIMTFAC
 40
1.0
  9
$DIMGAP
 40
2.0
  9
$DIMJUST
 70
     0
  9
$DIMSD1
 70
     0
  9
$DIMSD2
 70
     0
  9
$DIMTOLJ
 70
     0
  9
$DIMTZIN
 70
     0
  9
$DIMALTZ
 70
     0
  9
$DIMALTTZ
 70
     0
  9
$DIMUPT
 70
     0
  9
$DIMDEC
 70
     2
  9
$DIMTDEC
 70
     2
  9
$DIMALTU
 70
     2
  9
$DIMALTTD
 70
     3
  9
$DIMTXSTY
  7
Standard
  9
$DIMAUNIT
 70
     0
  9
$DIMADEC
 70
     2
  9
$DIMALTRND
 40
0.0
  9
$DIMAZIN
 70
     0
  9
$DIMDSEP
 70
    44
  9
$DIMATFIT
 70
     3
  9
$DIMFRAC
 70
     0
  9
$DIMLDRBLK
  1

  9
$DIMLUNIT
 70
     2
  9
$DIMLWD
 70
    -2
  9
$DIMLWE
 70
    -2
  9
$DIMTMOVE
 70
     0
  9
$LUNITS
 70
     2
  9
$LUPREC
 70
     2
  9
$SKETCHINC
 40
1.0
  9
$FILLETRAD
 40
10.0
  9
$AUNITS
 70
     0
  9
$AUPREC
 70
     2
  9
$MENU
  1
.
  9
$ELEVATION
 40
0.0
  9
$PELEVATION
 40
0.0
  9
$THICKNESS
 40
0.0
  9
$LIMCHECK
 70
     0
  9
$CHAMFERA
 40
0.0
  9
$CHAMFERB
 40
0.0
  9
$CHAMFERC
 40
0.0
  9
$CHAMFERD
 40
0.0
  9
$SKPOLY
 70
     0
  9
$TDCREATE
 40
2457714.590783704
  9
$TDUCREATE
 40
2457714.549117037
  9
$TDUPDATE
 40
2457714.60043735
  9
$TDUUPDATE
 40
2457714.558770683
  9
$TDINDWG
 40
0.0066008681
  9
$TDUSRTIMER
 40
2457714.549203171
  9
$USRTIMER
 70
     1
  9
$ANGBASE
 50
0.0
  9
$ANGDIR
 70
     0
  9
$PDMODE
 70
     0
  9
$PDSIZE
 40
-1.0
  9
$PLINEWID
 40
0.0
  9
$SPLFRAME
 70
     0
  9
$SPLINETYPE
 70
     6
  9
$SPLINESEGS
 70
     8
  9
$HANDSEED
  5
83E
  9
$SURFTAB1
 70
     6
  9
$SURFTAB2
 70
     6
  9
$SURFTYPE
 70
     6
  9
$SURFU
 70
     6
  9
$SURFV
 70
     6
  9
$UCSBASE
  2

  9
$UCSNAME
  2

  9
$UCSORG
 10
0.0
 20
0.0
 30
0.0
  9
$UCSXDIR
 10
1.0
 20
0.0
 30
0.0
  9
$UCSYDIR
 10
0.0
 20
1.0
 30
0.0
  9
$UCSORTHOREF
  2

  9
$UCSORTHOVIEW
 70
     0
  9
$UCSORGTOP
 10
0.0
 20
0.0
 30
0.0
  9
$UCSORGBOTTOM
 10
0.0
 20
0.0
 30
0.0
  9
$UCSORGLEFT
 10
0.0
 20
0.0
 30
0.0
  9
$UCSORGRIGHT
 10
0.0
 20
0.0
 30
0.0
  9
$UCSORGFRONT
 10
0.0
 20
0.0
 30
0.0
  9
$UCSORGBACK
 10
0.0
 20
0.0
 30
0.0
  9
$PUCSBASE
  2

  9
$PUCSNAME
  2

  9
$PUCSORG
 10
0.0
 20
0.0
 30
0.0
  9
$PUCSXDIR
 10
1.0
 20
0.0
 30
0.0
  9
$PUCSYDIR
 10
0.0
 20
1.0
 30
0.0
  9
$PUCSORTHOREF
  2

  9
$PUCSORTHOVIEW
 70
     0
  9
$PUCSORGTOP
 10
0.0
 20
0.0
 30
0.0
  9
$PUCSORGBOTTOM
 10
0.0
 20
0.0
 30
0.0
  9
$PUCSORGLEFT
 10
0.0
 20
0.0
 30
0.0
  9
$PUCSORGRIGHT
 10
0.0
 20
0.0
 30
0.0
  9
$PUCSORGFRONT
 10
0.0
 20
0.0
 30
0.0
  9
$PUCSORGBACK
 10
0.0
 20
0.0
 30
0.0
  9
$USERI1
 70
     0
  9
$USERI2
 70
     0
  9
$USERI3
 70
     0
  9
$USERI4
 70
     0
  9
$USERI5
 70
     0
  9
$USERR1
 40
0.0
  9
$USERR2
 40
0.0
  9
$USERR3
 40
0.0
  9
$USERR4
 40
0.0
  9
$USERR5
 40
0.0
  9
$WORLDVIEW
 70
     1
  9
$SHADEDGE
 70
     3
  9
$SHADEDIF
 70
    70
  9
$TILEMODE
 70
     1
  9
$MAXACTVP
 70
    64
  9
$PINSBASE
 10
0.0
 20
0.0
 30
0.0
  9
$PLIMCHECK
 70
     0
  9
$PEXTMIN
 10
1.000000000000000E+20
 20
1.000000000000000E+20
 30
1.000000000000000E+20
  9
$PEXTMAX
 10
-1.000000000000000E+20
 20
-1.000000000000000E+20
 30
-1.000000000000000E+20
  9
$PLIMMIN
 10
0.0
 20
0.0
  9
$PLIMMAX
 10
0.0
 20
0.0
  9
$UNITMODE
 70
     0
  9
$VISRETAIN
 70
     1
  9
$PLINEGEN
 70
     0
  9
$PSLTSCALE
 70
     1
  9
$TREEDEPTH
 70
  3020
  9
$CMLSTYLE
  2
Standard
  9
$CMLJUST
 70
     0
  9
$CMLSCALE
 40
20.0
  9
$PROXYGRAPHICS
 70
     1
  9
$MEASUREMENT
 70
     1
  9
$CELWEIGHT
370
    -1
  9
$ENDCAPS
280
     0
  9
$JOINSTYLE
280
     0
  9
$LWDISPLAY
290
     1
  9
$INSUNITS
 70
     4
  9
$HYPERLINKBASE
  1

  9
$STYLESHEET
  1

  9
$XEDIT
290
     1
  9
$CEPSNTYPE
380
     0
  9
$PSTYLEMODE
290
     1
  9
$FINGERPRINTGUID
  2
{0F6BAC1D-8DB0-4032-A5CE-CCCA1FB4EC3A}
  9
$VERSIONGUID
  2
{FAEB1C32-E019-11D5-929B-00C0DF256EC4}
  9
$EXTNAMES
290
     1
  9
$PSVPSCALE
 40
0.0
  9
$OLESTARTUP
290
     0
  0
ENDSEC
  0
SECTION
  2
CLASSES
  0
CLASS
  1
ACDBDICTIONARYWDFLT
  2
AcDbDictionaryWithDefault
  3
ObjectDBX Classes
 90
        0
280
     0
281
     0
  0
CLASS
  1
VISUALSTYLE
  2
AcDbVisualStyle
  3
ObjectDBX Classes
 90
     4095
280
     0
281
     0
  0
CLASS
  1
MATERIAL
  2
AcDbMaterial
  3
ObjectDBX Classes
 90
     1153
280
     0
281
     0
  0
CLASS
  1
SCALE
  2
AcDbScale
  3
ObjectDBX Classes
 90
     1153
280
     0
281
     0
  0
CLASS
  1
TABLESTYLE
  2
AcDbTableStyle
  3
ObjectDBX Classes
 90
     4095
280
     0
281
     0
  0
CLASS
  1
MLEADERSTYLE
  2
AcDbMLeaderStyle
  3
ACDB_MLEADERSTYLE_CLASS
 90
     4095
280
     0
281
     0
  0
CLASS
  1
SUN
  2
AcDbSun
  3
SCENEOE
 90
     1153
280
     0
281
     0
  0
CLASS
  1
ACDBPLACEHOLDER
  2
AcDbPlaceHolder
  3
ObjectDBX Classes
 90
        0
280
     0
281
     0
  0
CLASS
  1
LAYOUT
  2
AcDbLayout
  3
ObjectDBX Classes
 90
        0
280
     0
281
     0
  0
CLASS
  1
RASTERVARIABLES
  2
AcDbRasterVariables
  3
ISM
 90
        0
280
     0
281
     0
  0
CLASS
  1
DICTIONARYVAR
  2
AcDbDictionaryVar
  3
ObjectDBX Classes
 90
        0
280
     0
281
     0
  0
ENDSEC
  0
SECTION
  2
TABLES
  0
TABLE
  2
VPORT
  5
8
330
0
100
AcDbSymbolTable
 70
     1
  0
VPORT
  5
29
330
8
100
AcDbSymbolTableRecord
100
AcDbViewportTableRecord
  2
*Active
 70
     0
 10
0.0
 20
0.0
 11
1.0
 21
1.0
 12
523.0208350448636
 22
277.3746723708863
 13
0.0
 23
0.0
 14
10.0
 24
10.0
 15
10.0
 25
10.0
 16
0.0
 26
0.0
 36
1.0
 17
0.0
 27
0.0
 37
0.0
 40
235.7269603380216
 41
2.125171939477304
 42
50.0
 43
0.0
 44
0.0
 50
0.0
 51
0.0
 71
    16
 72
  2000
 73
     1
 74
     3
 75
     0
 76
     0
 77
     0
 78
     0
281
     0
 65
     1
110
0.0
120
0.0
130
0.0
111
1.0
121
0.0
131
0.0
112
0.0
122
1.0
132
0.0
 79
     0
146
0.0
  0
ENDTAB
  0
TABLE
  2
LTYPE
  5
5
330
0
100
AcDbSymbolTable
 70
     6
  0
LTYPE
  5
14
330
5
100
AcDbSymbolTableRecord
100
AcDbLinetypeTableRecord
  2
ByBlock
 70
     0
  3

 72
    65
 73
     0
 40
0.0
  0
LTYPE
  5
15
330
5
100
AcDbSymbolTableRecord
100
AcDbLinetypeTableRecord
  2
ByLayer
 70
     0
  3

 72
    65
 73
     0
 40
0.0
  0
LTYPE
  5
16
330
5
100
AcDbSymbolTableRecord
100
AcDbLinetypeTableRecord
  2
Continuous
 70
     0
  3
Solid line
 72
    65
 73
     0
 40
0.0
  0
LTYPE
  5
6E
330
5
100
AcDbSymbolTableRecord
100
AcDbLinetypeTableRecord
  2
HIDDEN
 70
     0
  3
Hidden __ __ __ __ __ __ __ __ __ __ __ __ __ __
 72
    65
 73
     2
 40
1.905
 49
1.27
 74
     0
 49
-0.635
 74
     0
  0
LTYPE
  5
6F
330
5
100
AcDbSymbolTableRecord
100
AcDbLinetypeTableRecord
  2
PHANTOM
 70
     0
  3
Phantom ______  __  __  ______  __  __  ______
 72
    65
 73
     6
 40
12.7
 49
6.35
 74
     0
 49
-1.27
 74
     0
 49
1.27
 74
     0
 49
-1.27
 74
     0
 49
1.27
 74
     0
 49
-1.27
 74
     0
  0
LTYPE
  5
70
330
5
100
AcDbSymbolTableRecord
100
AcDbLinetypeTableRecord
  2
CENTER
 70
     0
  3
Center ____ _ ____ _ ____ _ ____ _ ____ _ ____
 72
    65
 73
     4
 40
10.16
 49
6.35
 74
     0
 49
-1.27
 74
     0
 49
1.27
 74
     0
 49
-1.27
 74
     0
  0
LTYPE
  5
71
330
5
100
AcDbSymbolTableRecord
100
AcDbLinetypeTableRecord
  2
CENTERX2
 70
     0
  3
Center (2x) ________  __  ________  __  _____
 72
    65
 73
     4
 40
20.32
 49
12.7
 74
     0
 49
-2.54
 74
     0
 49
2.54
 74
     0
 49
-2.54
 74
     0
  0
LTYPE
  5
72
330
5
100
AcDbSymbolTableRecord
100
AcDbLinetypeTableRecord
  2
DOT2
 70
     0
  3
Dot (.5x) ........................................
 72
    65
 73
     2
 40
0.635
 49
0.0
 74
     0
 49
-0.635
 74
     0
  0
ENDTAB
  0
TABLE
  2
LAYER
  5
2
330
0
100
AcDbSymbolTable
 70
     5
  0
LAYER
  5
10
330
2
100
AcDbSymbolTableRecord
100
AcDbLayerTableRecord
  2
0
 70
     0
 62
     7
  6
Continuous
370
    -3
390
F
  0
LAYER
  5
73
330
2
100
AcDbSymbolTableRecord
100
AcDbLayerTableRecord
  2
QUOTE
 70
     0
 62
     3
  6
Continuous
370
    -3
390
F
  0
LAYER
  5
74
330
2
100
AcDbSymbolTableRecord
100
AcDbLayerTableRecord
  2
ASSI
 70
     0
 62
     1
  6
CENTERX2
370
    -3
390
F
  0
LAYER
  5
75
330
2
100
AcDbSymbolTableRecord
100
AcDbLayerTableRecord
  2
TRATTEGGIO
 70
     0
 62
     4
  6
Continuous
370
    -3
390
F
  0
LAYER
  5
832
330
2
100
AcDbSymbolTableRecord
100
AcDbLayerTableRecord
  2
Defpoints
 70
     0
 62
     7
  6
Continuous
290
     0
370
    -3
390
F
  0
ENDTAB
  0
TABLE
  2
STYLE
  5
3
330
0
100
AcDbSymbolTable
 70
     2
  0
STYLE
  5
11
330
3
100
AcDbSymbolTableRecord
100
AcDbTextStyleTableRecord
  2
Standard
 70
     0
 40
0.0
 41
1.0
 50
0.0
 71
     0
 42
2.8
  3
txt
  4

  0
STYLE
  5
76
330
3
100
AcDbSymbolTableRecord
100
AcDbTextStyleTableRecord
  2
SLDTEXTSTYLE0
 70
     0
 40
0.0
 41
0.75
 50
0.0
 71
     0
 42
2.8
  3
TXT
  4

  0
ENDTAB
  0
TABLE
  2
VIEW
  5
6
330
0
100
AcDbSymbolTable
 70
     0
  0
ENDTAB
  0
TABLE
  2
UCS
  5
7
330
0
100
AcDbSymbolTable
 70
     0
  0
ENDTAB
  0
TABLE
  2
APPID
  5
9
330
0
100
AcDbSymbolTable
 70
     1
  0
APPID
  5
12
330
9
100
AcDbSymbolTableRecord
100
AcDbRegAppTableRecord
  2
ACAD
 70
     0
  0
ENDTAB
  0
TABLE
  2
DIMSTYLE
  5
A
330
0
100
AcDbSymbolTable
 70
     2
100
AcDbDimStyleTable
  0
DIMSTYLE
105
27
330
A
100
AcDbSymbolTableRecord
100
AcDbDimStyleTableRecord
  2
ISO-25
 70
     0
 41
2.5
 42
0.625
 43
3.75
 44
1.25
 73
     0
 74
     0
 77
     1
 78
     8
140
2.5
141
2.5
143
0.03937007874016
147
0.625
171
     3
172
     1
178
     0
271
     2
272
     2
274
     3
278
    44
283
     0
284
     8
340
11
  0
DIMSTYLE
105
192
330
A
100
AcDbSymbolTableRecord
100
AcDbDimStyleTableRecord
  2
SLDDIMSTYLE0
 70
     0
 41
3.2
 44
0.0
 45
0.000000001
146
3.2
147
0.0
173
     1
178
     0
271
     0
272
     0
276
     2
340
11
  0
ENDTAB
  0
TABLE
  2
BLOCK_RECORD
  5
1
330
0
100
AcDbSymbolTable
 70
     4
  0
BLOCK_RECORD
  5
1F
330
1
100
AcDbSymbolTableRecord
100
AcDbBlockTableRecord
  2
*Model_Space
340
22
  0
BLOCK_RECORD
  5
1B
330
1
100
AcDbSymbolTableRecord
100
AcDbBlockTableRecord
  2
*Paper_Space
340
1E
  0
BLOCK_RECORD
  5
23
330
1
100
AcDbSymbolTableRecord
100
AcDbBlockTableRecord
  2
*Paper_Space0
340
26
  0
BLOCK_RECORD
  5
18C
330
1
100
AcDbSymbolTableRecord
100
AcDbBlockTableRecord
  2
SW_NOTE_0
340
0
102
{BLKREFS
331
0
102
}
  0
BLOCK_RECORD
  5
194
330
1
100
AcDbSymbolTableRecord
100
AcDbBlockTableRecord
  2
SW_NOTE_1
340
0
102
{BLKREFS
331
0
102
}
  0
BLOCK_RECORD
  5
19B
330
1
100
AcDbSymbolTableRecord
100
AcDbBlockTableRecord
  2
SW_NOTE_2
340
0
102
{BLKREFS
331
0
102
}
  0
ENDTAB
  0
ENDSEC
  0
SECTION
  2
BLOCKS
  0
BLOCK
  5
20
330
1F
100
AcDbEntity
  8
0
100
AcDbBlockBegin
  2
*Model_Space
 70
     0
 10
0.0
 20
0.0
 30
0.0
  3
*Model_Space
  1
*Model_Space
  0
ENDBLK
  5
21
330
1F
100
AcDbEntity
  8
0
100
AcDbBlockEnd
  0
BLOCK
  5
1C
330
1B
100
AcDbEntity
 67
     1
  8
0
100
AcDbBlockBegin
  2
*Paper_Space
 70
     0
 10
0.0
 20
0.0
 30
0.0
  3
*Paper_Space
  1
*Paper_Space
  0
ENDBLK
  5
1D
330
1B
100
AcDbEntity
 67
     1
  8
0
100
AcDbBlockEnd
  0
BLOCK
  5
24
330
23
100
AcDbEntity
  8
0
100
AcDbBlockBegin
  2
*Paper_Space0
 70
     0
 10
0.0
 20
0.0
 30
0.0
  3
*Paper_Space0
  1
*Paper_Space0
  0
ENDBLK
  5
25
330
23
100
AcDbEntity
  8
0
100
AcDbBlockEnd
  0
BLOCK
  5
18D
330
18C
100
AcDbEntity
  8
0
100
AcDbBlockBegin
  2
SW_NOTE_0
 70
     0
 10
0.0
 20
0.0
 30
0.0
  3
SW_NOTE_0
  1
SW_NOTE_0
  0
LINE
  5
18F
330
18C
100
AcDbEntity
  8
0
  6
Continuous
 62
     0
370
     0
100
AcDbLine
 10
-20.76600918221681
 20
0.0
 30
0.0
 11
0.0
 21
0.0
 31
0.0
  0
MTEXT
  5
190
330
18C
100
AcDbEntity
  8
0
  6
Continuous
 62
     0
370
     0
100
AcDbMText
 10
-21.25071473470642
 20
7.55985488203692
 30
0.0
 40
5.820833333333332
 41
0.0
 71
     1
 72
     1
  1
P30W
  7
SLDTEXTSTYLE0
 73
     1
 44
1.0
  0
ENDBLK
  5
18E
330
18C
100
AcDbEntity
  8
0
100
AcDbBlockEnd
  0
BLOCK
  5
195
330
194
100
AcDbEntity
  8
0
100
AcDbBlockBegin
  2
SW_NOTE_1
 70
     0
 10
0.0
 20
0.0
 30
0.0
  3
SW_NOTE_1
  1
SW_NOTE_1
  0
LINE
  5
197
330
194
100
AcDbEntity
  8
0
  6
Continuous
 62
     0
370
     0
100
AcDbLine
 10
32.86111301135814
 20
0.0
 30
0.0
 11
0.0
 21
0.0
 31
0.0
  0
MTEXT
  5
198
330
194
100
AcDbEntity
  8
0
  6
Continuous
 62
     0
370
     0
100
AcDbMText
 10
0.4947070589469416
 20
7.548576196460766
 30
0.0
 40
5.820833333333332
 41
0.0
 71
     1
 72
     1
  1
P30WJ01
  7
SLDTEXTSTYLE0
 73
     1
 44
1.0
  0
ENDBLK
  5
196
330
194
100
AcDbEntity
  8
0
100
AcDbBlockEnd
  0
BLOCK
  5
19C
330
19B
100
AcDbEntity
  8
0
100
AcDbBlockBegin
  2
SW_NOTE_2
 70
     0
 10
0.0
 20
0.0
 30
0.0
  3
SW_NOTE_2
  1
SW_NOTE_2
  0
LINE
  5
19E
330
19B
100
AcDbEntity
  8
0
  6
Continuous
 62
     0
370
     0
100
AcDbLine
 10
32.86111301135816
 20
0.0
 30
0.0
 11
0.0
 21
0.0
 31
0.0
  0
LINE
  5
19F
330
19B
100
AcDbEntity
  8
0
  6
Continuous
 62
     0
370
     0
100
AcDbLine
 10
32.86111301135816
 20
0.0
 30
0.0
 11
0.0
 21
0.0
 31
0.0
  0
MTEXT
  5
1A0
330
19B
100
AcDbEntity
  8
0
  6
Continuous
 62
     0
370
     0
100
AcDbMText
 10
0.48627916866055
 20
7.622160766868835
 30
0.0
 40
5.820833333333332
 41
0.0
 71
     1
 72
     1
  1
P30WJ02
  7
SLDTEXTSTYLE0
 73
     1
 44
1.0
  0
ENDBLK
  5
19D
330
19B
100
AcDbEntity
  8
0
100
AcDbBlockEnd
  0
ENDSEC
  0
SECTION
  2
ENTITIES
  0
MTEXT
  5
7A
330
1F
100
AcDbEntity
  8
0
  6
Continuous
 62
     7
370
     0
100
AcDbMText
 10
482.4504929759986
 20
392.9271039091321
 30
0.0
 40
10.58333333333333
 41
0.0
 71
     1
 72
     1
  1
P30WP90
  7
SLDTEXTSTYLE0
 73
     1
 44
1.0
  0
LINE
  5
536
330
1F
100
AcDbEntity
  8
0
  6
Continuous
370
    15
100
AcDbLine
 10
550.7214512424356
 20
221.8746791187135
 30
0.0
 11
549.8729231050118
 21
222.3645239858072
 31
0.0
  0
LINE
  5
537
330
1F
100
AcDbEntity
  8
0
  6
Continuous
370
    15
100
AcDbLine
 10
547.3731262734213
 20
218.0342796739038
 30
0.0
 11
548.2216544108454
 21
217.5444348068101
 31
0.0
  0
LINE
  5
538
330
1F
100
AcDbEntity
  8
0
  6
Continuous
370
    15
100
AcDbLine
 10
550.7214512424356
 20
254.5363115941435
 30
0.0
 11
549.8729231050118
 21
255.0261564612372
 31
0.0
  0
LINE
  5
539
330
1F
100
AcDbEntity
  8
0
  6
Continuous
370
    15
100
AcDbLine
 10
547.3731262734213
 20
250.6959121493338
 30
0.0
 11
548.2216544108454
 21
250.2060672822401
 31
0.0
  0
LINE
  5
53A
330
1F
100
AcDbEntity
  8
0
  6
Continuous
370
    15
100
AcDbLine
 10
549.6801879538601
 20
218.1561363093554
 30
0.0
 11
550.000578057567
 21
218.388738416446
 31
0.0
  0
LINE
  5
53B
330
1F
100
AcDbEntity
  8
0
  6
Continuous
370
    15
100
AcDbLine
 10
550.000578057567
 20
218.388738416446
 30
0.0
 11
550.2993724136186
 21
218.7030065951658
 31
0.0
  0
LINE
  5
53C
330
1F
100
AcDbEntity
  8
0
  6
Continuous
370
    15
100
AcDbLine
 10
550.2993724136186
 20
218.7030065951658
 30
0.0
 11
550.5562086804309
 21
219.0775239884878
 31
0.0
  0
LINE
  5
53D
330
1F
100
AcDbEntity
  8
0
  6
Continuous
370
    15
100
AcDbLine
 10
550.5562086804309
 20
219.0775239884878
 30
0.0
 11
550.7535838908623
 21
219.4867678549763
 31
0.0
  0
LINE
  5
53E
330
1F
100
AcDbEntity
  8
0
  6
Continuous
370
    15
100
AcDbLine
 10
550.7535838908623
 20
219.4867678549763
 30
0.0
 11
550.8780472505002
 21
219.9028489014376
 31
0.0
  0
LINE
  5
53F
330
1F
100
AcDbEntity
  8
0
  6
Continuous
370
    15
100
AcDbLine
 10
550.8780472505002
 20
219.9028489014376
 30
0.0
 11
550.9211167870704
 21
220.2974118921618
 31
0.0
  0
LINE
  5
540
330
1F
100
AcDbEntity
  8
0
  6
Continuous
370
    15
100
AcDbLine
 10
550.9211167870704
 20
220.2974118921618
 30
0.0
 11
550.8798573828319
 21
220.6435680113772
 31
0.0
  0
LINE
  5
541
330
1F
100
AcDbEntity
  8
0
  6
Continuous
370
    15
100
AcDbLine
 10
550.8798573828319
 20
220.6435680113772
 30
0.0
 11
550.7570807979987
 21
220.9177272916093
 31
0.0
  0
LINE
  5
542
330
1F
100
AcDbEntity
  8
0
  6
Continuous
370
    15
100
AcDbLine
 10
550.7570807979987
 20
220.9177272916093
 30
0.0
 11
550.5611540539295
 21
221.10120623098
 31
0.0
  0
LINE
  5
543
330
1F
100
AcDbEntity
  8
0
  6
Continuous
370
    15
100
AcDbLine
 10
550.5611540539295
 20
221.10120623098
 30
0.0
 11
550.3054292344483
 21
221.1815010429844
 31
0.0
  0
LINE
  5
544
330
1F
100
AcDbEntity
  8
0
  6
Continuous
370
    15
100
AcDbLine
 10
550.3054292344483
 20
221.1815010429844
 30
0.0
 11
550.0073335633974
 21
221.1531397688778
 31
0.0
  0
LINE
  5
545
330
1F
100
AcDbEntity
  8
0
  6
Continuous
370
    15
100
AcDbLine
 10
550.0073335633974
 20
221.1531397688778
 30
0.0
 11
549.6871817681329
 21
221.0180551826215
 31
0.0
  0
LINE
  5
546
330
1F
100
AcDbEntity
  8
0
  6
Continuous
370
    15
100
AcDbLine
 10
549.6871817681329
 20
221.0180551826215
 30
0.0
 11
549.3667916644256
 21
220.7854530755309
 31
0.0
  0
LINE
  5
547
330
1F
100
AcDbEntity
  8
0
  6
Continuous
370
    15
100
AcDbLine
 10
549.3667916644256
 20
220.7854530755309
 30
0.0
 11
549.067997308374
 21
220.4711848968111
 31
0.0
  0
LINE
  5
548
330
1F
100
AcDbEntity
  8
0
  6
Continuous
370
    15
100
AcDbLine
 10
549.067997308374
 20
220.4711848968111
 30
0.0
 11
548.811161041562
 21
220.0966675034891
 31
0.0
  0
LINE
  5
549
330
1F
100
AcDbEntity
  8
0
  6
Continuous
370
    15
100
AcDbLine
 10
548.811161041562
 20
220.0966675034891
 30
0.0
 11
548.6137858311304
 21
219.6874236370006
 31
0.0
  0
LINE
  5
54A
330
1F
100
AcDbEntity
  8
0
  6
Continuous
370
    15
100
AcDbLine
 10
548.6137858311304
 20
219.6874236370006
 30
0.0
 11
548.4893224714926
 21
219.2713425905393
 31
0.0
  0
LINE
  5
54B
330
1F
100
AcDbEntity
  8
0
  6
Continuous
370
    15
100
AcDbLine
 10
548.4893224714926
 20
219.2713425905393
 30
0.0
 11
548.4462529349222
 21
218.8767795998151
 31
0.0
  0
LINE
  5
54C
330
1F
100
AcDbEntity
  8
0
  6
Continuous
370
    15
100
AcDbLine
 10
548.4462529349222
 20
218.8767795998151
 30
0.0
 11
548.487512339161
 21
218.5306234805997
 31
0.0
  0
LINE
  5
54D
330
1F
100
AcDbEntity
  8
0
  6
Continuous
370
    15
100
AcDbLine
 10
548.487512339161
 20
218.5306234805997
 30
0.0
 11
548.6102889239942
 21
218.2564642003676
 31
0.0
  0
LINE
  5
54E
330
1F
100
AcDbEntity
  8
0
  6
Continuous
370
    15
100
AcDbLine
 10
548.6102889239942
 20
218.2564642003676
 30
0.0
 11
548.8062156680635
 21
218.0729852609969
 31
0.0
  0
LINE
  5
54F
330
1F
100
AcDbEntity
  8
0
  6
Continuous
370
    15
100
AcDbLine
 10
548.8062156680635
 20
218.0729852609969
 30
0.0
 11
549.0619404875447
 21
217.9926904489925
 31
0.0
  0
LINE
  5
550
330
1F
100
AcDbEntity
  8
0
  6
Continuous
370
    15
100
AcDbLine
 10
549.0619404875447
 20
217.9926904489925
 30
0.0
 11
549.3600361585954
 21
218.021051723099
 31
0.0
  0
LINE
  5
551
330
1F
100
AcDbEntity
  8
0
  6
Continuous
370
    15
100
AcDbLine
 10
549.3600361585954
 20
218.021051723099
 30
0.0
 11
549.6801879538601
 21
218.1561363093554
 31
0.0
  0
LINE
  5
552
330
1F
100
AcDbEntity
  8
0
  6
Continuous
370
    15
100
AcDbLine
 10
549.4665572450172
 20
217.6653291961612
 30
0.0
 11
549.8466901616208
 21
217.9312606405329
 31
0.0
  0
LINE
  5
553
330
1F
100
AcDbEntity
  8
0
  6
Continuous
370
    15
100
AcDbLine
 10
549.8466901616208
 20
217.9312606405329
 30
0.0
 11
550.2092820733759
 21
218.2803432444975
 31
0.0
  0
LINE
  5
554
330
1F
100
AcDbEntity
  8
0
  6
Continuous
370
    15
100
AcDbLine
 10
550.2092820733759
 20
218.2803432444975
 30
0.0
 11
550.5373785854811
 21
218.6962542934712
 31
0.0
  0
LINE
  5
555
330
1F
100
AcDbEntity
  8
0
  6
Continuous
370
    15
100
AcDbLine
 10
550.5373785854811
 20
218.6962542934712
 30
0.0
 11
550.8156382696827
 21
219.1595462490559
 31
0.0
  0
LINE
  5
556
330
1F
100
AcDbEntity
  8
0
  6
Continuous
370
    15
100
AcDbLine
 10
550.8156382696827
 20
219.1595462490559
 30
0.0
 11
551.0310500124116
 21
219.6485560943205
 31
0.0
  0
LINE
  5
557
330
1F
100
AcDbEntity
  8
0
  6
Continuous
370
    15
100
AcDbLine
 10
551.0310500124116
 20
219.6485560943205
 30
0.0
 11
551.1735413999904
 21
220.1404182723958
 31
0.0
  0
LINE
  5
558
330
1F
100
AcDbEntity
  8
0
  6
Continuous
370
    15
100
AcDbLine
 10
551.1735413999904
 20
220.1404182723958
 30
0.0
 11
551.2364496935039
 21
220.6121338545006
 31
0.0
  0
LINE
  5
559
330
1F
100
AcDbEntity
  8
0
  6
Continuous
370
    15
100
AcDbLine
 10
551.2364496935039
 20
220.6121338545006
 30
0.0
 11
551.2168333710649
 21
221.0416459442899
 31
0.0
  0
LINE
  5
55A
330
1F
100
AcDbEntity
  8
0
  6
Continuous
370
    15
100
AcDbLine
 10
551.2168333710649
 20
221.0416459442899
 30
0.0
 11
551.1156096701085
 21
221.4088710338134
 31
0.0
  0
LINE
  5
55B
330
1F
100
AcDbEntity
  8
0
  6
Continuous
370
    15
100
AcDbLine
 10
551.1156096701085
 20
221.4088710338134
 30
0.0
 11
550.9375116983895
 21
221.6966380860266
 31
0.0
  0
LINE
  5
55C
330
1F
100
AcDbEntity
  8
0
  6
Continuous
370
    15
100
AcDbLine
 10
550.9375116983895
 20
221.6966380860266
 30
0.0
 11
550.6908671191236
 21
221.8914914333979
 31
0.0
  0
LINE
  5
55D
330
1F
100
AcDbEntity
  8
0
  6
Continuous
370
    15
100
AcDbLine
 10
550.6908671191236
 20
221.8914914333979
 30
0.0
 11
550.3872087587118
 21
221.9843199499683
 31
0.0
  0
LINE
  5
55E
330
1F
100
AcDbEntity
  8
0
  6
Continuous
370
    15
100
AcDbLine
 10
550.3872087587118
 20
221.9843199499683
 30
0.0
 11
550.0407353445949
 21
221.9707830774743
 31
0.0
  0
LINE
  5
55F
330
1F
100
AcDbEntity
  8
0
  6
Continuous
370
    15
100
AcDbLine
 10
550.0407353445949
 20
221.9707830774743
 30
0.0
 11
549.6676475885392
 21
221.8515137850287
 31
0.0
  0
LINE
  5
560
330
1F
100
AcDbEntity
  8
0
  6
Continuous
370
    15
100
AcDbLine
 10
549.6676475885392
 20
221.8515137850287
 30
0.0
 11
549.2853906593612
 21
221.632088972188
 31
0.0
  0
LINE
  5
561
330
1F
100
AcDbEntity
  8
0
  6
Continuous
370
    15
100
AcDbLine
 10
549.2853906593612
 20
221.632088972188
 30
0.0
 11
548.9118384662203
 21
221.3227686993274
 31
0.0
  0
LINE
  5
562
330
1F
100
AcDbEntity
  8
0
  6
Continuous
370
    15
100
AcDbLine
 10
548.9118384662203
 20
221.3227686993274
 30
0.0
 11
548.564457894495
 21
220.938016438621
 31
0.0
  0
LINE
  5
563
330
1F
100
AcDbEntity
  8
0
  6
Continuous
370
    15
100
AcDbLine
 10
548.564457894495
 20
220.938016438621
 30
0.0
 11
548.2594920736334
 21
220.495822778158
 31
0.0
  0
LINE
  5
564
330
1F
100
AcDbEntity
  8
0
  6
Continuous
370
    15
100
AcDbLine
 10
548.2594920736334
 20
220.495822778158
 30
0.0
 11
548.0112008664732
 21
220.0168642020389
 31
0.0
  0
LINE
  5
565
330
1F
100
AcDbEntity
  8
0
  6
Continuous
370
    15
100
AcDbLine
 10
548.0112008664732
 20
220.0168642020389
 30
0.0
 11
547.8311940939061
 21
219.5235362809586
 31
0.0
  0
LINE
  5
566
330
1F
100
AcDbEntity
  8
0
  6
Continuous
370
    15
100
AcDbLine
 10
547.8311940939061
 20
219.5235362809586
 30
0.0
 11
547.7278886725538
 21
219.0389064802123
 31
0.0
  0
LINE
  5
567
330
1F
100
AcDbEntity
  8
0
  6
Continuous
370
    15
100
AcDbLine
 10
547.7278886725538
 20
219.0389064802123
 30
0.0
 11
547.7061150491032
 21
218.5856355506555
 31
0.0
  0
LINE
  5
568
330
1F
100
AcDbEntity
  8
0
  6
Continuous
370
    15
100
AcDbLine
 10
547.7061150491032
 20
218.5856355506555
 30
0.0
 11
547.7668913339869
 21
218.1849179371799
 31
0.0
  0
LINE
  5
569
330
1F
100
AcDbEntity
  8
0
  6
Continuous
370
    15
100
AcDbLine
 10
547.7668913339869
 20
218.1849179371799
 30
0.0
 11
547.9073756956719
 21
217.855490750026
 31
0.0
  0
LINE
  5
56A
330
1F
100
AcDbEntity
  8
0
  6
Continuous
370
    15
100
AcDbLine
 10
547.9073756956719
 20
217.855490750026
 30
0.0
 11
548.1209992415432
 21
217.6127576383329
 31
0.0
  0
LINE
  5
56B
330
1F
100
AcDbEntity
  8
0
  6
Continuous
370
    15
100
AcDbLine
 10
548.1209992415432
 20
217.6127576383329
 30
0.0
 11
548.397773172021
 21
217.4680685326252
 31
0.0
  0
LINE
  5
56C
330
1F
100
AcDbEntity
  8
0
  6
Continuous
370
    15
100
AcDbLine
 10
548.397773172021
 20
217.4680685326252
 30
0.0
 11
548.7247558457284
 21
217.4281889346751
 31
0.0
  0
LINE
  5
56D
330
1F
100
AcDbEntity
  8
0
  6
Continuous
370
    15
100
AcDbLine
 10
548.7247558457284
 20
217.4281889346751
 30
0.0
 11
549.0866579162579
 21
217.4949835701599
 31
0.0
  0
LINE
  5
56E
330
1F
100
AcDbEntity
  8
0
  6
Continuous
370
    15
100
AcDbLine
 10
549.0866579162579
 20
217.4949835701599
 30
0.0
 11
549.4665572450172
 21
217.6653291961612
 31
0.0
  0
LINE
  5
56F
330
1F
100
AcDbEntity
  8
0
  6
Continuous
370
    15
100
AcDbLine
 10
550.1964909772485
 20
220.9021390708596
 30
0.0
 11
549.1758743263678
 21
220.3162801877178
 31
0.0
  0
LINE
  5
570
330
1F
100
AcDbEntity
  8
0
  6
Continuous
370
    15
100
AcDbLine
 10
549.1758743263678
 20
220.3162801877178
 30
0.0
 11
548.6630682101159
 21
219.0012368628466
 31
0.0
  0
LINE
  5
571
330
1F
100
AcDbEntity
  8
0
  6
Continuous
370
    15
100
AcDbLine
 10
548.6630682101159
 20
219.0012368628466
 30
0.0
 11
549.1708787447445
 21
218.2720524211172
 31
0.0
  0
LINE
  5
572
330
1F
100
AcDbEntity
  8
0
  6
Continuous
370
    15
100
AcDbLine
 10
549.1708787447445
 20
218.2720524211172
 30
0.0
 11
550.1914953956251
 21
218.8579113042591
 31
0.0
  0
LINE
  5
573
330
1F
100
AcDbEntity
  8
0
  6
Continuous
370
    15
100
AcDbLine
 10
550.1914953956251
 20
218.8579113042591
 30
0.0
 11
550.704301511877
 21
220.1729546291302
 31
0.0
  0
LINE
  5
574
330
1F
100
AcDbEntity
  8
0
  6
Continuous
370
    15
100
AcDbLine
 10
550.704301511877
 20
220.1729546291302
 30
0.0
 11
550.1964909772485
 21
220.9021390708596
 31
0.0
  0
LINE
  5
575
330
1F
100
AcDbEntity
  8
0
  6
Continuous
370
    15
100
AcDbLine
 10
549.8177651329721
 20
220.6847411869889
 30
0.0
 11
550.704301511877
 21
220.1729546291302
 31
0.0
  0
LINE
  5
576
330
1F
100
AcDbEntity
  8
0
  6
Continuous
370
    15
100
AcDbLine
 10
548.8982969212652
 20
219.6044588927947
 30
0.0
 11
550.1914953956251
 21
218.8579113042591
 31
0.0
  0
LINE
  5
577
330
1F
100
AcDbEntity
  8
0
  6
Continuous
370
    15
100
AcDbLine
 10
549.6801879538601
 20
250.8177687847854
 30
0.0
 11
550.000578057567
 21
251.050370891876
 31
0.0
  0
LINE
  5
578
330
1F
100
AcDbEntity
  8
0
  6
Continuous
370
    15
100
AcDbLine
 10
550.000578057567
 20
251.050370891876
 30
0.0
 11
550.2993724136186
 21
251.3646390705958
 31
0.0
  0
LINE
  5
579
330
1F
100
AcDbEntity
  8
0
  6
Continuous
370
    15
100
AcDbLine
 10
550.2993724136186
 20
251.3646390705958
 30
0.0
 11
550.5562086804309
 21
251.7391564639178
 31
0.0
  0
LINE
  5
57A
330
1F
100
AcDbEntity
  8
0
  6
Continuous
370
    15
100
AcDbLine
 10
550.5562086804309
 20
251.7391564639178
 30
0.0
 11
550.7535838908623
 21
252.1484003304062
 31
0.0
  0
LINE
  5
57B
330
1F
100
AcDbEntity
  8
0
  6
Continuous
370
    15
100
AcDbLine
 10
550.7535838908623
 20
252.1484003304062
 30
0.0
 11
550.8780472505002
 21
252.5644813768675
 31
0.0
  0
LINE
  5
57C
330
1F
100
AcDbEntity
  8
0
  6
Continuous
370
    15
100
AcDbLine
 10
550.8780472505002
 20
252.5644813768675
 30
0.0
 11
550.9211167870704
 21
252.9590443675917
 31
0.0
  0
LINE
  5
57D
330
1F
100
AcDbEntity
  8
0
  6
Continuous
370
    15
100
AcDbLine
 10
550.9211167870704
 20
252.9590443675917
 30
0.0
 11
550.8798573828319
 21
253.3052004868072
 31
0.0
  0
LINE
  5
57E
330
1F
100
AcDbEntity
  8
0
  6
Continuous
370
    15
100
AcDbLine
 10
550.8798573828319
 20
253.3052004868072
 30
0.0
 11
550.7570807979987
 21
253.5793597670393
 31
0.0
  0
LINE
  5
57F
330
1F
100
AcDbEntity
  8
0
  6
Continuous
370
    15
100
AcDbLine
 10
550.7570807979987
 20
253.5793597670393
 30
0.0
 11
550.5611540539295
 21
253.76283870641
 31
0.0
  0
LINE
  5
580
330
1F
100
AcDbEntity
  8
0
  6
Continuous
370
    15
100
AcDbLine
 10
550.5611540539295
 20
253.76283870641
 30
0.0
 11
550.3054292344483
 21
253.8431335184144
 31
0.0
  0
LINE
  5
581
330
1F
100
AcDbEntity
  8
0
  6
Continuous
370
    15
100
AcDbLine
 10
550.3054292344483
 20
253.8431335184144
 30
0.0
 11
550.0073335633974
 21
253.8147722443078
 31
0.0
  0
LINE
  5
582
330
1F
100
AcDbEntity
  8
0
  6
Continuous
370
    15
100
AcDbLine
 10
550.0073335633974
 20
253.8147722443078
 30
0.0
 11
549.6871817681329
 21
253.6796876580515
 31
0.0
  0
LINE
  5
583
330
1F
100
AcDbEntity
  8
0
  6
Continuous
370
    15
100
AcDbLine
 10
549.6871817681329
 20
253.6796876580515
 30
0.0
 11
549.3667916644256
 21
253.4470855509609
 31
0.0
  0
LINE
  5
584
330
1F
100
AcDbEntity
  8
0
  6
Continuous
370
    15
100
AcDbLine
 10
549.3667916644256
 20
253.4470855509609
 30
0.0
 11
549.067997308374
 21
253.132817372241
 31
0.0
  0
LINE
  5
585
330
1F
100
AcDbEntity
  8
0
  6
Continuous
370
    15
100
AcDbLine
 10
549.067997308374
 20
253.132817372241
 30
0.0
 11
548.811161041562
 21
252.7582999789191
 31
0.0
  0
LINE
  5
586
330
1F
100
AcDbEntity
  8
0
  6
Continuous
370
    15
100
AcDbLine
 10
548.811161041562
 20
252.7582999789191
 30
0.0
 11
548.6137858311304
 21
252.3490561124306
 31
0.0
  0
LINE
  5
587
330
1F
100
AcDbEntity
  8
0
  6
Continuous
370
    15
100
AcDbLine
 10
548.6137858311304
 20
252.3490561124306
 30
0.0
 11
548.4893224714926
 21
251.9329750659693
 31
0.0
  0
LINE
  5
588
330
1F
100
AcDbEntity
  8
0
  6
Continuous
370
    15
100
AcDbLine
 10
548.4893224714926
 20
251.9329750659693
 30
0.0
 11
548.4462529349222
 21
251.5384120752451
 31
0.0
  0
LINE
  5
589
330
1F
100
AcDbEntity
  8
0
  6
Continuous
370
    15
100
AcDbLine
 10
548.4462529349222
 20
251.5384120752451
 30
0.0
 11
548.487512339161
 21
251.1922559560296
 31
0.0
  0
LINE
  5
58A
330
1F
100
AcDbEntity
  8
0
  6
Continuous
370
    15
100
AcDbLine
 10
548.487512339161
 20
251.1922559560296
 30
0.0
 11
548.6102889239942
 21
250.9180966757975
 31
0.0
  0
LINE
  5
58B
330
1F
100
AcDbEntity
  8
0
  6
Continuous
370
    15
100
AcDbLine
 10
548.6102889239942
 20
250.9180966757975
 30
0.0
 11
548.8062156680635
 21
250.7346177364268
 31
0.0
  0
LINE
  5
58C
330
1F
100
AcDbEntity
  8
0
  6
Continuous
370
    15
100
AcDbLine
 10
548.8062156680635
 20
250.7346177364268
 30
0.0
 11
549.0619404875447
 21
250.6543229244224
 31
0.0
  0
LINE
  5
58D
330
1F
100
AcDbEntity
  8
0
  6
Continuous
370
    15
100
AcDbLine
 10
549.0619404875447
 20
250.6543229244224
 30
0.0
 11
549.3600361585954
 21
250.682684198529
 31
0.0
  0
LINE
  5
58E
330
1F
100
AcDbEntity
  8
0
  6
Continuous
370
    15
100
AcDbLine
 10
549.3600361585954
 20
250.682684198529
 30
0.0
 11
549.6801879538601
 21
250.8177687847854
 31
0.0
  0
LINE
  5
58F
330
1F
100
AcDbEntity
  8
0
  6
Continuous
370
    15
100
AcDbLine
 10
549.4665572450172
 20
250.3269616715912
 30
0.0
 11
549.8466901616208
 21
250.5928931159629
 31
0.0
  0
LINE
  5
590
330
1F
100
AcDbEntity
  8
0
  6
Continuous
370
    15
100
AcDbLine
 10
549.8466901616208
 20
250.5928931159629
 30
0.0
 11
550.209282073376
 21
250.9419757199275
 31
0.0
  0
LINE
  5
591
330
1F
100
AcDbEntity
  8
0
  6
Continuous
370
    15
100
AcDbLine
 10
550.209282073376
 20
250.9419757199275
 30
0.0
 11
550.5373785854811
 21
251.3578867689012
 31
0.0
  0
LINE
  5
592
330
1F
100
AcDbEntity
  8
0
  6
Continuous
370
    15
100
AcDbLine
 10
550.5373785854811
 20
251.3578867689012
 30
0.0
 11
550.8156382696827
 21
251.8211787244859
 31
0.0
  0
LINE
  5
593
330
1F
100
AcDbEntity
  8
0
  6
Continuous
370
    15
100
AcDbLine
 10
550.8156382696827
 20
251.8211787244859
 30
0.0
 11
551.0310500124116
 21
252.3101885697505
 31
0.0
  0
LINE
  5
594
330
1F
100
AcDbEntity
  8
0
  6
Continuous
370
    15
100
AcDbLine
 10
551.0310500124116
 20
252.3101885697505
 30
0.0
 11
551.1735413999904
 21
252.8020507478258
 31
0.0
  0
LINE
  5
595
330
1F
100
AcDbEntity
  8
0
  6
Continuous
370
    15
100
AcDbLine
 10
551.1735413999904
 20
252.8020507478258
 30
0.0
 11
551.2364496935039
 21
253.2737663299306
 31
0.0
  0
LINE
  5
596
330
1F
100
AcDbEntity
  8
0
  6
Continuous
370
    15
100
AcDbLine
 10
551.2364496935039
 20
253.2737663299306
 30
0.0
 11
551.2168333710649
 21
253.7032784197198
 31
0.0
  0
LINE
  5
597
330
1F
100
AcDbEntity
  8
0
  6
Continuous
370
    15
100
AcDbLine
 10
551.2168333710649
 20
253.7032784197198
 30
0.0
 11
551.1156096701085
 21
254.0705035092434
 31
0.0
  0
LINE
  5
598
330
1F
100
AcDbEntity
  8
0
  6
Continuous
370
    15
100
AcDbLine
 10
551.1156096701085
 20
254.0705035092434
 30
0.0
 11
550.9375116983895
 21
254.3582705614565
 31
0.0
  0
LINE
  5
599
330
1F
100
AcDbEntity
  8
0
  6
Continuous
370
    15
100
AcDbLine
 10
550.9375116983895
 20
254.3582705614565
 30
0.0
 11
550.6908671191236
 21
254.5531239088279
 31
0.0
  0
LINE
  5
59A
330
1F
100
AcDbEntity
  8
0
  6
Continuous
370
    15
100
AcDbLine
 10
550.6908671191236
 20
254.5531239088279
 30
0.0
 11
550.3872087587118
 21
254.6459524253982
 31
0.0
  0
LINE
  5
59B
330
1F
100
AcDbEntity
  8
0
  6
Continuous
370
    15
100
AcDbLine
 10
550.3872087587118
 20
254.6459524253982
 30
0.0
 11
550.0407353445949
 21
254.6324155529043
 31
0.0
  0
LINE
  5
59C
330
1F
100
AcDbEntity
  8
0
  6
Continuous
370
    15
100
AcDbLine
 10
550.0407353445949
 20
254.6324155529043
 30
0.0
 11
549.6676475885392
 21
254.5131462604587
 31
0.0
  0
LINE
  5
59D
330
1F
100
AcDbEntity
  8
0
  6
Continuous
370
    15
100
AcDbLine
 10
549.6676475885392
 20
254.5131462604587
 30
0.0
 11
549.2853906593612
 21
254.293721447618
 31
0.0
  0
LINE
  5
59E
330
1F
100
AcDbEntity
  8
0
  6
Continuous
370
    15
100
AcDbLine
 10
549.2853906593612
 20
254.293721447618
 30
0.0
 11
548.9118384662203
 21
253.9844011747573
 31
0.0
  0
LINE
  5
59F
330
1F
100
AcDbEntity
  8
0
  6
Continuous
370
    15
100
AcDbLine
 10
548.9118384662203
 20
253.9844011747573
 30
0.0
 11
548.564457894495
 21
253.599648914051
 31
0.0
  0
LINE
  5
5A0
330
1F
100
AcDbEntity
  8
0
  6
Continuous
370
    15
100
AcDbLine
 10
548.564457894495
 20
253.599648914051
 30
0.0
 11
548.2594920736334
 21
253.157455253588
 31
0.0
  0
LINE
  5
5A1
330
1F
100
AcDbEntity
  8
0
  6
Continuous
370
    15
100
AcDbLine
 10
548.2594920736334
 20
253.157455253588
 30
0.0
 11
548.0112008664732
 21
252.6784966774689
 31
0.0
  0
LINE
  5
5A2
330
1F
100
AcDbEntity
  8
0
  6
Continuous
370
    15
100
AcDbLine
 10
548.0112008664732
 20
252.6784966774689
 30
0.0
 11
547.8311940939061
 21
252.1851687563886
 31
0.0
  0
LINE
  5
5A3
330
1F
100
AcDbEntity
  8
0
  6
Continuous
370
    15
100
AcDbLine
 10
547.8311940939061
 20
252.1851687563886
 30
0.0
 11
547.7278886725538
 21
251.7005389556423
 31
0.0
  0
LINE
  5
5A4
330
1F
100
AcDbEntity
  8
0
  6
Continuous
370
    15
100
AcDbLine
 10
547.7278886725538
 20
251.7005389556423
 30
0.0
 11
547.7061150491032
 21
251.2472680260855
 31
0.0
  0
LINE
  5
5A5
330
1F
100
AcDbEntity
  8
0
  6
Continuous
370
    15
100
AcDbLine
 10
547.7061150491032
 20
251.2472680260855
 30
0.0
 11
547.7668913339869
 21
250.8465504126099
 31
0.0
  0
LINE
  5
5A6
330
1F
100
AcDbEntity
  8
0
  6
Continuous
370
    15
100
AcDbLine
 10
547.7668913339869
 20
250.8465504126099
 30
0.0
 11
547.9073756956719
 21
250.5171232254559
 31
0.0
  0
LINE
  5
5A7
330
1F
100
AcDbEntity
  8
0
  6
Continuous
370
    15
100
AcDbLine
 10
547.9073756956719
 20
250.5171232254559
 30
0.0
 11
548.1209992415432
 21
250.2743901137629
 31
0.0
  0
LINE
  5
5A8
330
1F
100
AcDbEntity
  8
0
  6
Continuous
370
    15
100
AcDbLine
 10
548.1209992415432
 20
250.2743901137629
 30
0.0
 11
548.397773172021
 21
250.1297010080552
 31
0.0
  0
LINE
  5
5A9
330
1F
100
AcDbEntity
  8
0
  6
Continuous
370
    15
100
AcDbLine
 10
548.397773172021
 20
250.1297010080552
 30
0.0
 11
548.7247558457285
 21
250.0898214101051
 31
0.0
  0
LINE
  5
5AA
330
1F
100
AcDbEntity
  8
0
  6
Continuous
370
    15
100
AcDbLine
 10
548.7247558457285
 20
250.0898214101051
 30
0.0
 11
549.0866579162579
 21
250.1566160455899
 31
0.0
  0
LINE
  5
5AB
330
1F
100
AcDbEntity
  8
0
  6
Continuous
370
    15
100
AcDbLine
 10
549.0866579162579
 20
250.1566160455899
 30
0.0
 11
549.4665572450172
 21
250.3269616715912
 31
0.0
  0
LINE
  5
5AC
330
1F
100
AcDbEntity
  8
0
  6
Continuous
370
    15
100
AcDbLine
 10
550.1964909772485
 20
253.5637715462896
 30
0.0
 11
549.1758743263678
 21
252.9779126631478
 31
0.0
  0
LINE
  5
5AD
330
1F
100
AcDbEntity
  8
0
  6
Continuous
370
    15
100
AcDbLine
 10
549.1758743263678
 20
252.9779126631478
 30
0.0
 11
548.6630682101159
 21
251.6628693382766
 31
0.0
  0
LINE
  5
5AE
330
1F
100
AcDbEntity
  8
0
  6
Continuous
370
    15
100
AcDbLine
 10
548.6630682101159
 20
251.6628693382766
 30
0.0
 11
549.1708787447445
 21
250.9336848965472
 31
0.0
  0
LINE
  5
5AF
330
1F
100
AcDbEntity
  8
0
  6
Continuous
370
    15
100
AcDbLine
 10
549.1708787447445
 20
250.9336848965472
 30
0.0
 11
550.1914953956251
 21
251.5195437796891
 31
0.0
  0
LINE
  5
5B0
330
1F
100
AcDbEntity
  8
0
  6
Continuous
370
    15
100
AcDbLine
 10
550.1914953956251
 20
251.5195437796891
 30
0.0
 11
550.704301511877
 21
252.8345871045602
 31
0.0
  0
LINE
  5
5B1
330
1F
100
AcDbEntity
  8
0
  6
Continuous
370
    15
100
AcDbLine
 10
550.704301511877
 20
252.8345871045602
 30
0.0
 11
550.1964909772485
 21
253.5637715462896
 31
0.0
  0
LINE
  5
5B2
330
1F
100
AcDbEntity
  8
0
  6
Continuous
370
    15
100
AcDbLine
 10
549.8177651329721
 20
253.3463736624189
 30
0.0
 11
550.704301511877
 21
252.8345871045602
 31
0.0
  0
LINE
  5
5B3
330
1F
100
AcDbEntity
  8
0
  6
Continuous
370
    15
100
AcDbLine
 10
548.8982969212652
 20
252.2660913682247
 30
0.0
 11
550.1914953956251
 21
251.5195437796891
 31
0.0
  0
LINE
  5
5B4
330
1F
100
AcDbEntity
  8
0
  6
Continuous
370
    15
100
AcDbLine
 10
546.5017043456569
 20
193.6624889438838
 30
0.0
 11
548.2694712986231
 21
194.6829990836622
 31
0.0
  0
LINE
  5
5B5
330
1F
100
AcDbEntity
  8
0
  6
Continuous
370
    15
100
AcDbLine
 10
548.2694712986231
 20
194.6829990836622
 30
0.0
 11
546.5017043456569
 21
195.7035092234406
 31
0.0
  0
LINE
  5
5B6
330
1F
100
AcDbEntity
  8
0
  6
Continuous
370
    15
100
AcDbLine
 10
552.1585585951494
 20
198.9691416707314
 30
0.0
 11
553.9263255481158
 21
197.948631530953
 31
0.0
  0
LINE
  5
5B7
330
1F
100
AcDbEntity
  8
0
  6
Continuous
370
    15
100
AcDbLine
 10
555.6940925010821
 20
198.9691416707314
 30
0.0
 11
553.9263255481158
 21
197.948631530953
 31
0.0
  0
LINE
  5
5B8
330
1F
100
AcDbEntity
  8
0
  6
Continuous
370
    15
100
AcDbLine
 10
572.6646552495591
 20
189.1722443288588
 30
0.0
 11
555.6940925010821
 21
198.9691416707314
 31
0.0
  0
LINE
  5
5B9
330
1F
100
AcDbEntity
  8
0
  6
Continuous
370
    15
100
AcDbLine
 10
574.7859755931189
 20
189.1722443288588
 30
0.0
 11
572.6646552495591
 21
189.1722443288588
 31
0.0
  0
LINE
  5
5BA
330
1F
100
AcDbEntity
  8
0
  6
Continuous
370
    15
100
AcDbLine
 10
607.3128875276999
 20
170.3948577569364
 30
0.0
 11
574.7859755931189
 21
189.1722443288588
 31
0.0
  0
LINE
  5
5BB
330
1F
100
AcDbEntity
  8
0
  6
Continuous
370
    15
100
AcDbLine
 10
607.3128875276998
 20
168.3538374773796
 30
0.0
 11
607.3128875276999
 21
170.3948577569364
 31
0.0
  0
LINE
  5
5BC
330
1F
100
AcDbEntity
  8
0
  6
Continuous
370
    15
100
AcDbLine
 10
599.5347129346478
 20
163.8635928623548
 30
0.0
 11
607.3128875276998
 21
168.3538374773796
 31
0.0
  0
LINE
  5
5BD
330
1F
100
AcDbEntity
  8
0
  6
Continuous
370
    15
100
AcDbLine
 10
595.999179028715
 20
163.8635928623548
 30
0.0
 11
599.5347129346478
 21
163.8635928623548
 31
0.0
  0
LINE
  5
5BE
330
1F
100
AcDbEntity
  8
0
  6
Continuous
370
    15
100
AcDbLine
 10
563.472267094134
 20
182.6409794342772
 30
0.0
 11
595.999179028715
 21
163.8635928623548
 31
0.0
  0
LINE
  5
5BF
330
1F
100
AcDbEntity
  8
0
  6
Continuous
370
    15
100
AcDbLine
 10
563.472267094134
 20
183.8655916020112
 30
0.0
 11
563.472267094134
 21
182.6409794342772
 31
0.0
  0
LINE
  5
5C0
330
1F
100
AcDbEntity
  8
0
  6
Continuous
370
    15
100
AcDbLine
 10
563.472267094134
 20
183.8655916020112
 30
0.0
 11
546.5017043456569
 21
193.6624889438838
 31
0.0
  0
LINE
  5
5C1
330
1F
100
AcDbEntity
  8
0
  6
Continuous
370
    15
100
AcDbLine
 10
571.4625737215418
 20
184.5595384970605
 30
0.0
 11
570.9663887004939
 21
184.227856145598
 31
0.0
  0
LINE
  5
5C2
330
1F
100
AcDbEntity
  8
0
  6
Continuous
370
    15
100
AcDbLine
 10
570.9663887004939
 20
184.227856145598
 30
0.0
 11
570.559146919384
 21
183.8580021917159
 31
0.0
  0
LINE
  5
5C3
330
1F
100
AcDbEntity
  8
0
  6
Continuous
370
    15
100
AcDbLine
 10
570.559146919384
 20
183.8580021917159
 30
0.0
 11
570.2495280297443
 21
183.4578594303192
 31
0.0
  0
LINE
  5
5C4
330
1F
100
AcDbEntity
  8
0
  6
Continuous
370
    15
100
AcDbLine
 10
570.2495280297443
 20
183.4578594303192
 30
0.0
 11
570.0441310206619
 21
183.0359562096592
 31
0.0
  0
LINE
  5
5C5
330
1F
100
AcDbEntity
  8
0
  6
Continuous
370
    15
100
AcDbLine
 10
570.0441310206619
 20
183.0359562096592
 30
0.0
 11
569.9473335727857
 21
182.6012846643968
 31
0.0
  0
LINE
  5
5C6
330
1F
100
AcDbEntity
  8
0
  6
Continuous
370
    15
100
AcDbLine
 10
569.9473335727857
 20
182.6012846643968
 30
0.0
 11
569.9611987556622
 21
182.1631090638643
 31
0.0
  0
LINE
  5
5C7
330
1F
100
AcDbEntity
  8
0
  6
Continuous
370
    15
100
AcDbLine
 10
569.9611987556622
 20
182.1631090638643
 30
0.0
 11
570.0854310569903
 21
181.7307683602482
 31
0.0
  0
LINE
  5
5C8
330
1F
100
AcDbEntity
  8
0
  6
Continuous
370
    15
100
AcDbLine
 10
570.0854310569903
 20
181.7307683602482
 30
0.0
 11
570.3173826809533
 21
181.3134771450379
 31
0.0
  0
LINE
  5
5C9
330
1F
100
AcDbEntity
  8
0
  6
Continuous
370
    15
100
AcDbLine
 10
570.3173826809533
 20
181.3134771450379
 30
0.0
 11
570.6521099813892
 21
180.9201292560052
 31
0.0
  0
LINE
  5
5CA
330
1F
100
AcDbEntity
  8
0
  6
Continuous
370
    15
100
AcDbLine
 10
570.6521099813892
 20
180.9201292560052
 30
0.0
 11
571.0824788270263
 21
180.5591082204938
 31
0.0
  0
LINE
  5
5CB
330
1F
100
AcDbEntity
  8
0
  6
Continuous
370
    15
100
AcDbLine
 10
571.0824788270263
 20
180.5591082204938
 30
0.0
 11
571.5993166531047
 21
180.238108575089
 31
0.0
  0
LINE
  5
5CC
330
1F
100
AcDbEntity
  8
0
  6
Continuous
370
    15
100
AcDbLine
 10
571.5993166531047
 20
180.238108575089
 30
0.0
 11
572.1916079586694
 21
179.9639718699289
 31
0.0
  0
LINE
  5
5CD
330
1F
100
AcDbEntity
  8
0
  6
Continuous
370
    15
100
AcDbLine
 10
572.1916079586694
 20
179.9639718699289
 30
0.0
 11
572.8467290828489
 21
179.7425408529415
 31
0.0
  0
LINE
  5
5CE
330
1F
100
AcDbEntity
  8
0
  6
Continuous
370
    15
100
AcDbLine
 10
572.8467290828489
 20
179.7425408529415
 30
0.0
 11
573.5507172562708
 21
179.5785349418164
 31
0.0
  0
LINE
  5
5CF
330
1F
100
AcDbEntity
  8
0
  6
Continuous
370
    15
100
AcDbLine
 10
573.5507172562708
 20
179.5785349418164
 30
0.0
 11
574.2885681932469
 21
179.4754496378104
 31
0.0
  0
LINE
  5
5D0
330
1F
100
AcDbEntity
  8
0
  6
Continuous
370
    15
100
AcDbLine
 10
574.2885681932469
 20
179.4754496378104
 30
0.0
 11
575.044555882076
 21
179.4354820252066
 31
0.0
  0
LINE
  5
5D1
330
1F
100
AcDbEntity
  8
0
  6
Continuous
370
    15
100
AcDbLine
 10
575.044555882076
 20
179.4354820252066
 30
0.0
 11
575.8025677576791
 21
179.4594839442781
 31
0.0
  0
LINE
  5
5D2
330
1F
100
AcDbEntity
  8
0
  6
Continuous
370
    15
100
AcDbLine
 10
575.8025677576791
 20
179.4594839442781
 30
0.0
 11
576.5464481129496
 21
179.5469438357908
 31
0.0
  0
LINE
  5
5D3
330
1F
100
AcDbEntity
  8
0
  6
Continuous
370
    15
100
AcDbLine
 10
576.5464481129496
 20
179.5469438357908
 30
0.0
 11
577.2603424296038
 21
179.6959976440004
 31
0.0
  0
LINE
  5
5D4
330
1F
100
AcDbEntity
  8
0
  6
Continuous
370
    15
100
AcDbLine
 10
577.2603424296038
 20
179.6959976440004
 30
0.0
 11
577.9290352897094
 21
179.903468545765
 31
0.0
  0
LINE
  5
5D5
330
1F
100
AcDbEntity
  8
0
  6
Continuous
370
    15
100
AcDbLine
 10
577.9290352897094
 20
179.903468545765
 30
0.0
 11
578.5382746659046
 21
180.164934659014
 31
0.0
  0
LINE
  5
5D6
330
1F
100
AcDbEntity
  8
0
  6
Continuous
370
    15
100
AcDbLine
 10
578.5382746659046
 20
180.164934659014
 30
0.0
 11
579.0750756786168
 21
180.4748232874879
 31
0.0
  0
LINE
  5
5D7
330
1F
100
AcDbEntity
  8
0
  6
Continuous
370
    15
100
AcDbLine
 10
579.0750756786168
 20
180.4748232874879
 30
0.0
 11
579.5279973462276
 21
180.8265296930841
 31
0.0
  0
LINE
  5
5D8
330
1F
100
AcDbEntity
  8
0
  6
Continuous
370
    15
100
AcDbLine
 10
579.5279973462276
 20
180.8265296930841
 30
0.0
 11
579.8873864297316
 21
181.2125578643823
 31
0.0
  0
LINE
  5
5D9
330
1F
100
AcDbEntity
  8
0
  6
Continuous
370
    15
100
AcDbLine
 10
579.8873864297316
 20
181.2125578643823
 30
0.0
 11
580.1455831747675
 21
181.6246802811144
 31
0.0
  0
LINE
  5
5DA
330
1F
100
AcDbEntity
  8
0
  6
Continuous
370
    15
100
AcDbLine
 10
580.1455831747675
 20
181.6246802811144
 30
0.0
 11
580.297084565983
 21
182.0541132694741
 31
0.0
  0
LINE
  5
5DB
330
1F
100
AcDbEntity
  8
0
  6
Continuous
370
    15
100
AcDbLine
 10
580.297084565983
 20
182.0541132694741
 30
0.0
 11
580.3386616142539
 21
182.4917042108746
 31
0.0
  0
LINE
  5
5DC
330
1F
100
AcDbEntity
  8
0
  6
Continuous
370
    15
100
AcDbLine
 10
580.3386616142539
 20
182.4917042108746
 30
0.0
 11
580.2694281769798
 21
182.9281266141236
 31
0.0
  0
LINE
  5
5DD
330
1F
100
AcDbEntity
  8
0
  6
Continuous
370
    15
100
AcDbLine
 10
580.2694281769798
 20
182.9281266141236
 30
0.0
 11
580.090859844677
 21
183.3540788933907
 31
0.0
  0
LINE
  5
5DE
330
1F
100
AcDbEntity
  8
0
  6
Continuous
370
    15
100
AcDbLine
 10
580.090859844677
 20
183.3540788933907
 30
0.0
 11
579.8067624913269
 21
183.7604826153606
 31
0.0
  0
LINE
  5
5DF
330
1F
100
AcDbEntity
  8
0
  6
Continuous
370
    15
100
AcDbLine
 10
579.8067624913269
 20
183.7604826153606
 30
0.0
 11
579.4231911587802
 21
184.1386759902772
 31
0.0
  0
LINE
  5
5E0
330
1F
100
AcDbEntity
  8
0
  6
Continuous
370
    15
100
AcDbLine
 10
579.4231911587802
 20
184.1386759902772
 30
0.0
 11
578.9483210040531
 21
184.4805984829549
 31
0.0
  0
LINE
  5
5E1
330
1F
100
AcDbEntity
  8
0
  6
Continuous
370
    15
100
AcDbLine
 10
578.9483210040531
 20
184.4805984829549
 30
0.0
 11
578.3922730600477
 21
184.7789626090908
 31
0.0
  0
LINE
  5
5E2
330
1F
100
AcDbEntity
  8
0
  6
Continuous
370
    15
100
AcDbLine
 10
578.3922730600477
 20
184.7789626090908
 30
0.0
 11
577.7668985233073
 21
185.0274092553415
 31
0.0
  0
LINE
  5
5E3
330
1F
100
AcDbEntity
  8
0
  6
Continuous
370
    15
100
AcDbLine
 10
577.7668985233073
 20
185.0274092553415
 30
0.0
 11
577.0855261663389
 21
185.2206432127827
 31
0.0
  0
LINE
  5
5E4
330
1F
100
AcDbEntity
  8
0
  6
Continuous
370
    15
100
AcDbLine
 10
577.0855261663389
 20
185.2206432127827
 30
0.0
 11
576.3626782579661
 21
185.3545460350949
 31
0.0
  0
LINE
  5
5E5
330
1F
100
AcDbEntity
  8
0
  6
Continuous
370
    15
100
AcDbLine
 10
576.3626782579661
 20
185.3545460350949
 30
0.0
 11
575.6137610463833
 21
185.4262638160957
 31
0.0
  0
LINE
  5
5E6
330
1F
100
AcDbEntity
  8
0
  6
Continuous
370
    15
100
AcDbLine
 10
575.6137610463833
 20
185.4262638160957
 30
0.0
 11
574.8547364017229
 21
185.4342680157962
 31
0.0
  0
LINE
  5
5E7
330
1F
100
AcDbEntity
  8
0
  6
Continuous
370
    15
100
AcDbLine
 10
574.8547364017229
 20
185.4342680157962
 30
0.0
 11
574.1017816165049
 21
185.378388038576
 31
0.0
  0
LINE
  5
5E8
330
1F
100
AcDbEntity
  8
0
  6
Continuous
370
    15
100
AcDbLine
 10
574.1017816165049
 20
185.378388038576
 30
0.0
 11
573.3709446147337
 21
185.2598148691336
 31
0.0
  0
LINE
  5
5E9
330
1F
100
AcDbEntity
  8
0
  6
Continuous
370
    15
100
AcDbLine
 10
573.3709446147337
 20
185.2598148691336
 30
0.0
 11
572.6778019182589
 21
185.0810756887149
 31
0.0
  0
LINE
  5
5EA
330
1F
100
AcDbEntity
  8
0
  6
Continuous
370
    15
100
AcDbLine
 10
572.6778019182589
 20
185.0810756887149
 30
0.0
 11
572.0371266602565
 21
184.8459800126325
 31
0.0
  0
LINE
  5
5EB
330
1F
100
AcDbEntity
  8
0
  6
Continuous
370
    15
100
AcDbLine
 10
572.0371266602565
 20
184.8459800126325
 30
0.0
 11
571.4625737215418
 21
184.5595384970605
 31
0.0
  0
LINE
  5
5EC
330
1F
100
AcDbEntity
  8
0
  6
Continuous
370
    15
100
AcDbLine
 10
592.6757771571383
 20
172.3134168197198
 30
0.0
 11
592.17959213609
 21
171.9817344682573
 31
0.0
  0
LINE
  5
5ED
330
1F
100
AcDbEntity
  8
0
  6
Continuous
370
    15
100
AcDbLine
 10
592.17959213609
 20
171.9817344682573
 30
0.0
 11
591.7723503549803
 21
171.6118805143752
 31
0.0
  0
LINE
  5
5EE
330
1F
100
AcDbEntity
  8
0
  6
Continuous
370
    15
100
AcDbLine
 10
591.7723503549803
 20
171.6118805143752
 30
0.0
 11
591.4627314653404
 21
171.2117377529785
 31
0.0
  0
LINE
  5
5EF
330
1F
100
AcDbEntity
  8
0
  6
Continuous
370
    15
100
AcDbLine
 10
591.4627314653404
 20
171.2117377529785
 30
0.0
 11
591.2573344562581
 21
170.7898345323185
 31
0.0
  0
LINE
  5
5F0
330
1F
100
AcDbEntity
  8
0
  6
Continuous
370
    15
100
AcDbLine
 10
591.2573344562581
 20
170.7898345323185
 30
0.0
 11
591.1605370083819
 21
170.3551629870561
 31
0.0
  0
LINE
  5
5F1
330
1F
100
AcDbEntity
  8
0
  6
Continuous
370
    15
100
AcDbLine
 10
591.1605370083819
 20
170.3551629870561
 30
0.0
 11
591.1744021912585
 21
169.9169873865236
 31
0.0
  0
LINE
  5
5F2
330
1F
100
AcDbEntity
  8
0
  6
Continuous
370
    15
100
AcDbLine
 10
591.1744021912585
 20
169.9169873865236
 30
0.0
 11
591.2986344925866
 21
169.4846466829075
 31
0.0
  0
LINE
  5
5F3
330
1F
100
AcDbEntity
  8
0
  6
Continuous
370
    15
100
AcDbLine
 10
591.2986344925866
 20
169.4846466829075
 30
0.0
 11
591.5305861165498
 21
169.0673554676972
 31
0.0
  0
LINE
  5
5F4
330
1F
100
AcDbEntity
  8
0
  6
Continuous
370
    15
100
AcDbLine
 10
591.5305861165498
 20
169.0673554676972
 30
0.0
 11
591.8653134169858
 21
168.6740075786645
 31
0.0
  0
LINE
  5
5F5
330
1F
100
AcDbEntity
  8
0
  6
Continuous
370
    15
100
AcDbLine
 10
591.8653134169858
 20
168.6740075786645
 30
0.0
 11
592.2956822626228
 21
168.3129865431531
 31
0.0
  0
LINE
  5
5F6
330
1F
100
AcDbEntity
  8
0
  6
Continuous
370
    15
100
AcDbLine
 10
592.2956822626228
 20
168.3129865431531
 30
0.0
 11
592.8125200887009
 21
167.9919868977483
 31
0.0
  0
LINE
  5
5F7
330
1F
100
AcDbEntity
  8
0
  6
Continuous
370
    15
100
AcDbLine
 10
592.8125200887009
 20
167.9919868977483
 30
0.0
 11
593.4048113942655
 21
167.7178501925882
 31
0.0
  0
LINE
  5
5F8
330
1F
100
AcDbEntity
  8
0
  6
Continuous
370
    15
100
AcDbLine
 10
593.4048113942655
 20
167.7178501925882
 30
0.0
 11
594.0599325184454
 21
167.4964191756008
 31
0.0
  0
LINE
  5
5F9
330
1F
100
AcDbEntity
  8
0
  6
Continuous
370
    15
100
AcDbLine
 10
594.0599325184454
 20
167.4964191756008
 30
0.0
 11
594.763920691867
 21
167.3324132644757
 31
0.0
  0
LINE
  5
5FA
330
1F
100
AcDbEntity
  8
0
  6
Continuous
370
    15
100
AcDbLine
 10
594.763920691867
 20
167.3324132644757
 30
0.0
 11
595.5017716288431
 21
167.2293279604697
 31
0.0
  0
LINE
  5
5FB
330
1F
100
AcDbEntity
  8
0
  6
Continuous
370
    15
100
AcDbLine
 10
595.5017716288431
 20
167.2293279604697
 30
0.0
 11
596.2577593176724
 21
167.1893603478659
 31
0.0
  0
LINE
  5
5FC
330
1F
100
AcDbEntity
  8
0
  6
Continuous
370
    15
100
AcDbLine
 10
596.2577593176724
 20
167.1893603478659
 30
0.0
 11
597.0157711932753
 21
167.2133622669374
 31
0.0
  0
LINE
  5
5FD
330
1F
100
AcDbEntity
  8
0
  6
Continuous
370
    15
100
AcDbLine
 10
597.0157711932753
 20
167.2133622669374
 30
0.0
 11
597.7596515485461
 21
167.3008221584501
 31
0.0
  0
LINE
  5
5FE
330
1F
100
AcDbEntity
  8
0
  6
Continuous
370
    15
100
AcDbLine
 10
597.7596515485461
 20
167.3008221584501
 30
0.0
 11
598.4735458652001
 21
167.4498759666598
 31
0.0
  0
LINE
  5
5FF
330
1F
100
AcDbEntity
  8
0
  6
Continuous
370
    15
100
AcDbLine
 10
598.4735458652001
 20
167.4498759666598
 30
0.0
 11
599.1422387253056
 21
167.6573468684243
 31
0.0
  0
LINE
  5
600
330
1F
100
AcDbEntity
  8
0
  6
Continuous
370
    15
100
AcDbLine
 10
599.1422387253056
 20
167.6573468684243
 30
0.0
 11
599.7514781015009
 21
167.9188129816733
 31
0.0
  0
LINE
  5
601
330
1F
100
AcDbEntity
  8
0
  6
Continuous
370
    15
100
AcDbLine
 10
599.7514781015009
 20
167.9188129816733
 30
0.0
 11
600.2882791142132
 21
168.2287016101472
 31
0.0
  0
LINE
  5
602
330
1F
100
AcDbEntity
  8
0
  6
Continuous
370
    15
100
AcDbLine
 10
600.2882791142132
 20
168.2287016101472
 30
0.0
 11
600.7412007818241
 21
168.5804080157434
 31
0.0
  0
LINE
  5
603
330
1F
100
AcDbEntity
  8
0
  6
Continuous
370
    15
100
AcDbLine
 10
600.7412007818241
 20
168.5804080157434
 30
0.0
 11
601.1005898653281
 21
168.9664361870417
 31
0.0
  0
LINE
  5
604
330
1F
100
AcDbEntity
  8
0
  6
Continuous
370
    15
100
AcDbLine
 10
601.1005898653281
 20
168.9664361870417
 30
0.0
 11
601.358786610364
 21
169.3785586037737
 31
0.0
  0
LINE
  5
605
330
1F
100
AcDbEntity
  8
0
  6
Continuous
370
    15
100
AcDbLine
 10
601.358786610364
 20
169.3785586037737
 30
0.0
 11
601.5102880015795
 21
169.8079915921334
 31
0.0
  0
LINE
  5
606
330
1F
100
AcDbEntity
  8
0
  6
Continuous
370
    15
100
AcDbLine
 10
601.5102880015795
 20
169.8079915921334
 30
0.0
 11
601.5518650498502
 21
170.2455825335339
 31
0.0
  0
LINE
  5
607
330
1F
100
AcDbEntity
  8
0
  6
Continuous
370
    15
100
AcDbLine
 10
601.5518650498502
 20
170.2455825335339
 30
0.0
 11
601.4826316125763
 21
170.6820049367829
 31
0.0
  0
LINE
  5
608
330
1F
100
AcDbEntity
  8
0
  6
Continuous
370
    15
100
AcDbLine
 10
601.4826316125763
 20
170.6820049367829
 30
0.0
 11
601.3040632802735
 21
171.1079572160501
 31
0.0
  0
LINE
  5
609
330
1F
100
AcDbEntity
  8
0
  6
Continuous
370
    15
100
AcDbLine
 10
601.3040632802735
 20
171.1079572160501
 30
0.0
 11
601.0199659269231
 21
171.5143609380199
 31
0.0
  0
LINE
  5
60A
330
1F
100
AcDbEntity
  8
0
  6
Continuous
370
    15
100
AcDbLine
 10
601.0199659269231
 20
171.5143609380199
 30
0.0
 11
600.6363945943767
 21
171.8925543129365
 31
0.0
  0
LINE
  5
60B
330
1F
100
AcDbEntity
  8
0
  6
Continuous
370
    15
100
AcDbLine
 10
600.6363945943767
 20
171.8925543129365
 30
0.0
 11
600.1615244396496
 21
172.2344768056141
 31
0.0
  0
LINE
  5
60C
330
1F
100
AcDbEntity
  8
0
  6
Continuous
370
    15
100
AcDbLine
 10
600.1615244396496
 20
172.2344768056141
 30
0.0
 11
599.6054764956439
 21
172.5328409317501
 31
0.0
  0
LINE
  5
60D
330
1F
100
AcDbEntity
  8
0
  6
Continuous
370
    15
100
AcDbLine
 10
599.6054764956439
 20
172.5328409317501
 30
0.0
 11
598.9801019589038
 21
172.7812875780008
 31
0.0
  0
LINE
  5
60E
330
1F
100
AcDbEntity
  8
0
  6
Continuous
370
    15
100
AcDbLine
 10
598.9801019589038
 20
172.7812875780008
 30
0.0
 11
598.2987296019351
 21
172.974521535442
 31
0.0
  0
LINE
  5
60F
330
1F
100
AcDbEntity
  8
0
  6
Continuous
370
    15
100
AcDbLine
 10
598.2987296019351
 20
172.974521535442
 30
0.0
 11
597.5758816935622
 21
173.1084243577542
 31
0.0
  0
LINE
  5
610
330
1F
100
AcDbEntity
  8
0
  6
Continuous
370
    15
100
AcDbLine
 10
597.5758816935622
 20
173.1084243577542
 30
0.0
 11
596.8269644819798
 21
173.1801421387551
 31
0.0
  0
LINE
  5
611
330
1F
100
AcDbEntity
  8
0
  6
Continuous
370
    15
100
AcDbLine
 10
596.8269644819798
 20
173.1801421387551
 30
0.0
 11
596.0679398373194
 21
173.1881463384555
 31
0.0
  0
LINE
  5
612
330
1F
100
AcDbEntity
  8
0
  6
Continuous
370
    15
100
AcDbLine
 10
596.0679398373194
 20
173.1881463384555
 30
0.0
 11
595.3149850521014
 21
173.1322663612353
 31
0.0
  0
LINE
  5
613
330
1F
100
AcDbEntity
  8
0
  6
Continuous
370
    15
100
AcDbLine
 10
595.3149850521014
 20
173.1322663612353
 30
0.0
 11
594.5841480503299
 21
173.0136931917929
 31
0.0
  0
LINE
  5
614
330
1F
100
AcDbEntity
  8
0
  6
Continuous
370
    15
100
AcDbLine
 10
594.5841480503299
 20
173.0136931917929
 30
0.0
 11
593.8910053538553
 21
172.8349540113743
 31
0.0
  0
LINE
  5
615
330
1F
100
AcDbEntity
  8
0
  6
Continuous
370
    15
100
AcDbLine
 10
593.8910053538553
 20
172.8349540113743
 30
0.0
 11
593.2503300958529
 21
172.5998583352918
 31
0.0
  0
LINE
  5
616
330
1F
100
AcDbEntity
  8
0
  6
Continuous
370
    15
100
AcDbLine
 10
593.2503300958529
 20
172.5998583352918
 30
0.0
 11
592.6757771571383
 21
172.3134168197198
 31
0.0
  0
LINE
  5
617
330
1F
100
AcDbEntity
  8
0
  6
Continuous
370
    15
100
AcDbLine
 10
595.999179028715
 20
161.8222408326404
 30
0.0
 11
595.999179028715
 21
163.8635928623548
 31
0.0
  0
LINE
  5
618
330
1F
100
AcDbEntity
  8
0
  6
Continuous
370
    15
100
AcDbLine
 10
599.5347129346478
 20
163.8635928623548
 30
0.0
 11
599.5347129346478
 21
161.8222408326404
 31
0.0
  0
LINE
  5
619
330
1F
100
AcDbEntity
  8
0
  6
Continuous
370
    15
100
AcDbLine
 10
599.5347129346478
 20
161.8222408326404
 30
0.0
 11
595.999179028715
 21
161.8222408326404
 31
0.0
  0
LINE
  5
61A
330
1F
100
AcDbEntity
  8
0
  6
Continuous
370
    15
100
AcDbLine
 10
551.4514518139629
 20
202.2352385682429
 30
0.0
 11
553.2192187669292
 21
203.2557487080213
 31
0.0
  0
LINE
  5
61B
330
1F
100
AcDbEntity
  8
0
  6
Continuous
370
    15
100
AcDbLine
 10
551.4514518139629
 20
202.2352385682429
 30
0.0
 11
551.4514518139629
 21
200.1938865385285
 31
0.0
  0
LINE
  5
61C
330
1F
100
AcDbEntity
  8
0
  6
Continuous
370
    15
100
AcDbLine
 10
545.7945975644702
 20
196.9282540912377
 30
0.0
 11
545.7945975644702
 21
198.9696061209521
 31
0.0
  0
LINE
  5
61D
330
1F
100
AcDbEntity
  8
0
  6
Continuous
370
    15
100
AcDbLine
 10
545.7945975644702
 20
198.9696061209521
 30
0.0
 11
544.0268306115039
 21
197.9490959811737
 31
0.0
  0
LINE
  5
61E
330
1F
100
AcDbEntity
  8
0
  6
Continuous
370
    15
100
AcDbLine
 10
544.0268306115039
 20
197.9490959811737
 30
0.0
 11
544.0268306115039
 21
256.3317640310048
 31
0.0
  0
LINE
  5
61F
330
1F
100
AcDbEntity
  8
0
  6
Continuous
370
    15
100
AcDbLine
 10
545.7945975605792
 20
259.3936262027441
 30
0.0
 11
544.0268306115039
 21
256.3317640310048
 31
0.0
  0
LINE
  5
620
330
1F
100
AcDbEntity
  8
0
  6
Continuous
370
    15
100
AcDbLine
 10
545.7945975605792
 20
259.3936262027441
 30
0.0
 11
551.4514518100717
 21
262.6592586500349
 31
0.0
  0
LINE
  5
621
330
1F
100
AcDbEntity
  8
0
  6
Continuous
370
    15
100
AcDbLine
 10
553.2192187669292
 20
261.6384167578524
 30
0.0
 11
551.4514518100717
 21
262.6592586500349
 31
0.0
  0
LINE
  5
622
330
1F
100
AcDbEntity
  8
0
  6
Continuous
370
    15
100
AcDbLine
 10
553.2192187669292
 20
203.2557487080213
 30
0.0
 11
553.2192187669292
 21
261.6384167578524
 31
0.0
  0
LINE
  5
623
330
1F
100
AcDbEntity
  8
0
  6
Continuous
370
    15
100
AcDbLine
 10
544.0268306115039
 20
256.3317640310048
 30
0.0
 11
542.2590636585376
 21
257.3522741707832
 31
0.0
  0
LINE
  5
624
330
1F
100
AcDbEntity
  8
0
  6
Continuous
370
    15
100
AcDbLine
 10
542.2590636585376
 20
257.3522741707832
 30
0.0
 11
544.0268306076129
 21
260.4141363425225
 31
0.0
  0
LINE
  5
625
330
1F
100
AcDbEntity
  8
0
  6
Continuous
370
    15
100
AcDbLine
 10
544.0268306076129
 20
260.4141363425225
 30
0.0
 11
545.7945975605792
 21
259.3936262027441
 31
0.0
  0
LINE
  5
626
330
1F
100
AcDbEntity
  8
0
  6
Continuous
370
    15
100
AcDbLine
 10
607.3128875276998
 20
166.3124854476653
 30
0.0
 11
607.3128875276998
 21
168.3538374773796
 31
0.0
  0
LINE
  5
627
330
1F
100
AcDbEntity
  8
0
  6
Continuous
370
    15
100
AcDbLine
 10
599.5347129346478
 20
161.8222408326404
 30
0.0
 11
607.3128875276998
 21
166.3124854476653
 31
0.0
  0
LINE
  5
628
330
1F
100
AcDbEntity
  8
0
  6
Continuous
370
    15
100
AcDbLine
 10
563.472267094134
 20
182.6409794342772
 30
0.0
 11
563.472267094134
 21
180.5996274045628
 31
0.0
  0
LINE
  5
629
330
1F
100
AcDbEntity
  8
0
  6
Continuous
370
    15
100
AcDbLine
 10
595.999179028715
 20
161.8222408326404
 30
0.0
 11
563.472267094134
 21
180.5996274045628
 31
0.0
  0
LINE
  5
62A
330
1F
100
AcDbEntity
  8
0
  6
Continuous
370
    15
100
AcDbLine
 10
544.0268306115039
 20
197.9490959811737
 30
0.0
 11
542.2590636585376
 21
198.9696061209521
 31
0.0
  0
LINE
  5
62B
330
1F
100
AcDbEntity
  8
0
  6
Continuous
370
    15
100
AcDbLine
 10
542.2590636585376
 20
257.3522741707832
 30
0.0
 11
542.2590636585376
 21
198.9696061209521
 31
0.0
  0
LINE
  5
62C
330
1F
100
AcDbEntity
  8
0
  6
Continuous
370
    15
100
AcDbLine
 10
551.4514518100717
 20
262.6592586500349
 30
0.0
 11
549.6836848571053
 21
263.6797687898133
 31
0.0
  0
LINE
  5
62D
330
1F
100
AcDbEntity
  8
0
  6
Continuous
370
    15
100
AcDbLine
 10
544.0268306076129
 20
260.4141363425225
 30
0.0
 11
549.6836848571053
 21
263.6797687898133
 31
0.0
  0
LINE
  5
62E
330
1F
100
AcDbEntity
  8
0
  6
Continuous
370
    15
100
AcDbLine
 10
598.8507855546767
 20
167.5579357333202
 30
0.0
 11
598.9485575903411
 21
167.7206177643201
 31
0.0
  0
LINE
  5
62F
330
1F
100
AcDbEntity
  8
0
  6
Continuous
370
    15
100
AcDbLine
 10
598.9485575903411
 20
167.7206177643201
 30
0.0
 11
599.0449372856168
 21
168.0310485140533
 31
0.0
  0
LINE
  5
630
330
1F
100
AcDbEntity
  8
0
  6
Continuous
370
    15
100
AcDbLine
 10
599.0449372856168
 20
168.0310485140533
 30
0.0
 11
599.0310977973452
 21
168.3463247389753
 31
0.0
  0
LINE
  5
631
330
1F
100
AcDbEntity
  8
0
  6
Continuous
370
    15
100
AcDbLine
 10
599.0310977973452
 20
168.3463247389753
 30
0.0
 11
598.9076057158023
 21
168.6535389933943
 31
0.0
  0
LINE
  5
632
330
1F
100
AcDbEntity
  8
0
  6
Continuous
370
    15
100
AcDbLine
 10
598.9076057158023
 20
168.6535389933943
 30
0.0
 11
598.6795168213158
 21
168.9401138896384
 31
0.0
  0
LINE
  5
633
330
1F
100
AcDbEntity
  8
0
  6
Continuous
370
    15
100
AcDbLine
 10
598.6795168213158
 20
168.9401138896384
 30
0.0
 11
598.3561691000258
 21
169.1943170177841
 31
0.0
  0
LINE
  5
634
330
1F
100
AcDbEntity
  8
0
  6
Continuous
370
    15
100
AcDbLine
 10
598.3561691000258
 20
169.1943170177841
 30
0.0
 11
597.9508004456333
 21
169.4057412718977
 31
0.0
  0
LINE
  5
635
330
1F
100
AcDbEntity
  8
0
  6
Continuous
370
    15
100
AcDbLine
 10
597.9508004456333
 20
169.4057412718977
 30
0.0
 11
597.4800066984781
 21
169.5657309181742
 31
0.0
  0
LINE
  5
636
330
1F
100
AcDbEntity
  8
0
  6
Continuous
370
    15
100
AcDbLine
 10
597.4800066984781
 20
169.5657309181742
 30
0.0
 11
596.9630622098842
 21
169.6677359616974
 31
0.0
  0
LINE
  5
637
330
1F
100
AcDbEntity
  8
0
  6
Continuous
370
    15
100
AcDbLine
 10
596.9630622098842
 20
169.6677359616974
 30
0.0
 11
596.421130747954
 21
169.7075803040001
 31
0.0
  0
LINE
  5
638
330
1F
100
AcDbEntity
  8
0
  6
Continuous
370
    15
100
AcDbLine
 10
596.421130747954
 20
169.7075803040001
 30
0.0
 11
595.8763990504123
 21
169.683632713027
 31
0.0
  0
LINE
  5
639
330
1F
100
AcDbEntity
  8
0
  6
Continuous
370
    15
100
AcDbLine
 10
595.8763990504123
 20
169.683632713027
 30
0.0
 11
595.3511684969598
 21
169.5968736059664
 31
0.0
  0
LINE
  5
63A
330
1F
100
AcDbEntity
  8
0
  6
Continuous
370
    15
100
AcDbLine
 10
595.3511684969598
 20
169.5968736059664
 30
0.0
 11
594.8669420881674
 21
169.450854910855
 31
0.0
  0
LINE
  5
63B
330
1F
100
AcDbEntity
  8
0
  6
Continuous
370
    15
100
AcDbLine
 10
594.8669420881674
 20
169.450854910855
 30
0.0
 11
594.4435441101048
 21
169.251554650227
 31
0.0
  0
LINE
  5
63C
330
1F
100
AcDbEntity
  8
0
  6
Continuous
370
    15
100
AcDbLine
 10
577.6375821190707
 20
179.8040574106475
 30
0.0
 11
577.7353541547449
 21
179.9667394416608
 31
0.0
  0
LINE
  5
63D
330
1F
100
AcDbEntity
  8
0
  6
Continuous
370
    15
100
AcDbLine
 10
577.7353541547449
 20
179.9667394416608
 30
0.0
 11
577.8317338500207
 21
180.277170191394
 31
0.0
  0
LINE
  5
63E
330
1F
100
AcDbEntity
  8
0
  6
Continuous
370
    15
100
AcDbLine
 10
577.8317338500207
 20
180.277170191394
 30
0.0
 11
577.817894361749
 21
180.592446416316
 31
0.0
  0
LINE
  5
63F
330
1F
100
AcDbEntity
  8
0
  6
Continuous
370
    15
100
AcDbLine
 10
577.817894361749
 20
180.592446416316
 30
0.0
 11
577.6944022802058
 21
180.899660670735
 31
0.0
  0
LINE
  5
640
330
1F
100
AcDbEntity
  8
0
  6
Continuous
370
    15
100
AcDbLine
 10
577.6944022802058
 20
180.899660670735
 30
0.0
 11
577.4663133857197
 21
181.1862355669791
 31
0.0
  0
LINE
  5
641
330
1F
100
AcDbEntity
  8
0
  6
Continuous
370
    15
100
AcDbLine
 10
577.4663133857197
 20
181.1862355669791
 30
0.0
 11
577.1429656644294
 21
181.4404386951248
 31
0.0
  0
LINE
  5
642
330
1F
100
AcDbEntity
  8
0
  6
Continuous
370
    15
100
AcDbLine
 10
577.1429656644294
 20
181.4404386951248
 30
0.0
 11
576.7375970100368
 21
181.6518629492383
 31
0.0
  0
LINE
  5
643
330
1F
100
AcDbEntity
  8
0
  6
Continuous
370
    15
100
AcDbLine
 10
576.7375970100368
 20
181.6518629492383
 30
0.0
 11
576.2668032628816
 21
181.8118525955149
 31
0.0
  0
LINE
  5
644
330
1F
100
AcDbEntity
  8
0
  6
Continuous
370
    15
100
AcDbLine
 10
576.2668032628816
 20
181.8118525955149
 30
0.0
 11
575.7498587742881
 21
181.9138576390381
 31
0.0
  0
LINE
  5
645
330
1F
100
AcDbEntity
  8
0
  6
Continuous
370
    15
100
AcDbLine
 10
575.7498587742881
 20
181.9138576390381
 30
0.0
 11
575.2079273123575
 21
181.9537019813408
 31
0.0
  0
LINE
  5
646
330
1F
100
AcDbEntity
  8
0
  6
Continuous
370
    15
100
AcDbLine
 10
575.2079273123575
 20
181.9537019813408
 30
0.0
 11
574.663195614816
 21
181.9297543903677
 31
0.0
  0
LINE
  5
647
330
1F
100
AcDbEntity
  8
0
  6
Continuous
370
    15
100
AcDbLine
 10
574.663195614816
 20
181.9297543903677
 30
0.0
 11
574.1379650613635
 21
181.8429952833071
 31
0.0
  0
LINE
  5
648
330
1F
100
AcDbEntity
  8
0
  6
Continuous
370
    15
100
AcDbLine
 10
574.1379650613635
 20
181.8429952833071
 30
0.0
 11
573.653738652571
 21
181.6969765881956
 31
0.0
  0
LINE
  5
649
330
1F
100
AcDbEntity
  8
0
  6
Continuous
370
    15
100
AcDbLine
 10
573.653738652571
 20
181.6969765881956
 30
0.0
 11
573.2303406745082
 21
181.4976763275678
 31
0.0
  0
LINE
  5
64A
330
1F
100
AcDbEntity
  8
0
  6
Continuous
370
    15
100
AcDbLine
 10
546.5017043456569
 20
191.6211369141694
 30
0.0
 11
546.5017043456569
 21
193.6624889438838
 31
0.0
  0
LINE
  5
64B
330
1F
100
AcDbEntity
  8
0
  6
Continuous
370
    15
100
AcDbLine
 10
546.5017043456569
 20
191.6211369141694
 30
0.0
 11
563.472267094134
 21
181.8242395722968
 31
0.0
  0
LINE
  5
64C
330
1F
100
AcDbEntity
  8
0
  6
Continuous
370
    15
100
AcDbLine
 10
544.0268306115039
 20
197.9490959811737
 30
0.0
 11
544.0268306115038
 21
196.7239530131874
 31
0.0
  0
LINE
  5
64D
330
1F
100
AcDbEntity
  8
0
  6
Continuous
370
    15
100
AcDbLine
 10
545.4410441738772
 20
194.2744632775931
 30
0.0
 11
546.5017043456569
 21
193.6621571937262
 31
0.0
  0
LINE
  5
64E
330
1F
100
AcDbEntity
  8
0
  6
Continuous
 62
     8
370
     0
100
AcDbLine
 10
552.1585585951494
 20
198.9691416707314
 30
0.0
 11
546.5017043456569
 21
195.7035092234406
 31
0.0
  0
LINE
  5
64F
330
1F
100
AcDbEntity
  8
0
  6
Continuous
 62
     8
370
     0
100
AcDbLine
 10
545.7945975644702
 20
196.9282540912377
 30
0.0
 11
551.4514518139629
 21
200.1938865385285
 31
0.0
  0
ARC
  5
650
330
1F
100
AcDbEntity
  8
0
  6
Continuous
370
    15
100
AcDbCircle
 10
594.8414433672992
 20
168.1640241153875
 30
0.0
 40
1.158035613910179
100
AcDbArc
 50
110.0962642068496
 51
211.5590000059177
  0
ARC
  5
651
330
1F
100
AcDbEntity
  8
0
  6
Continuous
370
    15
100
AcDbCircle
 10
573.6282399317028
 20
180.4101457927289
 30
0.0
 40
1.158035613909604
100
AcDbArc
 50
110.0962642068655
 51
211.5590000066246
  0
ARC
  5
652
330
1F
100
AcDbEntity
  8
0
  6
Continuous
370
    15
100
AcDbCircle
 10
547.0972628142393
 20
196.8636747177088
 30
0.0
 40
3.073609615144694
100
AcDbArc
 50
182.6054784856588
 51
237.3945216599762
  0
ARC
  5
653
330
1F
100
AcDbEntity
  8
0
  6
Continuous
370
    15
100
AcDbCircle
 10
547.3298136658384
 20
196.9981149434986
 30
0.0
 40
1.536804807572754
100
AcDbArc
 50
182.6054784856666
 51
237.3945216599656
  0
ARC
  5
654
330
1F
100
AcDbEntity
  8
0
  6
Continuous
370
    15
100
AcDbCircle
 10
552.9866679153298
 20
200.2637473907888
 30
0.0
 40
1.536804807571501
100
AcDbArc
 50
182.6054784856454
 51
237.3945216599865
  0
LINE
  5
655
330
1F
100
AcDbEntity
  8
0
  6
Continuous
370
    15
100
AcDbLine
 10
439.2287825620273
 20
242.3362593700445
 30
0.0
 11
438.7287825620273
 21
241.8362593700445
 31
0.0
  0
LINE
  5
656
330
1F
100
AcDbEntity
  8
0
  6
Continuous
370
    15
100
AcDbLine
 10
438.7287825620273
 20
237.8362593700446
 30
0.0
 11
439.2287825620273
 21
237.3362593700446
 31
0.0
  0
LINE
  5
657
330
1F
100
AcDbEntity
  8
0
  6
Continuous
370
    15
100
AcDbLine
 10
443.4287825620273
 20
237.3362593700446
 30
0.0
 11
443.7287825620273
 21
238.0862593700291
 31
0.0
  0
LINE
  5
658
330
1F
100
AcDbEntity
  8
0
  6
Continuous
370
    15
100
AcDbLine
 10
443.7287825620273
 20
241.58625937006
 30
0.0
 11
443.4287825620273
 21
242.3362593700445
 31
0.0
  0
LINE
  5
659
330
1F
100
AcDbEntity
  8
0
  6
Continuous
370
    15
100
AcDbLine
 10
443.4287825620273
 20
242.3362593700445
 30
0.0
 11
442.2287825620272
 21
242.3362593700445
 31
0.0
  0
LINE
  5
65A
330
1F
100
AcDbEntity
  8
0
  6
Continuous
370
    15
100
AcDbLine
 10
439.7287825620273
 20
242.3362593700445
 30
0.0
 11
439.2287825620273
 21
242.3362593700445
 31
0.0
  0
LINE
  5
65B
330
1F
100
AcDbEntity
  8
0
  6
Continuous
370
    15
100
AcDbLine
 10
439.2287825620273
 20
237.3362593700446
 30
0.0
 11
439.7287825620273
 21
237.3362593700446
 31
0.0
  0
LINE
  5
65C
330
1F
100
AcDbEntity
  8
0
  6
Continuous
370
    15
100
AcDbLine
 10
442.2287825620272
 20
237.3362593700446
 30
0.0
 11
443.4287825620273
 21
237.3362593700446
 31
0.0
  0
LINE
  5
65D
330
1F
100
AcDbEntity
  8
0
  6
Continuous
370
    15
100
AcDbLine
 10
439.2287825620273
 20
239.8433241893281
 30
0.0
 11
439.2287825620273
 21
237.3362593700446
 31
0.0
  0
LINE
  5
65E
330
1F
100
AcDbEntity
  8
0
  6
Continuous
370
    15
100
AcDbLine
 10
439.2287825620273
 20
242.3362593700445
 30
0.0
 11
439.2287825620273
 21
239.8433241893281
 31
0.0
  0
LINE
  5
65F
330
1F
100
AcDbEntity
  8
0
  6
Continuous
370
    15
100
AcDbLine
 10
438.7287825620273
 20
239.8419112254714
 30
0.0
 11
438.7287825620273
 21
241.8362593700445
 31
0.0
  0
LINE
  5
660
330
1F
100
AcDbEntity
  8
0
  6
Continuous
370
    15
100
AcDbLine
 10
438.7287825620273
 20
237.8362593700446
 30
0.0
 11
438.7287825620273
 21
239.8419112254714
 31
0.0
  0
LINE
  5
661
330
1F
100
AcDbEntity
  8
0
  6
Continuous
370
    15
100
AcDbLine
 10
443.7287825620273
 20
241.58625937006
 30
0.0
 11
443.7287825620273
 21
238.0862593700291
 31
0.0
  0
LINE
  5
662
330
1F
100
AcDbEntity
  8
0
  6
Continuous
370
    15
100
AcDbLine
 10
443.4287825620273
 20
242.3362593700445
 30
0.0
 11
443.4287825620273
 21
237.3362593700446
 31
0.0
  0
LINE
  5
663
330
1F
100
AcDbEntity
  8
0
  6
Continuous
370
    15
100
AcDbLine
 10
439.7287825620273
 20
235.8362593700446
 30
0.0
 11
442.2287825620272
 21
235.8362593700446
 31
0.0
  0
LINE
  5
664
330
1F
100
AcDbEntity
  8
0
  6
Continuous
370
    15
100
AcDbLine
 10
439.7287825620273
 20
235.8362593700446
 30
0.0
 11
439.7287825620273
 21
243.8362593700445
 31
0.0
  0
LINE
  5
665
330
1F
100
AcDbEntity
  8
0
  6
Continuous
370
    15
100
AcDbLine
 10
442.2287825620272
 20
243.8362593700445
 30
0.0
 11
439.7287825620273
 21
243.8362593700445
 31
0.0
  0
LINE
  5
666
330
1F
100
AcDbEntity
  8
0
  6
Continuous
370
    15
100
AcDbLine
 10
442.2287825620272
 20
235.8362593700446
 30
0.0
 11
442.2287825620272
 21
243.8362593700445
 31
0.0
  0
LINE
  5
667
330
1F
100
AcDbEntity
  8
0
  6
Continuous
370
    15
100
AcDbLine
 10
439.7287825620273
 20
246.3362593700445
 30
0.0
 11
442.2287825620272
 21
246.3362593700445
 31
0.0
  0
LINE
  5
668
330
1F
100
AcDbEntity
  8
0
  6
Continuous
370
    15
100
AcDbLine
 10
442.2287825620272
 20
246.3362593700445
 30
0.0
 11
442.2287825620272
 21
243.8362593700445
 31
0.0
  0
LINE
  5
669
330
1F
100
AcDbEntity
  8
0
  6
Continuous
370
    15
100
AcDbLine
 10
439.7287825620273
 20
243.8362593700445
 30
0.0
 11
439.7287825620273
 21
246.3362593700445
 31
0.0
  0
LINE
  5
66A
330
1F
100
AcDbEntity
  8
0
  6
Continuous
370
    15
100
AcDbLine
 10
442.2287825620272
 20
233.3362593700445
 30
0.0
 11
439.7287825620273
 21
233.3362593700445
 31
0.0
  0
LINE
  5
66B
330
1F
100
AcDbEntity
  8
0
  6
Continuous
370
    15
100
AcDbLine
 10
442.2287825620272
 20
235.8362593700446
 30
0.0
 11
442.2287825620272
 21
233.3362593700445
 31
0.0
  0
LINE
  5
66C
330
1F
100
AcDbEntity
  8
0
  6
Continuous
370
    15
100
AcDbLine
 10
439.7287825620273
 20
233.3362593700445
 30
0.0
 11
439.7287825620273
 21
235.8362593700446
 31
0.0
  0
LINE
  5
66D
330
1F
100
AcDbEntity
  8
0
  6
Continuous
370
    15
100
AcDbLine
 10
443.2287825620273
 20
235.8362593700446
 30
0.0
 11
442.2287825620272
 21
235.8362593700446
 31
0.0
  0
LINE
  5
66E
330
1F
100
AcDbEntity
  8
0
  6
Continuous
370
    15
100
AcDbLine
 10
442.2287825620272
 20
243.8362593700445
 30
0.0
 11
443.2287825620273
 21
243.8362593700445
 31
0.0
  0
LINE
  5
66F
330
1F
100
AcDbEntity
  8
0
  6
Continuous
370
    15
100
AcDbLine
 10
445.7287825620273
 20
233.3362593700445
 30
0.0
 11
445.7287825620273
 21
235.8362593700446
 31
0.0
  0
LINE
  5
670
330
1F
100
AcDbEntity
  8
0
  6
Continuous
370
    15
100
AcDbLine
 10
445.7287825620273
 20
246.3362593700445
 30
0.0
 11
445.7287825620273
 21
243.8362593700445
 31
0.0
  0
LINE
  5
671
330
1F
100
AcDbEntity
  8
0
  6
Continuous
370
    15
100
AcDbLine
 10
469.7287825620273
 20
246.3362593700445
 30
0.0
 11
445.7287825620273
 21
246.3362593700445
 31
0.0
  0
LINE
  5
672
330
1F
100
AcDbEntity
  8
0
  6
Continuous
370
    15
100
AcDbLine
 10
471.2287825620273
 20
247.8362593700445
 30
0.0
 11
469.7287825620273
 21
246.3362593700445
 31
0.0
  0
LINE
  5
673
330
1F
100
AcDbEntity
  8
0
  6
Continuous
370
    15
100
AcDbLine
 10
517.2287825620272
 20
247.8362593700445
 30
0.0
 11
471.2287825620273
 21
247.8362593700445
 31
0.0
  0
LINE
  5
674
330
1F
100
AcDbEntity
  8
0
  6
Continuous
370
    15
100
AcDbLine
 10
519.7287825620273
 20
245.3362593700445
 30
0.0
 11
517.2287825620272
 21
247.8362593700445
 31
0.0
  0
LINE
  5
675
330
1F
100
AcDbEntity
  8
0
  6
Continuous
370
    15
100
AcDbLine
 10
519.7287825620273
 20
234.3362593700446
 30
0.0
 11
519.7287825620273
 21
245.3362593700445
 31
0.0
  0
LINE
  5
676
330
1F
100
AcDbEntity
  8
0
  6
Continuous
370
    15
100
AcDbLine
 10
517.2287825620272
 20
231.8362593700445
 30
0.0
 11
519.7287825620273
 21
234.3362593700446
 31
0.0
  0
LINE
  5
677
330
1F
100
AcDbEntity
  8
0
  6
Continuous
370
    15
100
AcDbLine
 10
471.2287825620273
 20
231.8362593700445
 30
0.0
 11
517.2287825620272
 21
231.8362593700445
 31
0.0
  0
LINE
  5
678
330
1F
100
AcDbEntity
  8
0
  6
Continuous
370
    15
100
AcDbLine
 10
469.7287825620273
 20
233.3362593700445
 30
0.0
 11
471.2287825620273
 21
231.8362593700445
 31
0.0
  0
LINE
  5
679
330
1F
100
AcDbEntity
  8
0
  6
Continuous
370
    15
100
AcDbLine
 10
469.7287825620273
 20
233.3362593700445
 30
0.0
 11
445.7287825620273
 21
233.3362593700445
 31
0.0
  0
LINE
  5
67A
330
1F
100
AcDbEntity
  8
0
  6
Continuous
370
    15
100
AcDbLine
 10
445.7287825620273
 20
235.8362593700446
 30
0.0
 11
443.2287825620273
 21
235.8362593700446
 31
0.0
  0
LINE
  5
67B
330
1F
100
AcDbEntity
  8
0
  6
Continuous
370
    15
100
AcDbLine
 10
443.2287825620273
 20
243.8362593700445
 30
0.0
 11
445.7287825620273
 21
243.8362593700445
 31
0.0
  0
LINE
  5
67C
330
1F
100
AcDbEntity
  8
0
  6
Continuous
 62
     8
370
     0
100
AcDbLine
 10
443.2287825620273
 20
243.8362593700445
 30
0.0
 11
443.2287825620273
 21
242.3362593700443
 31
0.0
  0
LINE
  5
67D
330
1F
100
AcDbEntity
  8
0
  6
Continuous
 62
     8
370
     0
100
AcDbLine
 10
443.2287825620273
 20
237.3362593700443
 30
0.0
 11
443.2287825620273
 21
235.8362593700446
 31
0.0
  0
CIRCLE
  5
67E
330
1F
100
AcDbEntity
  8
0
  6
Continuous
370
    15
100
AcDbCircle
 10
479.7287825620273
 20
239.8362593700446
 30
0.0
 40
5.199999999999932
  0
CIRCLE
  5
67F
330
1F
100
AcDbEntity
  8
0
  6
Continuous
370
    15
100
AcDbCircle
 10
509.7287825620273
 20
239.8362593700446
 30
0.0
 40
5.199999999999932
  0
CIRCLE
  5
680
330
1F
100
AcDbEntity
  8
0
  6
Continuous
370
    15
100
AcDbCircle
 10
479.7287825620273
 20
239.8362593700446
 30
0.0
 40
2.699999999999932
  0
CIRCLE
  5
681
330
1F
100
AcDbEntity
  8
0
  6
Continuous
370
    15
100
AcDbCircle
 10
509.7287825620273
 20
239.8362593700446
 30
0.0
 40
2.700000000000045
  0
LINE
  5
682
330
1F
100
AcDbEntity
  8
0
  6
Continuous
370
    15
100
AcDbLine
 10
583.8379049353275
 20
357.3171592292891
 30
0.0
 11
581.3379049353276
 21
359.8171592292891
 31
0.0
  0
LINE
  5
683
330
1F
100
AcDbEntity
  8
0
  6
Continuous
370
    15
100
AcDbLine
 10
583.8379049353275
 20
357.3171592292891
 30
0.0
 11
583.8379049353275
 21
285.817159229289
 31
0.0
  0
LINE
  5
684
330
1F
100
AcDbEntity
  8
0
  6
Continuous
370
    15
100
AcDbLine
 10
583.8379049353275
 20
285.817159229289
 30
0.0
 11
581.3379049353276
 21
285.817159229289
 31
0.0
  0
LINE
  5
685
330
1F
100
AcDbEntity
  8
0
  6
Continuous
370
    15
100
AcDbLine
 10
581.3379049353276
 20
285.817159229289
 30
0.0
 11
581.3379049353276
 21
281.8171592292891
 31
0.0
  0
LINE
  5
686
330
1F
100
AcDbEntity
  8
0
  6
Continuous
370
    15
100
AcDbLine
 10
573.3379049353276
 20
285.817159229289
 30
0.0
 11
573.3379049353276
 21
281.8171592292891
 31
0.0
  0
LINE
  5
687
330
1F
100
AcDbEntity
  8
0
  6
Continuous
370
    15
100
AcDbLine
 10
570.8379049353277
 20
285.817159229289
 30
0.0
 11
573.3379049353276
 21
285.817159229289
 31
0.0
  0
LINE
  5
688
330
1F
100
AcDbEntity
  8
0
  6
Continuous
370
    15
100
AcDbLine
 10
570.8379049353277
 20
357.3171592292891
 30
0.0
 11
570.8379049353277
 21
285.817159229289
 31
0.0
  0
LINE
  5
689
330
1F
100
AcDbEntity
  8
0
  6
Continuous
370
    15
100
AcDbLine
 10
573.3379049353276
 20
359.8171592292891
 30
0.0
 11
570.8379049353277
 21
357.3171592292891
 31
0.0
  0
LINE
  5
68A
330
1F
100
AcDbEntity
  8
0
  6
Continuous
370
    15
100
AcDbLine
 10
581.3379049353276
 20
359.8171592292891
 30
0.0
 11
573.3379049353276
 21
359.8171592292891
 31
0.0
  0
LINE
  5
68B
330
1F
100
AcDbEntity
  8
0
  6
Continuous
370
    15
100
AcDbLine
 10
581.3379049353276
 20
279.8171592292891
 30
0.0
 11
573.3379049353276
 21
279.8171592292891
 31
0.0
  0
LINE
  5
68C
330
1F
100
AcDbEntity
  8
0
  6
Continuous
370
    15
100
AcDbLine
 10
581.3379049353276
 20
279.8171592292891
 30
0.0
 11
581.3379049353276
 21
281.8171592292891
 31
0.0
  0
LINE
  5
68D
330
1F
100
AcDbEntity
  8
0
  6
Continuous
370
    15
100
AcDbLine
 10
573.3379049353276
 20
281.8171592292891
 30
0.0
 11
573.3379049353276
 21
279.8171592292891
 31
0.0
  0
LINE
  5
68E
330
1F
100
AcDbEntity
  8
0
  6
Continuous
370
    15
100
AcDbLine
 10
583.8379049353275
 20
279.8171592292891
 30
0.0
 11
583.8379049353275
 21
282.3171592292891
 31
0.0
  0
LINE
  5
68F
330
1F
100
AcDbEntity
  8
0
  6
Continuous
370
    15
100
AcDbLine
 10
583.8379049353275
 20
282.3171592292891
 30
0.0
 11
581.3379049353276
 21
282.3171592292891
 31
0.0
  0
LINE
  5
690
330
1F
100
AcDbEntity
  8
0
  6
Continuous
370
    15
100
AcDbLine
 10
583.8379049353275
 20
279.8171592292891
 30
0.0
 11
581.3379049353276
 21
279.8171592292891
 31
0.0
  0
LINE
  5
691
330
1F
100
AcDbEntity
  8
0
  6
Continuous
370
    15
100
AcDbLine
 10
570.8379049353277
 20
279.8171592292891
 30
0.0
 11
570.8379049353277
 21
282.3171592292891
 31
0.0
  0
LINE
  5
692
330
1F
100
AcDbEntity
  8
0
  6
Continuous
370
    15
100
AcDbLine
 10
570.8379049353277
 20
282.3171592292891
 30
0.0
 11
573.3379049353276
 21
282.3171592292891
 31
0.0
  0
LINE
  5
693
330
1F
100
AcDbEntity
  8
0
  6
Continuous
370
    15
100
AcDbLine
 10
570.8379049353277
 20
279.8171592292891
 30
0.0
 11
573.3379049353276
 21
279.8171592292891
 31
0.0
  0
LINE
  5
694
330
1F
100
AcDbEntity
  8
0
  6
Continuous
370
    15
100
AcDbLine
 10
585.3379049353277
 20
282.3171592292891
 30
0.0
 11
585.3379049353277
 21
279.8171592292891
 31
0.0
  0
LINE
  5
695
330
1F
100
AcDbEntity
  8
0
  6
Continuous
370
    15
100
AcDbLine
 10
583.8379049353275
 20
282.3171592292891
 30
0.0
 11
585.3379049353277
 21
282.3171592292891
 31
0.0
  0
LINE
  5
696
330
1F
100
AcDbEntity
  8
0
  6
Continuous
370
    15
100
AcDbLine
 10
585.3379049353277
 20
279.8171592292891
 30
0.0
 11
583.8379049353275
 21
279.8171592292891
 31
0.0
  0
LINE
  5
697
330
1F
100
AcDbEntity
  8
0
  6
Continuous
370
    15
100
AcDbLine
 10
569.3379049353276
 20
279.8171592292891
 30
0.0
 11
569.3379049353276
 21
282.3171592292891
 31
0.0
  0
LINE
  5
698
330
1F
100
AcDbEntity
  8
0
  6
Continuous
370
    15
100
AcDbLine
 10
569.3379049353276
 20
282.3171592292891
 30
0.0
 11
570.8379049353277
 21
282.3171592292891
 31
0.0
  0
LINE
  5
699
330
1F
100
AcDbEntity
  8
0
  6
Continuous
370
    15
100
AcDbLine
 10
570.8379049353277
 20
279.8171592292891
 30
0.0
 11
569.3379049353276
 21
279.8171592292891
 31
0.0
  0
LINE
  5
69A
330
1F
100
AcDbEntity
  8
0
  6
Continuous
 62
     8
370
     0
100
AcDbLine
 10
573.3379049353276
 20
281.8171592292891
 30
0.0
 11
581.3379049353276
 21
281.8171592292891
 31
0.0
  0
CIRCLE
  5
69B
330
1F
100
AcDbEntity
  8
0
  6
Continuous
370
    15
100
AcDbCircle
 10
577.3379049353276
 20
309.8171592292891
 30
0.0
 40
2.0
  0
CIRCLE
  5
69C
330
1F
100
AcDbEntity
  8
0
  6
Continuous
370
    15
100
AcDbCircle
 10
577.3379049353276
 20
309.8171592292891
 30
0.0
 40
2.500000000000114
  0
CIRCLE
  5
69D
330
1F
100
AcDbEntity
  8
0
  6
Continuous
370
    15
100
AcDbCircle
 10
577.3379049353276
 20
349.8171592292891
 30
0.0
 40
2.0
  0
CIRCLE
  5
69E
330
1F
100
AcDbEntity
  8
0
  6
Continuous
370
    15
100
AcDbCircle
 10
577.3379049353276
 20
349.8171592292891
 30
0.0
 40
2.500000000000114
  0
LINE
  5
69F
330
1F
100
AcDbEntity
  8
0
  6
Continuous
370
    15
100
AcDbLine
 10
443.4287825620273
 20
307.3171592292891
 30
0.0
 11
443.7287825620273
 21
308.0671592292736
 31
0.0
  0
LINE
  5
6A0
330
1F
100
AcDbEntity
  8
0
  6
Continuous
370
    15
100
AcDbLine
 10
443.7287825620273
 20
311.5671592293045
 30
0.0
 11
443.4287825620273
 21
312.3171592292891
 31
0.0
  0
LINE
  5
6A1
330
1F
100
AcDbEntity
  8
0
  6
Continuous
370
    15
100
AcDbLine
 10
443.4287825620273
 20
312.3171592292891
 30
0.0
 11
442.2287825620272
 21
312.3171592292891
 31
0.0
  0
LINE
  5
6A2
330
1F
100
AcDbEntity
  8
0
  6
Continuous
370
    15
100
AcDbLine
 10
439.7287825620273
 20
312.3171592292891
 30
0.0
 11
439.2287825620273
 21
312.3171592292891
 31
0.0
  0
LINE
  5
6A3
330
1F
100
AcDbEntity
  8
0
  6
Continuous
370
    15
100
AcDbLine
 10
439.2287825620273
 20
307.3171592292891
 30
0.0
 11
439.7287825620272
 21
307.3171592292891
 31
0.0
  0
LINE
  5
6A4
330
1F
100
AcDbEntity
  8
0
  6
Continuous
370
    15
100
AcDbLine
 10
442.2287825620272
 20
307.3171592292891
 30
0.0
 11
443.4287825620273
 21
307.3171592292891
 31
0.0
  0
LINE
  5
6A5
330
1F
100
AcDbEntity
  8
0
  6
Continuous
370
    15
100
AcDbLine
 10
439.2287825620273
 20
312.3171592292891
 30
0.0
 11
438.7287825620273
 21
311.8171592292891
 31
0.0
  0
LINE
  5
6A6
330
1F
100
AcDbEntity
  8
0
  6
Continuous
370
    15
100
AcDbLine
 10
438.7287825620273
 20
307.8171592292891
 30
0.0
 11
439.2287825620273
 21
307.3171592292891
 31
0.0
  0
LINE
  5
6A7
330
1F
100
AcDbEntity
  8
0
  6
Continuous
370
    15
100
AcDbLine
 10
443.4287825620273
 20
347.3171592292891
 30
0.0
 11
443.7287825620273
 21
348.0671592292736
 31
0.0
  0
LINE
  5
6A8
330
1F
100
AcDbEntity
  8
0
  6
Continuous
370
    15
100
AcDbLine
 10
443.7287825620273
 20
351.5671592293045
 30
0.0
 11
443.4287825620273
 21
352.3171592292891
 31
0.0
  0
LINE
  5
6A9
330
1F
100
AcDbEntity
  8
0
  6
Continuous
370
    15
100
AcDbLine
 10
443.4287825620273
 20
352.3171592292891
 30
0.0
 11
442.2287825620272
 21
352.3171592292891
 31
0.0
  0
LINE
  5
6AA
330
1F
100
AcDbEntity
  8
0
  6
Continuous
370
    15
100
AcDbLine
 10
439.7287825620272
 20
352.3171592292891
 30
0.0
 11
439.2287825620273
 21
352.3171592292891
 31
0.0
  0
LINE
  5
6AB
330
1F
100
AcDbEntity
  8
0
  6
Continuous
370
    15
100
AcDbLine
 10
439.2287825620273
 20
347.3171592292891
 30
0.0
 11
439.7287825620272
 21
347.3171592292891
 31
0.0
  0
LINE
  5
6AC
330
1F
100
AcDbEntity
  8
0
  6
Continuous
370
    15
100
AcDbLine
 10
442.2287825620272
 20
347.3171592292891
 30
0.0
 11
443.4287825620273
 21
347.3171592292891
 31
0.0
  0
LINE
  5
6AD
330
1F
100
AcDbEntity
  8
0
  6
Continuous
370
    15
100
AcDbLine
 10
439.2287825620273
 20
352.3171592292891
 30
0.0
 11
438.7287825620273
 21
351.8171592292891
 31
0.0
  0
LINE
  5
6AE
330
1F
100
AcDbEntity
  8
0
  6
Continuous
370
    15
100
AcDbLine
 10
438.7287825620273
 20
347.8171592292891
 30
0.0
 11
439.2287825620273
 21
347.3171592292891
 31
0.0
  0
LINE
  5
6AF
330
1F
100
AcDbEntity
  8
0
  6
Continuous
370
    15
100
AcDbLine
 10
443.7287825620273
 20
311.5671592293045
 30
0.0
 11
443.7287825620273
 21
308.0671592292736
 31
0.0
  0
LINE
  5
6B0
330
1F
100
AcDbEntity
  8
0
  6
Continuous
370
    15
100
AcDbLine
 10
443.4287825620273
 20
312.3171592292891
 30
0.0
 11
443.4287825620273
 21
307.3171592292891
 31
0.0
  0
LINE
  5
6B1
330
1F
100
AcDbEntity
  8
0
  6
Continuous
370
    15
100
AcDbLine
 10
439.2287825620273
 20
312.3171592292891
 30
0.0
 11
439.2287825620273
 21
307.3171592292891
 31
0.0
  0
LINE
  5
6B2
330
1F
100
AcDbEntity
  8
0
  6
Continuous
370
    15
100
AcDbLine
 10
438.7287825620273
 20
307.8171592292891
 30
0.0
 11
438.7287825620273
 21
311.8171592292891
 31
0.0
  0
LINE
  5
6B3
330
1F
100
AcDbEntity
  8
0
  6
Continuous
370
    15
100
AcDbLine
 10
443.7287825620273
 20
351.5671592293045
 30
0.0
 11
443.7287825620273
 21
348.0671592292736
 31
0.0
  0
LINE
  5
6B4
330
1F
100
AcDbEntity
  8
0
  6
Continuous
370
    15
100
AcDbLine
 10
443.4287825620273
 20
352.3171592292891
 30
0.0
 11
443.4287825620273
 21
347.3171592292891
 31
0.0
  0
LINE
  5
6B5
330
1F
100
AcDbEntity
  8
0
  6
Continuous
370
    15
100
AcDbLine
 10
439.2287825620273
 20
352.3171592292891
 30
0.0
 11
439.2287825620273
 21
347.3171592292891
 31
0.0
  0
LINE
  5
6B6
330
1F
100
AcDbEntity
  8
0
  6
Continuous
370
    15
100
AcDbLine
 10
438.7287825620273
 20
347.8171592292891
 30
0.0
 11
438.7287825620273
 21
351.8171592292891
 31
0.0
  0
LINE
  5
6B7
330
1F
100
AcDbEntity
  8
0
  6
Continuous
370
    15
100
AcDbLine
 10
469.7287825620273
 20
279.8171592292891
 30
0.0
 11
469.7287825620273
 21
282.3171592292891
 31
0.0
  0
LINE
  5
6B8
330
1F
100
AcDbEntity
  8
0
  6
Continuous
370
    15
100
AcDbLine
 10
471.2287825620273
 20
282.3171592292891
 30
0.0
 11
471.2287825620273
 21
279.8171592292891
 31
0.0
  0
LINE
  5
6B9
330
1F
100
AcDbEntity
  8
0
  6
Continuous
370
    15
100
AcDbLine
 10
471.2287825620273
 20
279.8171592292891
 30
0.0
 11
469.7287825620273
 21
279.8171592292891
 31
0.0
  0
LINE
  5
6BA
330
1F
100
AcDbEntity
  8
0
  6
Continuous
370
    15
100
AcDbLine
 10
469.7287825620273
 20
282.3171592292891
 30
0.0
 11
471.2287825620273
 21
282.3171592292891
 31
0.0
  0
LINE
  5
6BB
330
1F
100
AcDbEntity
  8
0
  6
Continuous
370
    15
100
AcDbLine
 10
517.2287825620272
 20
279.8171592292891
 30
0.0
 11
517.2287825620272
 21
282.3171592292891
 31
0.0
  0
LINE
  5
6BC
330
1F
100
AcDbEntity
  8
0
  6
Continuous
370
    15
100
AcDbLine
 10
519.7287825620273
 20
282.3171592292891
 30
0.0
 11
519.7287825620273
 21
279.8171592292891
 31
0.0
  0
LINE
  5
6BD
330
1F
100
AcDbEntity
  8
0
  6
Continuous
370
    15
100
AcDbLine
 10
519.7287825620273
 20
279.8171592292891
 30
0.0
 11
517.2287825620272
 21
279.8171592292891
 31
0.0
  0
LINE
  5
6BE
330
1F
100
AcDbEntity
  8
0
  6
Continuous
370
    15
100
AcDbLine
 10
517.2287825620272
 20
282.3171592292891
 30
0.0
 11
519.7287825620273
 21
282.3171592292891
 31
0.0
  0
LINE
  5
6BF
330
1F
100
AcDbEntity
  8
0
  6
Continuous
370
    15
100
AcDbLine
 10
517.2287825620272
 20
279.8171592292891
 30
0.0
 11
471.2287825620273
 21
279.8171592292891
 31
0.0
  0
LINE
  5
6C0
330
1F
100
AcDbEntity
  8
0
  6
Continuous
370
    15
100
AcDbLine
 10
471.2287825620273
 20
282.3171592292891
 30
0.0
 11
517.2287825620272
 21
282.3171592292891
 31
0.0
  0
LINE
  5
6C1
330
1F
100
AcDbEntity
  8
0
  6
Continuous
370
    15
100
AcDbLine
 10
445.7287825620273
 20
279.8171592292891
 30
0.0
 11
445.7287825620273
 21
282.3171592292891
 31
0.0
  0
LINE
  5
6C2
330
1F
100
AcDbEntity
  8
0
  6
Continuous
370
    15
100
AcDbLine
 10
445.7287825620273
 20
279.8171592292891
 30
0.0
 11
469.7287825620273
 21
279.8171592292891
 31
0.0
  0
LINE
  5
6C3
330
1F
100
AcDbEntity
  8
0
  6
Continuous
370
    15
100
AcDbLine
 10
469.7287825620273
 20
282.3171592292891
 30
0.0
 11
445.7287825620273
 21
282.3171592292891
 31
0.0
  0
LINE
  5
6C4
330
1F
100
AcDbEntity
  8
0
  6
Continuous
370
    15
100
AcDbLine
 10
442.2287825620272
 20
285.817159229289
 30
0.0
 11
439.7287825620273
 21
285.817159229289
 31
0.0
  0
LINE
  5
6C5
330
1F
100
AcDbEntity
  8
0
  6
Continuous
370
    15
100
AcDbLine
 10
439.7287825620273
 20
357.3171592292891
 30
0.0
 11
439.7287825620273
 21
285.817159229289
 31
0.0
  0
LINE
  5
6C6
330
1F
100
AcDbEntity
  8
0
  6
Continuous
370
    15
100
AcDbLine
 10
442.2287825620272
 20
357.3171592292891
 30
0.0
 11
439.7287825620273
 21
357.3171592292891
 31
0.0
  0
LINE
  5
6C7
330
1F
100
AcDbEntity
  8
0
  6
Continuous
370
    15
100
AcDbLine
 10
442.2287825620272
 20
285.817159229289
 30
0.0
 11
442.2287825620272
 21
357.3171592292891
 31
0.0
  0
LINE
  5
6C8
330
1F
100
AcDbEntity
  8
0
  6
Continuous
370
    15
100
AcDbLine
 10
439.7287825620273
 20
357.3171592292891
 30
0.0
 11
439.7287825620273
 21
359.8171592292891
 31
0.0
  0
LINE
  5
6C9
330
1F
100
AcDbEntity
  8
0
  6
Continuous
370
    15
100
AcDbLine
 10
439.7287825620273
 20
359.8171592292891
 30
0.0
 11
442.2287825620272
 21
359.8171592292891
 31
0.0
  0
LINE
  5
6CA
330
1F
100
AcDbEntity
  8
0
  6
Continuous
370
    15
100
AcDbLine
 10
442.2287825620272
 20
359.8171592292891
 30
0.0
 11
442.2287825620272
 21
357.3171592292891
 31
0.0
  0
LINE
  5
6CB
330
1F
100
AcDbEntity
  8
0
  6
Continuous
370
    15
100
AcDbLine
 10
439.7287825620273
 20
285.817159229289
 30
0.0
 11
439.7287825620273
 21
281.8171592292891
 31
0.0
  0
LINE
  5
6CC
330
1F
100
AcDbEntity
  8
0
  6
Continuous
370
    15
100
AcDbLine
 10
442.2287825620272
 20
283.3171592292891
 30
0.0
 11
442.2287825620272
 21
285.817159229289
 31
0.0
  0
LINE
  5
6CD
330
1F
100
AcDbEntity
  8
0
  6
Continuous
370
    15
100
AcDbLine
 10
441.7287825620273
 20
279.8171592292891
 30
0.0
 11
445.7287825620273
 21
279.8171592292891
 31
0.0
  0
LINE
  5
6CE
330
1F
100
AcDbEntity
  8
0
  6
Continuous
370
    15
100
AcDbLine
 10
445.7287825620273
 20
282.3171592292891
 30
0.0
 11
443.2287825620273
 21
282.3171592292891
 31
0.0
  0
ARC
  5
6CF
330
1F
100
AcDbEntity
  8
0
  6
Continuous
370
    15
100
AcDbCircle
 10
441.7287825620273
 20
281.8171592292891
 30
0.0
 40
2.0
100
AcDbArc
 50
180.0
 51
270.0
  0
ARC
  5
6D0
330
1F
100
AcDbEntity
  8
0
  6
Continuous
370
    15
100
AcDbCircle
 10
443.2287825620273
 20
283.3171592292891
 30
0.0
 40
1.000000000000114
100
AcDbArc
 50
180.0
 51
270.0
  0
ENDSEC
  0
SECTION
  2
OBJECTS
  0
DICTIONARY
  5
C
330
0
100
AcDbDictionary
281
     1
  3
ACAD_DETAILVIEWSTYLE
350
830
  3
ACAD_GROUP
350
D
  3
ACAD_IMAGE_VARS
350
82A
  3
ACAD_LAYOUT
350
1A
  3
ACAD_MLINESTYLE
350
17
  3
ACAD_PLOTSETTINGS
350
19
  3
ACAD_PLOTSTYLENAME
350
E
  3
ACAD_SCALELIST
350
47
  3
ACAD_SECTIONVIEWSTYLE
350
831
  3
AcDbVariableDictionary
350
82B
  3
APPDATA
350
828
  3
DWGPROPS
350
83D
  0
DICTIONARY
  5
830
102
{ACAD_REACTORS
330
C
102
}
330
C
100
AcDbDictionary
281
     1
  0
DICTIONARY
  5
D
102
{ACAD_REACTORS
330
C
102
}
330
C
100
AcDbDictionary
281
     1
  0
RASTERVARIABLES
  5
82A
102
{ACAD_REACTORS
330
C
102
}
330
C
100
AcDbRasterVariables
 90
        0
 70
     1
 71
     1
 72
     1
  0
DICTIONARY
  5
1A
102
{ACAD_REACTORS
330
C
102
}
330
C
100
AcDbDictionary
281
     1
  3
Layout1
350
1E
  3
Layout2
350
26
  3
Model
350
22
  0
DICTIONARY
  5
17
102
{ACAD_REACTORS
330
C
102
}
330
C
100
AcDbDictionary
281
     1
  3
Standard
350
18
  0
DICTIONARY
  5
19
102
{ACAD_REACTORS
330
C
102
}
330
C
100
AcDbDictionary
281
     1
  0
ACDBDICTIONARYWDFLT
  5
E
102
{ACAD_REACTORS
330
C
102
}
330
C
100
AcDbDictionary
281
     1
  3
Normal
350
F
100
AcDbDictionaryWithDefault
340
F
  0
DICTIONARY
  5
47
102
{ACAD_REACTORS
330
C
102
}
330
C
100
AcDbDictionary
281
     1
  3
A0
350
48
  3
A1
350
49
  3
A2
350
4A
  3
A3
350
4B
  3
A4
350
4C
  3
A5
350
4D
  3
A6
350
4E
  3
A7
350
4F
  3
A8
350
50
  3
A9
350
51
  3
B0
350
52
  3
B1
350
53
  3
B2
350
54
  3
B3
350
55
  3
B4
350
56
  3
B5
350
57
  3
B6
350
58
  3
B7
350
59
  3
B8
350
5A
  3
B9
350
5B
  3
C0
350
5C
  3
C1
350
5D
  3
C2
350
5E
  3
C3
350
5F
  3
C4
350
60
  3
C5
350
61
  3
C6
350
62
  3
C7
350
63
  3
C8
350
64
  3
C9
350
65
  3
D0
350
66
  3
D1
350
67
  3
D2
350
68
  0
DICTIONARY
  5
831
102
{ACAD_REACTORS
330
C
102
}
330
C
100
AcDbDictionary
281
     1
  0
DICTIONARY
  5
82B
102
{ACAD_REACTORS
330
C
102
}
330
C
100
AcDbDictionary
281
     1
  0
DICTIONARY
  5
828
102
{ACAD_REACTORS
330
C
102
}
330
C
100
AcDbDictionary
281
     1
  0
XRECORD
  5
83D
102
{ACAD_REACTORS
330
C
102
}
330
C
100
AcDbXrecord
280
     1
  1
DWGPROPS COOKIE
  2

  3

  4

  6

  7

  8
raffaele
  9

300
=
301
=
302
=
303
=
304
=
305
=
306
=
307
=
308
=
309
=
 40
0.0
 41
2457714.549117037
 42
2457714.558770683
  1

 90
        0
  0
LAYOUT
  5
1E
102
{ACAD_REACTORS
330
1A
102
}
330
1A
100
AcDbPlotSettings
  1

  2
none_device
  4

  6

 40
0.0
 41
0.0
 42
0.0
 43
0.0
 44
0.0
 45
0.0
 46
0.0
 47
0.0
 48
0.0
 49
0.0
140
0.0
141
0.0
142
1.0
143
1.0
 70
   688
 72
     1
 73
     0
 74
     5
  7

 75
    16
147
1.0
148
0.0
149
0.0
100
AcDbLayout
  1
Layout1
 70
     1
 71
     1
 10
0.0
 20
0.0
 11
420.0
 21
297.0
 12
0.0
 22
0.0
 32
0.0
 14
1.000000000000000E+20
 24
1.000000000000000E+20
 34
1.000000000000000E+20
 15
-1.000000000000000E+20
 25
-1.000000000000000E+20
 35
-1.000000000000000E+20
146
0.0
 13
0.0
 23
0.0
 33
0.0
 16
1.0
 26
0.0
 36
0.0
 17
0.0
 27
1.0
 37
0.0
 76
     0
330
1B
  0
LAYOUT
  5
26
102
{ACAD_REACTORS
330
1A
102
}
330
1A
100
AcDbPlotSettings
  1

  2
none_device
  4

  6

 40
0.0
 41
0.0
 42
0.0
 43
0.0
 44
0.0
 45
0.0
 46
0.0
 47
0.0
 48
0.0
 49
0.0
140
0.0
141
0.0
142
1.0
143
1.0
 70
   688
 72
     1
 73
     0
 74
     5
  7

 75
    16
147
1.0
148
0.0
149
0.0
100
AcDbLayout
  1
Layout2
 70
     1
 71
     2
 10
0.0
 20
0.0
 11
0.0
 21
0.0
 12
0.0
 22
0.0
 32
0.0
 14
0.0
 24
0.0
 34
0.0
 15
0.0
 25
0.0
 35
0.0
146
0.0
 13
0.0
 23
0.0
 33
0.0
 16
1.0
 26
0.0
 36
0.0
 17
0.0
 27
1.0
 37
0.0
 76
     0
330
23
  0
LAYOUT
  5
22
102
{ACAD_REACTORS
330
1A
102
}
330
1A
100
AcDbPlotSettings
  1

  2
none_device
  4
Letter_(8.50_x_11.00_Inches)
  6

 40
6.35
 41
6.35
 42
6.35000508
 43
6.35000508
 44
215.9
 45
279.4
 46
0.0
 47
0.0
 48
0.0
 49
0.0
140
0.0
141
0.0
142
1.0
143
1.0
 70
  1712
 72
     1
 73
     0
 74
     0
  7

 75
     0
147
1.0
148
0.0
149
0.0
100
AcDbLayout
  1
Model
 70
     1
 71
     0
 10
0.0
 20
0.0
 11
840.0
 21
594.0
 12
0.0
 22
0.0
 32
0.0
 14
438.7287825620273
 24
161.8222408326404
 34
0.0
 15
607.3128875276999
 25
392.9271039091321
 35
0.0
146
0.0
 13
0.0
 23
0.0
 33
0.0
 16
1.0
 26
0.0
 36
0.0
 17
0.0
 27
1.0
 37
0.0
 76
     0
330
1F
331
29
  0
MLINESTYLE
  5
18
102
{ACAD_REACTORS
330
17
102
}
330
17
100
AcDbMlineStyle
  2
Standard
 70
     0
  3

 62
   256
 51
90.0
 52
90.0
 71
     2
 49
0.5
 62
   256
  6
BYLAYER
 49
-0.5
 62
   256
  6
BYLAYER
  0
ACDBPLACEHOLDER
  5
F
102
{ACAD_REACTORS
330
E
102
}
330
E
  0
SCALE
  5
48
102
{ACAD_REACTORS
330
47
102
}
330
47
100
AcDbScale
 70
     0
300
1:1
140
1.0
141
1.0
290
     1
  0
SCALE
  5
49
102
{ACAD_REACTORS
330
47
102
}
330
47
100
AcDbScale
 70
     0
300
1:2
140
1.0
141
2.0
290
     0
  0
SCALE
  5
4A
102
{ACAD_REACTORS
330
47
102
}
330
47
100
AcDbScale
 70
     0
300
1:4
140
1.0
141
4.0
290
     0
  0
SCALE
  5
4B
102
{ACAD_REACTORS
330
47
102
}
330
47
100
AcDbScale
 70
     0
300
1:5
140
1.0
141
5.0
290
     0
  0
SCALE
  5
4C
102
{ACAD_REACTORS
330
47
102
}
330
47
100
AcDbScale
 70
     0
300
1:8
140
1.0
141
8.0
290
     0
  0
SCALE
  5
4D
102
{ACAD_REACTORS
330
47
102
}
330
47
100
AcDbScale
 70
     0
300
1:10
140
1.0
141
10.0
290
     0
  0
SCALE
  5
4E
102
{ACAD_REACTORS
330
47
102
}
330
47
100
AcDbScale
 70
     0
300
1:16
140
1.0
141
16.0
290
     0
  0
SCALE
  5
4F
102
{ACAD_REACTORS
330
47
102
}
330
47
100
AcDbScale
 70
     0
300
1:20
140
1.0
141
20.0
290
     0
  0
SCALE
  5
50
102
{ACAD_REACTORS
330
47
102
}
330
47
100
AcDbScale
 70
     0
300
1:30
140
1.0
141
30.0
290
     0
  0
SCALE
  5
51
102
{ACAD_REACTORS
330
47
102
}
330
47
100
AcDbScale
 70
     0
300
1:40
140
1.0
141
40.0
290
     0
  0
SCALE
  5
52
102
{ACAD_REACTORS
330
47
102
}
330
47
100
AcDbScale
 70
     0
300
1:50
140
1.0
141
50.0
290
     0
  0
SCALE
  5
53
102
{ACAD_REACTORS
330
47
102
}
330
47
100
AcDbScale
 70
     0
300
1:100
140
1.0
141
100.0
290
     0
  0
SCALE
  5
54
102
{ACAD_REACTORS
330
47
102
}
330
47
100
AcDbScale
 70
     0
300
2:1
140
2.0
141
1.0
290
     0
  0
SCALE
  5
55
102
{ACAD_REACTORS
330
47
102
}
330
47
100
AcDbScale
 70
     0
300
4:1
140
4.0
141
1.0
290
     0
  0
SCALE
  5
56
102
{ACAD_REACTORS
330
47
102
}
330
47
100
AcDbScale
 70
     0
300
8:1
140
8.0
141
1.0
290
     0
  0
SCALE
  5
57
102
{ACAD_REACTORS
330
47
102
}
330
47
100
AcDbScale
 70
     0
300
10:1
140
10.0
141
1.0
290
     0
  0
SCALE
  5
58
102
{ACAD_REACTORS
330
47
102
}
330
47
100
AcDbScale
 70
     0
300
100:1
140
100.0
141
1.0
290
     0
  0
SCALE
  5
59
102
{ACAD_REACTORS
330
47
102
}
330
47
100
AcDbScale
 70
     0
300
1/128" = 1'-0"
140
0.0078125
141
12.0
290
     0
  0
SCALE
  5
5A
102
{ACAD_REACTORS
330
47
102
}
330
47
100
AcDbScale
 70
     0
300
1/64" = 1'-0"
140
0.015625
141
12.0
290
     0
  0
SCALE
  5
5B
102
{ACAD_REACTORS
330
47
102
}
330
47
100
AcDbScale
 70
     0
300
1/32" = 1'-0"
140
0.03125
141
12.0
290
     0
  0
SCALE
  5
5C
102
{ACAD_REACTORS
330
47
102
}
330
47
100
AcDbScale
 70
     0
300
1/16" = 1'-0"
140
0.0625
141
12.0
290
     0
  0
SCALE
  5
5D
102
{ACAD_REACTORS
330
47
102
}
330
47
100
AcDbScale
 70
     0
300
3/32" = 1'-0"
140
0.09375
141
12.0
290
     0
  0
SCALE
  5
5E
102
{ACAD_REACTORS
330
47
102
}
330
47
100
AcDbScale
 70
     0
300
1/8" = 1'-0"
140
0.125
141
12.0
290
     0
  0
SCALE
  5
5F
102
{ACAD_REACTORS
330
47
102
}
330
47
100
AcDbScale
 70
     0
300
3/16" = 1'-0"
140
0.1875
141
12.0
290
     0
  0
SCALE
  5
60
102
{ACAD_REACTORS
330
47
102
}
330
47
100
AcDbScale
 70
     0
300
1/4" = 1'-0"
140
0.25
141
12.0
290
     0
  0
SCALE
  5
61
102
{ACAD_REACTORS
330
47
102
}
330
47
100
AcDbScale
 70
     0
300
3/8" = 1'-0"
140
0.375
141
12.0
290
     0
  0
SCALE
  5
62
102
{ACAD_REACTORS
330
47
102
}
330
47
100
AcDbScale
 70
     0
300
1/2" = 1'-0"
140
0.5
141
12.0
290
     0
  0
SCALE
  5
63
102
{ACAD_REACTORS
330
47
102
}
330
47
100
AcDbScale
 70
     0
300
3/4" = 1'-0"
140
0.75
141
12.0
290
     0
  0
SCALE
  5
64
102
{ACAD_REACTORS
330
47
102
}
330
47
100
AcDbScale
 70
     0
300
1" = 1'-0"
140
1.0
141
12.0
290
     0
  0
SCALE
  5
65
102
{ACAD_REACTORS
330
47
102
}
330
47
100
AcDbScale
 70
     0
300
1-1/2" = 1'-0"
140
1.5
141
12.0
290
     0
  0
SCALE
  5
66
102
{ACAD_REACTORS
330
47
102
}
330
47
100
AcDbScale
 70
     0
300
3" = 1'-0"
140
3.0
141
12.0
290
     0
  0
SCALE
  5
67
102
{ACAD_REACTORS
330
47
102
}
330
47
100
AcDbScale
 70
     0
300
6" = 1'-0"
140
6.0
141
12.0
290
     0
  0
SCALE
  5
68
102
{ACAD_REACTORS
330
47
102
}
330
47
100
AcDbScale
 70
     0
300
1'-0" = 1'-0"
140
12.0
141
12.0
290
     0
  0
ENDSEC
  0
EOF
