  0
SECTION
  2
HEADER
  9
$ACADVER
  1
AC1015
  9
$ACADMAINTVER
 70
     6
  9
$DWGCODEPAGE
  3
ANSI_1252
  9
$INSBASE
 10
0.0
 20
0.0
 30
0.0
  9
$EXTMIN
 10
-165.6772139012987
 20
-194.9912073110455
 30
0.0
  9
$EXTMAX
 10
505.0099365965183
 20
132.9585021504662
 30
0.0
  9
$LIMMIN
 10
-20.0
 20
-575.8499999999997
  9
$LIMMAX
 10
1785.35
 20
579.8499999999997
  9
$ORTHOMODE
 70
     1
  9
$REGENMODE
 70
     1
  9
$FILLMODE
 70
     1
  9
$QTEXTMODE
 70
     0
  9
$MIRRTEXT
 70
     1
  9
$LTSCALE
 40
10.0
  9
$ATTMODE
 70
     1
  9
$TEXTSIZE
 40
0.0
  9
$TRACEWID
 40
0.05
  9
$TEXTSTYLE
  7
Standard
  9
$CLAYER
  8
0
  9
$CELTYPE
  6
Continuous
  9
$CECOLOR
 62
     4
  9
$CELTSCALE
 40
1.0
  9
$DISPSILH
 70
     0
  9
$DIMSCALE
 40
1.0
  9
$DIMASZ
 40
1.25
  9
$DIMEXO
 40
0.0
  9
$DIMDLI
 40
0.38
  9
$DIMRND
 40
0.0
  9
$DIMDLE
 40
0.0
  9
$DIMEXE
 40
0.75
  9
$DIMTP
 40
0.0
  9
$DIMTM
 40
0.0
  9
$DIMTXT
 40
2.5
  9
$DIMCEN
 40
0.09
  9
$DIMTSZ
 40
0.0
  9
$DIMTOL
 70
     0
  9
$DIMLIM
 70
     0
  9
$DIMTIH
 70
     0
  9
$DIMTOH
 70
     0
  9
$DIMSE1
 70
     0
  9
$DIMSE2
 70
     0
  9
$DIMTAD
 70
     1
  9
$DIMZIN
 70
     0
  9
$DIMBLK
  1

  9
$DIMASO
 70
     1
  9
$DIMSHO
 70
     1
  9
$DIMPOST
  1

  9
$DIMAPOST
  1

  9
$DIMALT
 70
     0
  9
$DIMALTD
 70
     2
  9
$DIMALTF
 40
25.4
  9
$DIMLFAC
 40
1.0
  9
$DIMTOFL
 70
     0
  9
$DIMTVP
 40
0.0
  9
$DIMTIX
 70
     0
  9
$DIMSOXD
 70
     0
  9
$DIMSAH
 70
     0
  9
$DIMBLK1
  1

  9
$DIMBLK2
  1

  9
$DIMSTYLE
  2
Standard
  9
$DIMCLRD
 70
     7
  9
$DIMCLRE
 70
     7
  9
$DIMCLRT
 70
     7
  9
$DIMTFAC
 40
0.8
  9
$DIMGAP
 40
1.25
  9
$DIMJUST
 70
     0
  9
$DIMSD1
 70
     0
  9
$DIMSD2
 70
     0
  9
$DIMTOLJ
 70
     1
  9
$DIMTZIN
 70
     0
  9
$DIMALTZ
 70
     0
  9
$DIMALTTZ
 70
     0
  9
$DIMUPT
 70
     0
  9
$DIMDEC
 70
     2
  9
$DIMTDEC
 70
     4
  9
$DIMALTU
 70
     2
  9
$DIMALTTD
 70
     2
  9
$DIMTXSTY
  7
Standard
  9
$DIMAUNIT
 70
     0
  9
$DIMADEC
 70
     0
  9
$DIMALTRND
 40
0.0
  9
$DIMAZIN
 70
     0
  9
$DIMDSEP
 70
    46
  9
$DIMATFIT
 70
     3
  9
$DIMFRAC
 70
     0
  9
$DIMLDRBLK
  1

  9
$DIMLUNIT
 70
     2
  9
$DIMLWD
 70
     0
  9
$DIMLWE
 70
     0
  9
$DIMTMOVE
 70
     0
  9
$LUNITS
 70
     2
  9
$LUPREC
 70
     4
  9
$SKETCHINC
 40
0.1
  9
$FILLETRAD
 40
8.0
  9
$AUNITS
 70
     0
  9
$AUPREC
 70
     0
  9
$MENU
  1
acad
  9
$ELEVATION
 40
0.0
  9
$PELEVATION
 40
0.0
  9
$THICKNESS
 40
0.0
  9
$LIMCHECK
 70
     0
  9
$CHAMFERA
 40
0.0
  9
$CHAMFERB
 40
0.0
  9
$CHAMFERC
 40
0.0
  9
$CHAMFERD
 40
0.0
  9
$SKPOLY
 70
     0
  9
$TDCREATE
 40
2455301.802361111
  9
$TDUCREATE
 40
2455301.719027778
  9
$TDUPDATE
 40
2456832.394320139
  9
$TDUUPDATE
 40
2456832.310986806
  9
$TDINDWG
 40
0.1879409028
  9
$TDUSRTIMER
 40
2456832.310942893
  9
$USRTIMER
 70
     1
  9
$ANGBASE
 50
0.0
  9
$ANGDIR
 70
     0
  9
$PDMODE
 70
     0
  9
$PDSIZE
 40
0.0
  9
$PLINEWID
 40
0.0
  9
$SPLFRAME
 70
     0
  9
$SPLINETYPE
 70
     6
  9
$SPLINESEGS
 70
     8
  9
$HANDSEED
  5
F58B
  9
$SURFTAB1
 70
     6
  9
$SURFTAB2
 70
     6
  9
$SURFTYPE
 70
     6
  9
$SURFU
 70
     6
  9
$SURFV
 70
     6
  9
$UCSBASE
  2

  9
$UCSNAME
  2

  9
$UCSORG
 10
0.0
 20
0.0
 30
0.0
  9
$UCSXDIR
 10
1.0
 20
0.0
 30
0.0
  9
$UCSYDIR
 10
0.0
 20
1.0
 30
0.0
  9
$UCSORTHOREF
  2

  9
$UCSORTHOVIEW
 70
     0
  9
$UCSORGTOP
 10
0.0
 20
0.0
 30
0.0
  9
$UCSORGBOTTOM
 10
0.0
 20
0.0
 30
0.0
  9
$UCSORGLEFT
 10
0.0
 20
0.0
 30
0.0
  9
$UCSORGRIGHT
 10
0.0
 20
0.0
 30
0.0
  9
$UCSORGFRONT
 10
0.0
 20
0.0
 30
0.0
  9
$UCSORGBACK
 10
0.0
 20
0.0
 30
0.0
  9
$PUCSBASE
  2

  9
$PUCSNAME
  2

  9
$PUCSORG
 10
0.0
 20
0.0
 30
0.0
  9
$PUCSXDIR
 10
1.0
 20
0.0
 30
0.0
  9
$PUCSYDIR
 10
0.0
 20
1.0
 30
0.0
  9
$PUCSORTHOREF
  2

  9
$PUCSORTHOVIEW
 70
     0
  9
$PUCSORGTOP
 10
0.0
 20
0.0
 30
0.0
  9
$PUCSORGBOTTOM
 10
0.0
 20
0.0
 30
0.0
  9
$PUCSORGLEFT
 10
0.0
 20
0.0
 30
0.0
  9
$PUCSORGRIGHT
 10
0.0
 20
0.0
 30
0.0
  9
$PUCSORGFRONT
 10
0.0
 20
0.0
 30
0.0
  9
$PUCSORGBACK
 10
0.0
 20
0.0
 30
0.0
  9
$USERI1
 70
     0
  9
$USERI2
 70
     0
  9
$USERI3
 70
     0
  9
$USERI4
 70
     0
  9
$USERI5
 70
     0
  9
$USERR1
 40
0.0
  9
$USERR2
 40
0.0
  9
$USERR3
 40
0.0
  9
$USERR4
 40
0.0
  9
$USERR5
 40
0.0
  9
$WORLDVIEW
 70
     1
  9
$SHADEDGE
 70
     3
  9
$SHADEDIF
 70
    70
  9
$TILEMODE
 70
     1
  9
$MAXACTVP
 70
    16
  9
$PINSBASE
 10
0.0
 20
0.0
 30
0.0
  9
$PLIMCHECK
 70
     0
  9
$PEXTMIN
 10
1.000000000000000E+20
 20
1.000000000000000E+20
 30
1.000000000000000E+20
  9
$PEXTMAX
 10
-1.000000000000000E+20
 20
-1.000000000000000E+20
 30
-1.000000000000000E+20
  9
$PLIMMIN
 10
0.0
 20
0.0
  9
$PLIMMAX
 10
0.0
 20
0.0
  9
$UNITMODE
 70
     0
  9
$VISRETAIN
 70
     0
  9
$PLINEGEN
 70
     1
  9
$PSLTSCALE
 70
     0
  9
$TREEDEPTH
 70
  3020
  9
$CMLSTYLE
  2
Standard
  9
$CMLJUST
 70
     0
  9
$CMLSCALE
 40
1.0
  9
$PROXYGRAPHICS
 70
     0
  9
$MEASUREMENT
 70
     1
  9
$CELWEIGHT
370
     0
  9
$ENDCAPS
280
     0
  9
$JOINSTYLE
280
     0
  9
$LWDISPLAY
290
     0
  9
$INSUNITS
 70
     0
  9
$HYPERLINKBASE
  1

  9
$STYLESHEET
  1

  9
$XEDIT
290
     1
  9
$CEPSNTYPE
380
     0
  9
$PSTYLEMODE
290
     1
  9
$FINGERPRINTGUID
  2

  9
$VERSIONGUID
  2
{8FBE37C9-D84A-4822-A492-321741B7DD91}
  9
$EXTNAMES
290
     1
  9
$PSVPSCALE
 40
0.0
  9
$OLESTARTUP
290
     0
  0
ENDSEC
  0
SECTION
  2
CLASSES
  0
CLASS
  1
IMAGE
  2
AcDbRasterImage
  3
ISM
 90
      127
280
     0
281
     1
  0
CLASS
  1
DICTIONARYVAR
  2
AcDbDictionaryVar
  3
ObjectDBX Classes
 90
        0
280
     0
281
     0
  0
CLASS
  1
RASTERVARIABLES
  2
AcDbRasterVariables
  3
ISM
 90
        0
280
     0
281
     0
  0
CLASS
  1
IMAGEDEF
  2
AcDbRasterImageDef
  3
ISM
 90
        0
280
     0
281
     0
  0
CLASS
  1
IMAGEDEF_REACTOR
  2
AcDbRasterImageDefReactor
  3
ISM
 90
        1
280
     0
281
     0
  0
CLASS
  1
IDBUFFER
  2
AcDbIdBuffer
  3
ObjectDBX Classes
 90
        0
280
     0
281
     0
  0
CLASS
  1
SPATIAL_FILTER
  2
AcDbSpatialFilter
  3
ObjectDBX Classes
 90
        0
280
     0
281
     0
  0
CLASS
  1
SORTENTSTABLE
  2
AcDbSortentsTable
  3
ObjectDBX Classes
 90
        0
280
     0
281
     0
  0
CLASS
  1
LAYER_INDEX
  2
AcDbLayerIndex
  3
ObjectDBX Classes
 90
        0
280
     0
281
     0
  0
CLASS
  1
SPATIAL_INDEX
  2
AcDbSpatialIndex
  3
AutoCAD 2000
 90
        0
280
     0
281
     0
  0
CLASS
  1
OBJECT_PTR
  2
CAseDLPNTableRecord
  3
ASE-LPNTableRecord
 90
        1
280
     0
281
     0
  0
CLASS
  1
LAYOUT
  2
AcDbLayout
  3
ObjectDBX Classes
 90
        0
280
     0
281
     0
  0
CLASS
  1
PLOTSETTINGS
  2
AcDbPlotSettings
  3
ObjectDBX Classes
 90
        0
280
     0
281
     0
  0
CLASS
  1
ACDBDICTIONARYWDFLT
  2
AcDbDictionaryWithDefault
  3
ObjectDBX Classes
 90
        0
280
     0
281
     0
  0
CLASS
  1
ACDBPLACEHOLDER
  2
AcDbPlaceHolder
  3
ObjectDBX Classes
 90
        0
280
     0
281
     0
  0
CLASS
  1
VBA_PROJECT
  2
AcDbVbaProject
  3
ObjectDBX Classes
 90
        0
280
     0
281
     0
  0
CLASS
  1
WIPEOUT
  2
AcDbWipeout
  3
WipeOut|AutoCAD Express Tool|expresstools@autodesk.com
 90
      127
280
     0
281
     1
  0
CLASS
  1
WIPEOUTVARIABLES
  2
AcDbWipeoutVariables
  3
WipeOut|AutoCAD Express Tool|expresstools@autodesk.com
 90
        0
280
     0
281
     0
  0
CLASS
  1
RTEXT
  2
RText
  3
RText|AutoCAD Express Tool|expresstools@autodesk.com
 90
        0
280
     0
281
     1
  0
CLASS
  1
ARCALIGNEDTEXT
  2
AcDbArcAlignedText
  3
ATEXT|AutoCAD Express Tool|expresstools@autodesk.com
 90
        0
280
     0
281
     1
  0
CLASS
  1
MATERIAL
  2
AcDbMaterial
  3
ObjectDBX Classes
 90
     1153
280
     0
281
     0
  0
CLASS
  1
VISUALSTYLE
  2
AcDbVisualStyle
  3
ObjectDBX Classes
 90
     4095
280
     0
281
     0
  0
CLASS
  1
TABLESTYLE
  2
AcDbTableStyle
  3
ObjectDBX Classes
 90
     4095
280
     0
281
     0
  0
CLASS
  1
SCALE
  2
AcDbScale
  3
ObjectDBX Classes
 90
     1153
280
     0
281
     0
  0
CLASS
  1
MLEADERSTYLE
  2
AcDbMLeaderStyle
  3
ACDB_MLEADERSTYLE_CLASS
 90
     4095
280
     0
281
     0
  0
CLASS
  1
CELLSTYLEMAP
  2
AcDbCellStyleMap
  3
ObjectDBX Classes
 90
     1152
280
     0
281
     0
  0
CLASS
  1
XRECORD
  2
AcDbXrecord
  3
ObjectDBX Classes
 90
        0
280
     0
281
     0
  0
CLASS
  1
LWPOLYLINE
  2
AcDbPolyline
  3
ObjectDBX Classes
 90
        0
280
     0
281
     1
  0
CLASS
  1
HATCH
  2
AcDbHatch
  3
ObjectDBX Classes
 90
        0
280
     0
281
     1
  0
CLASS
  1
SUN
  2
AcDbSun
  3
SCENEOE
 90
     1153
280
     0
281
     0
  0
ENDSEC
  0
SECTION
  2
TABLES
  0
TABLE
  2
VPORT
  5
7
330
0
100
AcDbSymbolTable
 70
     1
  0
VPORT
  5
15
330
7
100
AcDbSymbolTableRecord
100
AcDbViewportTableRecord
  2
*ACTIVE
 70
     0
 10
0.0
 20
0.0
 11
1.0
 21
1.0
 12
169.6663613476098
 22
-31.01635258028966
 13
0.0
 23
0.0
 14
1.0
 24
1.0
 15
0.0
 25
0.0
 16
0.0
 26
0.0
 36
1.0
 17
0.0
 27
0.0
 37
0.0
 40
334.5087036507419
 41
2.333333333333333
 42
50.0
 43
0.0
 44
0.0
 50
0.0
 51
0.0
 71
    16
 72
   100
 73
     1
 74
     1
 75
     0
 76
     0
 77
     0
 78
     0
281
     0
 65
     0
110
0.0
120
0.0
130
0.0
111
1.0
121
0.0
131
0.0
112
0.0
122
1.0
132
0.0
 79
     0
146
0.0
  0
ENDTAB
  0
TABLE
  2
LTYPE
  5
4
330
0
100
AcDbSymbolTable
 70
     2
  0
LTYPE
  5
11
330
4
100
AcDbSymbolTableRecord
100
AcDbLinetypeTableRecord
  2
ByBlock
 70
     0
  3

 72
    65
 73
     0
 40
0.0
  0
LTYPE
  5
12
330
4
100
AcDbSymbolTableRecord
100
AcDbLinetypeTableRecord
  2
ByLayer
 70
     0
  3

 72
    65
 73
     0
 40
0.0
  0
LTYPE
  5
13
330
4
100
AcDbSymbolTableRecord
100
AcDbLinetypeTableRecord
  2
Continuous
 70
     0
  3
Solid line
 72
    65
 73
     0
 40
0.0
  0
LTYPE
  5
108
330
4
100
AcDbSymbolTableRecord
100
AcDbLinetypeTableRecord
  2
CENTER
 70
     0
  3
____ _ ____ _ ____ _ ____ _ ____ _ ____ _ ____
 72
    65
 73
     4
 40
2.0
 49
1.25
 74
     0
 49
-0.25
 74
     0
 49
0.25
 74
     0
 49
-0.25
 74
     0
  0
ENDTAB
  0
TABLE
  2
LAYER
  5
2
330
0
100
AcDbSymbolTable
 70
     2
  0
LAYER
  5
14
102
{ACAD_XDICTIONARY
360
5858
102
}
330
2
100
AcDbSymbolTableRecord
100
AcDbLayerTableRecord
  2
0
 70
     0
 62
     7
  6
Continuous
370
    -3
390
1D
  0
LAYER
  5
B652
330
2
100
AcDbSymbolTableRecord
100
AcDbLayerTableRecord
  2
Defpoints
 70
     0
 62
     7
  6
Continuous
290
     0
370
    -3
390
1D
  0
ENDTAB
  0
TABLE
  2
STYLE
  5
3
330
0
100
AcDbSymbolTable
 70
     1
  0
STYLE
  5
17
330
3
100
AcDbSymbolTableRecord
100
AcDbTextStyleTableRecord
  2
Standard
 70
     0
 40
0.0
 41
1.0
 50
0.0
 71
     0
 42
0.0
  3
I011000D_0.TTF
  4

1001
ACAD
1000
IsonormD
1071
        0
  0
ENDTAB
  0
TABLE
  2
VIEW
  5
5
330
0
100
AcDbSymbolTable
 70
     0
  0
ENDTAB
  0
TABLE
  2
UCS
  5
6
330
0
100
AcDbSymbolTable
 70
     0
  0
ENDTAB
  0
TABLE
  2
APPID
  5
8
330
0
100
AcDbSymbolTable
 70
     6
  0
APPID
  5
16
330
8
100
AcDbSymbolTableRecord
100
AcDbRegAppTableRecord
  2
ACAD
 70
     0
  0
APPID
  5
26
330
8
100
AcDbSymbolTableRecord
100
AcDbRegAppTableRecord
  2
TopSolid'Draft
 70
     0
  0
APPID
  5
5850
330
8
100
AcDbSymbolTableRecord
100
AcDbRegAppTableRecord
  2
ACAD_MLEADERVER
 70
     0
  0
APPID
  5
5856
330
8
100
AcDbSymbolTableRecord
100
AcDbRegAppTableRecord
  2
DCO15
 70
     0
  0
APPID
  5
B62D
330
8
100
AcDbSymbolTableRecord
100
AcDbRegAppTableRecord
  2
ACAD_EXEMPT_FROM_CAD_STANDARDS
 70
     0
  0
APPID
  5
B915
330
8
100
AcDbSymbolTableRecord
100
AcDbRegAppTableRecord
  2
ACAD_DSTYLE_DIMRADIAL_EXTENSION
 70
     0
  0
ENDTAB
  0
TABLE
  2
DIMSTYLE
  5
9
330
0
100
AcDbSymbolTable
 70
     2
100
AcDbDimStyleTable
  0
DIMSTYLE
105
18
330
9
100
AcDbSymbolTableRecord
100
AcDbDimStyleTableRecord
  2
Standard
 70
     0
 41
1.25
 42
0.0
 44
0.75
 73
     0
 74
     0
 77
     1
140
2.5
146
0.8
147
1.25
176
     7
177
     7
271
     2
178
     7
271
     2
340
17
  0
DIMSTYLE
105
C019
330
9
100
AcDbSymbolTableRecord
100
AcDbDimStyleTableRecord
  2
ISO-25
 70
     0
 41
2.5
 42
0.625
 43
3.75
 44
1.25
 73
     0
 74
     0
 77
     1
 78
     8
140
2.5
141
2.5
143
0.03937007874016
147
0.625
171
     3
172
     1
178
     0
271
     2
272
     2
274
     3
278
    44
283
     0
284
     8
340
17
  0
ENDTAB
  0
TABLE
  2
BLOCK_RECORD
  5
1
330
0
100
AcDbSymbolTable
 70
     4
  0
BLOCK_RECORD
  5
A
102
{ACAD_XDICTIONARY
360
5864
102
}
330
1
100
AcDbSymbolTableRecord
100
AcDbBlockTableRecord
  2
*MODEL_SPACE
340
20
  0
BLOCK_RECORD
  5
B
330
1
100
AcDbSymbolTableRecord
100
AcDbBlockTableRecord
  2
*PAPER_SPACE
340
21
  0
BLOCK_RECORD
  5
F472
330
1
100
AcDbSymbolTableRecord
100
AcDbBlockTableRecord
  2
*D0
340
0
  0
BLOCK_RECORD
  5
F480
330
1
100
AcDbSymbolTableRecord
100
AcDbBlockTableRecord
  2
*D1
340
0
  0
BLOCK_RECORD
  5
F4E9
330
1
100
AcDbSymbolTableRecord
100
AcDbBlockTableRecord
  2
*D2
340
0
  0
BLOCK_RECORD
  5
F4F8
330
1
100
AcDbSymbolTableRecord
100
AcDbBlockTableRecord
  2
*D3
340
0
  0
ENDTAB
  0
ENDSEC
  0
SECTION
  2
BLOCKS
  0
BLOCK
  5
D
330
A
100
AcDbEntity
  8
0
100
AcDbBlockBegin
  2
*MODEL_SPACE
 70
     0
 10
0.0
 20
0.0
 30
0.0
  3
*MODEL_SPACE
  1
*MODEL_SPACE
  0
ENDBLK
  5
E
330
A
100
AcDbEntity
  8
0
100
AcDbBlockEnd
  0
BLOCK
  5
F
330
B
100
AcDbEntity
 67
     1
  8
0
100
AcDbBlockBegin
  2
*PAPER_SPACE
 70
     0
 10
0.0
 20
0.0
 30
0.0
  3
*PAPER_SPACE
  1
*PAPER_SPACE
  0
ENDBLK
  5
10
330
B
100
AcDbEntity
 67
     1
  8
0
100
AcDbBlockEnd
  0
BLOCK
  5
F47D
330
F472
100
AcDbEntity
  8
0
100
AcDbBlockBegin
  2
*D0
 70
     1
 10
0.0
 20
0.0
 30
0.0
  3
*D0
  1
*D0
  0
LINE
  5
F473
330
F472
100
AcDbEntity
  8
0
  6
Continuous
 62
     7
370
     0
100
AcDbLine
 10
-57.32276198531908
 20
75.32110703198092
 30
0.0
 11
-57.32276198531908
 21
60.71825534031416
 31
0.0
  0
LINE
  5
F474
330
F472
100
AcDbEntity
  8
0
  6
Continuous
 62
     7
370
     0
100
AcDbLine
 10
-60.32276198531908
 20
85.60471791576498
 30
0.0
 11
-60.32276198531908
 21
60.71825534031416
 31
0.0
  0
LINE
  5
F475
330
F472
100
AcDbEntity
  8
0
  6
Continuous
 62
     7
370
     0
100
AcDbLine
 10
-60.32276198531908
 20
61.46825534031416
 30
0.0
 11
-70.67561483817192
 21
61.46825534031416
 31
0.0
  0
LINE
  5
F476
330
F472
100
AcDbEntity
  8
0
  6
Continuous
 62
     7
370
     0
100
AcDbLine
 10
-57.32276198531908
 20
61.46825534031416
 30
0.0
 11
-54.82276198531908
 21
61.46825534031416
 31
0.0
  0
SOLID
  5
F477
330
F472
100
AcDbEntity
  8
0
 62
     7
100
AcDbTrace
 10
-56.07276198531908
 20
61.67658867364749
 30
0.0
 11
-56.07276198531908
 21
61.25992200698082
 31
0.0
 12
-57.32276198531908
 22
61.46825534031416
 32
0.0
 13
-57.32276198531908
 23
61.46825534031416
 33
0.0
  0
SOLID
  5
F478
330
F472
100
AcDbEntity
  8
0
 62
     7
100
AcDbTrace
 10
-61.57276198531908
 20
61.25992200698082
 30
0.0
 11
-61.57276198531908
 21
61.67658867364749
 31
0.0
 12
-60.32276198531908
 22
61.46825534031416
 32
0.0
 13
-60.32276198531908
 23
61.46825534031416
 33
0.0
  0
MTEXT
  5
F479
330
F472
100
AcDbEntity
  8
0
  6
Continuous
 62
     7
370
     0
100
AcDbMText
 10
-66.74918841174551
 20
63.97326034531916
 30
0.0
 40
2.5
 41
0.0
 71
     5
 72
     1
  1
\A1;3.00
 73
     1
 44
1.0
  0
POINT
  5
F47A
330
F472
100
AcDbEntity
  8
Defpoints
 62
     0
100
AcDbPoint
 10
-57.32276198531908
 20
75.32110703198092
 30
0.0
  0
POINT
  5
F47B
330
F472
100
AcDbEntity
  8
Defpoints
 62
     0
100
AcDbPoint
 10
-60.32276198531908
 20
85.60471791576498
 30
0.0
  0
POINT
  5
F47C
330
F472
100
AcDbEntity
  8
Defpoints
 62
     0
100
AcDbPoint
 10
-60.32276198531908
 20
61.46825534031416
 30
0.0
  0
ENDBLK
  5
F47E
330
F472
100
AcDbEntity
  8
0
100
AcDbBlockEnd
  0
BLOCK
  5
F48A
330
F480
100
AcDbEntity
  8
0
100
AcDbBlockBegin
  2
*D1
 70
     1
 10
0.0
 20
0.0
 30
0.0
  3
*D1
  1
*D1
  0
LINE
  5
F481
330
F480
100
AcDbEntity
  8
0
  6
Continuous
 62
     7
370
     0
100
AcDbLine
 10
-60.32276198531908
 20
-25.86168275964928
 30
0.0
 11
-60.32276198531908
 21
-25.11168275964928
 31
0.0
  0
LINE
  5
F482
330
F480
100
AcDbEntity
  8
0
  6
Continuous
 62
     7
370
     0
100
AcDbLine
 10
-0.3239868074655528
 20
-25.09268161259307
 30
0.0
 11
-0.3239868074655528
 21
-26.61168275964928
 31
0.0
  0
LINE
  5
F483
330
F480
100
AcDbEntity
  8
0
  6
Continuous
 62
     7
370
     0
100
AcDbLine
 10
-59.07276198531908
 20
-25.86168275964928
 30
0.0
 11
-1.573986807465553
 21
-25.86168275964928
 31
0.0
  0
SOLID
  5
F484
330
F480
100
AcDbEntity
  8
0
 62
     7
100
AcDbTrace
 10
-59.07276198531908
 20
-25.65334942631595
 30
0.0
 11
-59.07276198531908
 21
-26.07001609298261
 31
0.0
 12
-60.32276198531908
 22
-25.86168275964928
 32
0.0
 13
-60.32276198531908
 23
-25.86168275964928
 33
0.0
  0
SOLID
  5
F485
330
F480
100
AcDbEntity
  8
0
 62
     7
100
AcDbTrace
 10
-1.573986807465553
 20
-26.07001609298261
 30
0.0
 11
-1.573986807465553
 21
-25.65334942631595
 31
0.0
 12
-0.3239868074655528
 22
-25.86168275964928
 32
0.0
 13
-0.3239868074655528
 23
-25.86168275964928
 33
0.0
  0
MTEXT
  5
F486
330
F480
100
AcDbEntity
  8
0
  6
Continuous
 62
     7
370
     0
100
AcDbMText
 10
-30.32337439639232
 20
-23.35667775464427
 30
0.0
 40
2.5
 41
0.0
 71
     5
 72
     1
  1
\A1;60.00
 73
     1
 44
1.0
  0
POINT
  5
F487
330
F480
100
AcDbEntity
  8
Defpoints
 62
     0
100
AcDbPoint
 10
-60.32276198531908
 20
-25.86168275964928
 30
0.0
  0
POINT
  5
F488
330
F480
100
AcDbEntity
  8
Defpoints
 62
     0
100
AcDbPoint
 10
-0.3239868074655528
 20
-25.09268161259307
 30
0.0
  0
POINT
  5
F489
330
F480
100
AcDbEntity
  8
Defpoints
 62
     0
100
AcDbPoint
 10
-0.3239868074655528
 20
-25.86168275964928
 30
0.0
  0
ENDBLK
  5
F48B
330
F480
100
AcDbEntity
  8
0
100
AcDbBlockEnd
  0
BLOCK
  5
F4F4
330
F4E9
100
AcDbEntity
  8
0
100
AcDbBlockBegin
  2
*D2
 70
     1
 10
0.0
 20
0.0
 30
0.0
  3
*D2
  1
*D2
  0
LINE
  5
F4EA
330
F4E9
100
AcDbEntity
  8
0
  6
Continuous
 62
     7
370
     0
100
AcDbLine
 10
-55.32434973828496
 20
1.0807104408741
 30
0.0
 11
-55.32434973828496
 21
-7.616228850901681
 31
0.0
  0
LINE
  5
F4EB
330
F4E9
100
AcDbEntity
  8
0
  6
Continuous
 62
     7
370
     0
100
AcDbLine
 10
-60.32276198531908
 20
1.080710440874103
 30
0.0
 11
-60.32276198531908
 21
-7.616228850901681
 31
0.0
  0
LINE
  5
F4EC
330
F4E9
100
AcDbEntity
  8
0
  6
Continuous
 62
     7
370
     0
100
AcDbLine
 10
-60.32276198531908
 20
-6.866228850901681
 30
0.0
 11
-70.52045968301678
 21
-6.866228850901681
 31
0.0
  0
LINE
  5
F4ED
330
F4E9
100
AcDbEntity
  8
0
  6
Continuous
 62
     7
370
     0
100
AcDbLine
 10
-55.32434973828496
 20
-6.866228850901681
 30
0.0
 11
-52.82434973828496
 21
-6.866228850901681
 31
0.0
  0
SOLID
  5
F4EE
330
F4E9
100
AcDbEntity
  8
0
 62
     7
100
AcDbTrace
 10
-54.07434973828496
 20
-6.657895517568348
 30
0.0
 11
-54.07434973828496
 21
-7.074562184235014
 31
0.0
 12
-55.32434973828496
 22
-6.866228850901681
 32
0.0
 13
-55.32434973828496
 23
-6.866228850901681
 33
0.0
  0
SOLID
  5
F4EF
330
F4E9
100
AcDbEntity
  8
0
 62
     7
100
AcDbTrace
 10
-61.57276198531908
 20
-7.074562184235014
 30
0.0
 11
-61.57276198531908
 21
-6.657895517568348
 31
0.0
 12
-60.32276198531908
 22
-6.866228850901681
 32
0.0
 13
-60.32276198531908
 23
-6.866228850901681
 33
0.0
  0
MTEXT
  5
F4F0
330
F4E9
100
AcDbEntity
  8
0
  6
Continuous
 62
     7
370
     0
100
AcDbMText
 10
-66.67161083416792
 20
-4.361223845896676
 30
0.0
 40
2.5
 41
0.0
 71
     5
 72
     1
  1
\A1;5.00
 73
     1
 44
1.0
  0
POINT
  5
F4F1
330
F4E9
100
AcDbEntity
  8
Defpoints
 62
     0
100
AcDbPoint
 10
-55.32434973828496
 20
1.0807104408741
 30
0.0
  0
POINT
  5
F4F2
330
F4E9
100
AcDbEntity
  8
Defpoints
 62
     0
100
AcDbPoint
 10
-60.32276198531908
 20
1.080710440874103
 30
0.0
  0
POINT
  5
F4F3
330
F4E9
100
AcDbEntity
  8
Defpoints
 62
     0
100
AcDbPoint
 10
-60.32276198531908
 20
-6.866228850901681
 30
0.0
  0
ENDBLK
  5
F4F5
330
F4E9
100
AcDbEntity
  8
0
100
AcDbBlockEnd
  0
BLOCK
  5
F502
330
F4F8
100
AcDbEntity
  8
0
100
AcDbBlockBegin
  2
*D3
 70
     1
 10
0.0
 20
0.0
 30
0.0
  3
*D3
  1
*D3
  0
LINE
  5
F4F9
330
F4F8
100
AcDbEntity
  8
0
  6
Continuous
 62
     7
370
     0
100
AcDbLine
 10
-0.3239868074655528
 20
132.9585021504662
 30
0.0
 11
-0.3239868074655519
 21
165.5067028957149
 31
0.0
  0
LINE
  5
F4FA
330
F4F8
100
AcDbEntity
  8
0
  6
Continuous
 62
     7
370
     0
100
AcDbLine
 10
-60.32276198531908
 20
-26.51855802953549
 30
0.0
 11
-60.32276198531908
 21
165.5067028957149
 31
0.0
  0
LINE
  5
F4FB
330
F4F8
100
AcDbEntity
  8
0
  6
Continuous
 62
     7
370
     0
100
AcDbLine
 10
-1.573986807465552
 20
164.7567028957149
 30
0.0
 11
-59.07276198531908
 21
164.7567028957149
 31
0.0
  0
SOLID
  5
F4FC
330
F4F8
100
AcDbEntity
  8
0
 62
     7
100
AcDbTrace
 10
-1.573986807465552
 20
164.5483695623816
 30
0.0
 11
-1.573986807465552
 21
164.9650362290483
 31
0.0
 12
-0.3239868074655519
 22
164.7567028957149
 32
0.0
 13
-0.3239868074655519
 23
164.7567028957149
 33
0.0
  0
SOLID
  5
F4FD
330
F4F8
100
AcDbEntity
  8
0
 62
     7
100
AcDbTrace
 10
-59.07276198531908
 20
164.9650362290483
 30
0.0
 11
-59.07276198531908
 21
164.5483695623816
 31
0.0
 12
-60.32276198531908
 22
164.7567028957149
 32
0.0
 13
-60.32276198531908
 23
164.7567028957149
 33
0.0
  0
MTEXT
  5
F4FE
330
F4F8
100
AcDbEntity
  8
0
  6
Continuous
 62
     7
370
     0
100
AcDbMText
 10
-30.32337439639232
 20
167.2617079007199
 30
0.0
 40
2.5
 41
0.0
 71
     5
 72
     1
  1
\A1;60.00
 73
     1
 44
1.0
  0
POINT
  5
F4FF
330
F4F8
100
AcDbEntity
  8
Defpoints
 62
     0
100
AcDbPoint
 10
-0.3239868074655528
 20
132.9585021504662
 30
0.0
  0
POINT
  5
F500
330
F4F8
100
AcDbEntity
  8
Defpoints
 62
     0
100
AcDbPoint
 10
-60.32276198531908
 20
-26.51855802953549
 30
0.0
  0
POINT
  5
F501
330
F4F8
100
AcDbEntity
  8
Defpoints
 62
     0
100
AcDbPoint
 10
-60.32276198531908
 20
164.7567028957149
 30
0.0
  0
ENDBLK
  5
F503
330
F4F8
100
AcDbEntity
  8
0
100
AcDbBlockEnd
  0
ENDSEC
  0
SECTION
  2
ENTITIES
  0
LINE
  5
E912
330
A
100
AcDbEntity
  8
0
  6
Continuous
 62
     7
370
    15
100
AcDbLine
 10
-6.323985928297043
 20
0.0
 30
0.0
 11
-6.323985928297043
 21
-17.24999956786633
 31
0.0
  0
LINE
  5
E913
330
A
100
AcDbEntity
  8
0
  6
Continuous
 62
     7
370
    15
100
AcDbLine
 10
5.676012313365936
 20
-17.24999956786633
 30
0.0
 11
5.676012313365936
 21
0.0
 31
0.0
  0
LINE
  5
E914
330
A
100
AcDbEntity
  8
0
  6
Continuous
 62
     7
370
    15
100
AcDbLine
 10
-6.323985928297043
 20
-17.24999956786633
 30
0.0
 11
-5.323987627029419
 21
-18.25000159442425
 31
0.0
  0
LINE
  5
E915
330
A
100
AcDbEntity
  8
0
  6
Continuous
 62
     7
370
    15
100
AcDbLine
 10
4.676014012098312
 20
-18.25000159442425
 30
0.0
 11
5.676012313365936
 21
-17.24999956786633
 31
0.0
  0
LINE
  5
E916
330
A
100
AcDbEntity
  8
0
  6
Continuous
 62
     7
370
    15
100
AcDbLine
 10
-55.32434973828496
 20
48.90000075101852
 30
0.0
 11
-55.74934971481562
 21
48.90000075101852
 31
0.0
  0
LINE
  5
E917
330
A
100
AcDbEntity
  8
0
  6
Continuous
 62
     7
370
    15
100
AcDbLine
 10
-55.74934971481562
 20
46.09999991953373
 30
0.0
 11
-55.32434973828496
 21
46.09999991953373
 31
0.0
  0
LINE
  5
E918
330
A
100
AcDbEntity
  8
0
  6
Continuous
 62
     7
370
    15
100
AcDbLine
 10
-55.74934971481562
 20
48.90000075101852
 30
0.0
 11
-55.82434982024134
 21
48.75000007450581
 31
0.0
  0
LINE
  5
E919
330
A
100
AcDbEntity
  8
0
  6
Continuous
 62
     7
370
    15
100
AcDbLine
 10
-55.82434982024134
 20
46.25000059604645
 30
0.0
 11
-55.74934971481562
 21
46.09999991953373
 31
0.0
  0
LINE
  5
E91A
330
A
100
AcDbEntity
  8
0
  6
Continuous
 62
     7
370
    15
100
AcDbLine
 10
-55.32434973828496
 20
13.89999967068434
 30
0.0
 11
-55.74934971481562
 21
13.89999967068434
 31
0.0
  0
LINE
  5
E91B
330
A
100
AcDbEntity
  8
0
  6
Continuous
 62
     7
370
    15
100
AcDbLine
 10
-55.74934971481562
 20
11.09999977052212
 30
0.0
 11
-55.32434973828496
 21
11.09999977052212
 31
0.0
  0
LINE
  5
E91C
330
A
100
AcDbEntity
  8
0
  6
Continuous
 62
     7
370
    15
100
AcDbLine
 10
-55.74934971481562
 20
13.89999967068434
 30
0.0
 11
-55.82434982024134
 21
13.74999992549419
 31
0.0
  0
LINE
  5
E91D
330
A
100
AcDbEntity
  8
0
  6
Continuous
 62
     7
370
    15
100
AcDbLine
 10
-55.82434982024134
 20
11.25000044703484
 30
0.0
 11
-55.74934971481562
 21
11.09999977052212
 31
0.0
  0
LINE
  5
E91E
330
A
100
AcDbEntity
  8
0
  6
Continuous
 62
     7
370
    15
100
AcDbLine
 10
111.1756568312645
 20
11.09999977052212
 30
0.0
 11
111.6006528496742
 21
11.09999977052212
 31
0.0
  0
LINE
  5
E91F
330
A
100
AcDbEntity
  8
0
  6
Continuous
 62
     7
370
    15
100
AcDbLine
 10
111.6006528496742
 20
13.89999967068434
 30
0.0
 11
111.1756568312645
 21
13.89999967068434
 31
0.0
  0
LINE
  5
E920
330
A
100
AcDbEntity
  8
0
  6
Continuous
 62
     7
370
    15
100
AcDbLine
 10
111.6006528496742
 20
11.09999977052212
 30
0.0
 11
111.6756503939629
 21
11.25000044703484
 31
0.0
  0
LINE
  5
E921
330
A
100
AcDbEntity
  8
0
  6
Continuous
 62
     7
370
    15
100
AcDbLine
 10
111.6756503939629
 20
13.74999992549419
 30
0.0
 11
111.6006528496742
 21
13.89999967068434
 31
0.0
  0
LINE
  5
E922
330
A
100
AcDbEntity
  8
0
  6
Continuous
 62
     7
370
    15
100
AcDbLine
 10
111.6006528496742
 20
46.09999991953373
 30
0.0
 11
111.6756503939629
 21
46.25000059604645
 31
0.0
  0
LINE
  5
E923
330
A
100
AcDbEntity
  8
0
  6
Continuous
 62
     7
370
    15
100
AcDbLine
 10
111.6756503939629
 20
48.75000007450581
 30
0.0
 11
111.6006528496742
 21
48.90000075101852
 31
0.0
  0
LINE
  5
E924
330
A
100
AcDbEntity
  8
0
  6
Continuous
 62
     7
370
    15
100
AcDbLine
 10
111.1756568312645
 20
46.09999991953373
 30
0.0
 11
111.6006528496742
 21
46.09999991953373
 31
0.0
  0
LINE
  5
E925
330
A
100
AcDbEntity
  8
0
  6
Continuous
 62
     7
370
    15
100
AcDbLine
 10
111.6006528496742
 20
48.90000075101852
 30
0.0
 11
111.1756568312645
 21
48.90000075101852
 31
0.0
  0
LINE
  5
E926
330
A
100
AcDbEntity
  8
0
  6
Continuous
 62
     7
370
    15
100
AcDbLine
 10
-6.323985928297042
 20
-17.24999956786633
 30
0.0
 11
5.676012313365936
 21
-17.24999956786633
 31
0.0
  0
LINE
  5
E929
330
A
100
AcDbEntity
  8
0
  6
Continuous
 62
     7
370
    15
100
AcDbLine
 10
4.676014012098312
 20
-18.25000159442425
 30
0.0
 11
-5.323987627029419
 21
-18.25000159442425
 31
0.0
  0
LINE
  5
E92A
330
A
100
AcDbEntity
  8
0
  6
Continuous
 62
     7
370
    15
100
AcDbLine
 10
-55.74934971481562
 20
46.33868671953678
 30
0.0
 11
-55.74934971481562
 21
46.09999991953373
 31
0.0
  0
LINE
  5
E92B
330
A
100
AcDbEntity
  8
0
  6
Continuous
 62
     7
370
    15
100
AcDbLine
 10
-55.74934971481562
 20
48.90000075101852
 30
0.0
 11
-55.74934971481562
 21
46.33868671953678
 31
0.0
  0
LINE
  5
E92C
330
A
100
AcDbEntity
  8
0
  6
Continuous
 62
     7
370
    15
100
AcDbLine
 10
-55.82434982024134
 20
46.46311327815056
 30
0.0
 11
-55.82434982024134
 21
46.25000059604645
 31
0.0
  0
LINE
  5
E92D
330
A
100
AcDbEntity
  8
0
  6
Continuous
 62
     7
370
    15
100
AcDbLine
 10
-55.82434982024134
 20
48.75000007450581
 30
0.0
 11
-55.82434982024134
 21
46.46311327815056
 31
0.0
  0
LINE
  5
E92E
330
A
100
AcDbEntity
  8
0
  6
Continuous
 62
     7
370
    15
100
AcDbLine
 10
-55.74934971481562
 20
11.33868657052517
 30
0.0
 11
-55.74934971481562
 21
11.09999977052212
 31
0.0
  0
LINE
  5
E92F
330
A
100
AcDbEntity
  8
0
  6
Continuous
 62
     7
370
    15
100
AcDbLine
 10
-55.74934971481562
 20
13.89999967068434
 30
0.0
 11
-55.74934971481562
 21
11.33868657052517
 31
0.0
  0
LINE
  5
E930
330
A
100
AcDbEntity
  8
0
  6
Continuous
 62
     7
370
    15
100
AcDbLine
 10
-55.82434982024134
 20
11.46311312913895
 30
0.0
 11
-55.82434982024134
 21
11.25000044703484
 31
0.0
  0
LINE
  5
E931
330
A
100
AcDbEntity
  8
0
  6
Continuous
 62
     7
370
    15
100
AcDbLine
 10
-55.82434982024134
 20
13.74999992549419
 30
0.0
 11
-55.82434982024134
 21
11.46311312913895
 31
0.0
  0
LINE
  5
E932
330
A
100
AcDbEntity
  8
0
  6
Continuous
 62
     7
370
    15
100
AcDbLine
 10
111.6006528496742
 20
11.33391167968512
 30
0.0
 11
111.6006528496742
 21
13.89999967068434
 31
0.0
  0
LINE
  5
E933
330
A
100
AcDbEntity
  8
0
  6
Continuous
 62
     7
370
    15
100
AcDbLine
 10
111.6006528496742
 20
11.09999977052212
 30
0.0
 11
111.6006528496742
 21
11.33391167968512
 31
0.0
  0
LINE
  5
E934
330
A
100
AcDbEntity
  8
0
  6
Continuous
 62
     7
370
    15
100
AcDbLine
 10
111.6756503939629
 20
11.45885046571493
 30
0.0
 11
111.6756503939629
 21
13.74999992549419
 31
0.0
  0
LINE
  5
E935
330
A
100
AcDbEntity
  8
0
  6
Continuous
 62
     7
370
    15
100
AcDbLine
 10
111.6756503939629
 20
11.25000044703484
 30
0.0
 11
111.6756503939629
 21
11.45885046571493
 31
0.0
  0
LINE
  5
E936
330
A
100
AcDbEntity
  8
0
  6
Continuous
 62
     7
370
    15
100
AcDbLine
 10
111.6756503939629
 20
47.52223938703537
 30
0.0
 11
111.6756503939629
 21
48.75000007450581
 31
0.0
  0
LINE
  5
E937
330
A
100
AcDbEntity
  8
0
  6
Continuous
 62
     7
370
    15
100
AcDbLine
 10
111.6756503939629
 20
46.25000059604645
 30
0.0
 11
111.6756503939629
 21
47.52223938703537
 31
0.0
  0
LINE
  5
E938
330
A
100
AcDbEntity
  8
0
  6
Continuous
 62
     7
370
    15
100
AcDbLine
 10
111.6006528496742
 20
47.52490855753422
 30
0.0
 11
111.6006528496742
 21
48.90000075101852
 31
0.0
  0
LINE
  5
E939
330
A
100
AcDbEntity
  8
0
  6
Continuous
 62
     7
370
    15
100
AcDbLine
 10
111.6006528496742
 20
46.09999991953373
 30
0.0
 11
111.6006528496742
 21
47.52490855753422
 31
0.0
  0
LWPOLYLINE
  5
E93A
330
A
100
AcDbEntity
  8
0
  6
Continuous
 62
     7
370
    15
100
AcDbPolyline
 90
       10
 70
   128
 43
0.0
 10
111.1756568312645
 20
1.0807104408741
 10
111.1528580546379
 20
1.08708068728447
 10
111.0851918816566
 20
1.105997711420059
 10
110.9746848702431
 20
1.136884093284607
 10
110.8247195839882
 20
1.178806647658348
 10
110.6398259758949
 20
1.230485737323761
 10
110.4256515860558
 20
1.290354877710342
 10
110.18867841959
 20
1.356594264507294
 10
109.9361186385155
 20
1.427190378308296
 10
109.675646340847
 20
1.499999314546585
  0
LWPOLYLINE
  5
E93B
330
A
100
AcDbEntity
  8
0
  6
Continuous
 62
     7
370
    15
100
AcDbPolyline
 90
        9
 70
   128
 43
0.0
 10
111.1756568312645
 20
54.91928942501545
 10
111.1468230843544
 20
54.91123162209988
 10
111.061469233036
 20
54.88737113773823
 10
110.9228586316109
 20
54.84862811863422
 10
110.7363109946251
 20
54.79648150503635
 10
110.5090086817741
 20
54.73294295370579
 10
110.2496688723564
 20
54.66045625507832
 10
109.968290245533
 20
54.58180047571659
 10
109.675646340847
 20
54.50000055134296
  0
LINE
  5
E93C
330
A
100
AcDbEntity
  8
0
  6
Continuous
 62
     7
370
    15
100
AcDbLine
 10
111.1756568312645
 20
1.0807104408741
 30
0.0
 11
111.1756568312645
 21
54.91928942501545
 31
0.0
  0
LWPOLYLINE
  5
E93D
330
A
100
AcDbEntity
  8
0
  6
Continuous
 62
     7
370
    15
100
AcDbPolyline
 90
        9
 70
   128
 43
0.0
 10
110.1756548047066
 20
54.91928942501545
 10
110.1660435557365
 20
54.91123162209988
 10
110.1375972390175
 20
54.88737113773823
 10
110.0913887381554
 20
54.84862811863422
 10
110.0292061924934
 20
54.79648150503635
 10
109.9534337878227
 20
54.73294295370579
 10
109.8669921517372
 20
54.66045625507832
 10
109.7731893420219
 20
54.58180047571659
 10
109.675646340847
 20
54.50000055134296
  0
LINE
  5
E93E
330
A
100
AcDbEntity
  8
0
  6
Continuous
 62
     7
370
    15
100
AcDbLine
 10
111.1756568312645
 20
54.91928942501545
 30
0.0
 11
110.1756548047066
 21
54.91928942501545
 31
0.0
  0
LWPOLYLINE
  5
E93F
330
A
100
AcDbEntity
  8
0
  6
Continuous
 62
     7
370
    15
100
AcDbPolyline
 90
       10
 70
   128
 43
0.0
 10
-53.82434972524644
 20
54.50000055134296
 10
-53.89715855234535
 20
54.76047284901142
 10
-53.9677551245317
 20
55.01302890479565
 10
-54.03399438036141
 20
55.24999834597111
 10
-54.09386370992289
 20
55.46418018639088
 10
-54.14554399284535
 20
55.64906634390354
 10
-54.18746491740458
 20
55.79903908073902
 10
-54.21835281266831
 20
55.909538641572
 10
-54.23726910920814
 20
55.97721226513386
 10
-54.24363903547638
 20
55.99999986588955
  0
LINE
  5
E940
330
A
100
AcDbEntity
  8
0
  6
Continuous
 62
     7
370
    15
100
AcDbLine
 10
110.0949352145195
 20
55.99999986588955
 30
0.0
 11
-54.24363903547638
 21
55.99999986588955
 31
0.0
  0
LWPOLYLINE
  5
E941
330
A
100
AcDbEntity
  8
0
  6
Continuous
 62
     7
370
    15
100
AcDbPolyline
 90
       10
 70
   128
 43
0.0
 10
109.675646340847
 20
54.50000055134296
 10
109.7484534144402
 20
54.76047284901142
 10
109.8190551161766
 20
55.01302890479565
 10
109.8852907776833
 20
55.24999834597111
 10
109.9451636433601
 20
55.46418018639088
 10
109.9968408703804
 20
55.64906634390354
 10
110.0387727379799
 20
55.79903908073902
 10
110.0696479439735
 20
55.909538641572
 10
110.0885724186897
 20
55.97721226513386
 10
110.0949352145195
 20
55.99999986588955
  0
LWPOLYLINE
  5
E942
330
A
100
AcDbEntity
  8
0
  6
Continuous
 62
     7
370
    15
100
AcDbPolyline
 90
       10
 70
   128
 43
0.0
 10
109.675646340847
 20
54.50000055134296
 10
109.7484534144402
 20
54.58682589232922
 10
109.8190551161766
 20
54.67101000249386
 10
109.8852907776833
 20
54.75000105798244
 10
109.9451636433601
 20
54.82139252126217
 10
109.9968408703804
 20
54.88302372395992
 10
110.0387727379799
 20
54.93301339447498
 10
110.0696479439735
 20
54.96984533965588
 10
110.0885724186897
 20
54.99240569770336
 10
110.0949352145195
 20
55.00000156462193
  0
LINE
  5
E943
330
A
100
AcDbEntity
  8
0
  6
Continuous
 62
     7
370
    15
100
AcDbLine
 10
110.0949352145195
 20
55.99999986588955
 30
0.0
 11
110.0949352145195
 21
55.00000156462193
 31
0.0
  0
LWPOLYLINE
  5
E944
330
A
100
AcDbEntity
  8
0
  6
Continuous
 62
     7
370
    15
100
AcDbPolyline
 90
       10
 70
   128
 43
0.0
 10
-54.24363903547638
 20
0.0
 10
-54.23726910920814
 20
0.0227876007556915
 10
-54.21835281266831
 20
0.0904612243175507
 10
-54.18746491740458
 20
0.2009626477956772
 10
-54.14554399284535
 20
0.3509335219860077
 10
-54.09386370992289
 20
0.5358178168535233
 10
-54.03399438036141
 20
0.7499996572732925
 10
-53.9677551245317
 20
0.9869690984487534
 10
-53.89715855234535
 20
1.239527016878128
 10
-53.82434972524644
 20
1.499999314546585
  0
LWPOLYLINE
  5
E945
330
A
100
AcDbEntity
  8
0
  6
Continuous
 62
     7
370
    15
100
AcDbPolyline
 90
        9
 70
   128
 43
0.0
 10
109.675646340847
 20
1.499999314546585
 10
109.7574537158012
 20
1.207364723086357
 10
109.8361020445824
 20
0.9259749203920364
 10
109.9085961937904
 20
0.666644424200058
 10
109.972134745121
 20
0.4393402487039566
 10
110.0242739081383
 20
0.2527963370084763
 10
110.0630169272423
 20
0.1141801476478577
 10
110.0868885874748
 20
0.0288225710391998
 10
110.0949352145195
 20
0.0
  0
LINE
  5
E946
330
A
100
AcDbEntity
  8
0
  6
Continuous
 62
     7
370
    15
100
AcDbLine
 10
-54.24363903547638
 20
0.0
 30
0.0
 11
110.0949352145195
 21
0.0
 31
0.0
  0
LWPOLYLINE
  5
E947
330
A
100
AcDbEntity
  8
0
  6
Continuous
 62
     7
370
    15
100
AcDbPolyline
 90
        9
 70
   128
 43
0.0
 10
110.1756548047066
 20
1.0807104408741
 10
110.1660435557365
 20
1.088766381144524
 10
110.1375972390175
 20
1.112626865506172
 10
110.0913887381554
 20
1.151373609900475
 10
110.0292061924934
 20
1.203518360853195
 10
109.9534337878227
 20
1.267055049538612
 10
109.8669921517372
 20
1.339545473456383
 10
109.7731893420219
 20
1.418201252818108
 10
109.675646340847
 20
1.499999314546585
  0
LINE
  5
E948
330
A
100
AcDbEntity
  8
0
  6
Continuous
 62
     7
370
    15
100
AcDbLine
 10
111.1756568312645
 20
1.0807104408741
 30
0.0
 11
110.1756548047066
 21
1.0807104408741
 31
0.0
  0
LWPOLYLINE
  5
E949
330
A
100
AcDbEntity
  8
0
  6
Continuous
 62
     7
370
    15
100
AcDbPolyline
 90
        9
 70
   128
 43
0.0
 10
109.675646340847
 20
1.499999314546585
 10
109.7574537158012
 20
1.402454450726509
 10
109.8361020445824
 20
1.308659091591835
 10
109.9085961937904
 20
1.222215592861176
 10
109.972134745121
 20
1.146446913480759
 10
110.0242739081383
 20
1.084264367818832
 10
110.0630169272423
 20
1.038059592247009
 10
110.0868885874748
 20
1.009607687592506
 10
110.0949352145195
 20
1.000000163912773
  0
LINE
  5
E94A
330
A
100
AcDbEntity
  8
0
  6
Continuous
 62
     7
370
    15
100
AcDbLine
 10
110.0949352145195
 20
0.0
 30
0.0
 11
110.0949352145195
 21
1.000000163912773
 31
0.0
  0
LWPOLYLINE
  5
E94B
330
A
100
AcDbEntity
  8
0
  6
Continuous
 62
     7
370
    15
100
AcDbPolyline
 90
       10
 70
   128
 43
0.0
 10
-53.82434972524644
 20
54.50000055134296
 10
-53.89715855234535
 20
54.58682589232922
 10
-53.9677551245317
 20
54.67101000249386
 10
-54.03399438036141
 20
54.75000105798244
 10
-54.09386370992289
 20
54.82139252126217
 10
-54.14554399284535
 20
54.88302372395992
 10
-54.18746491740458
 20
54.93301339447498
 10
-54.21835281266831
 20
54.96984533965588
 10
-54.23726910920814
 20
54.99240569770336
 10
-54.24363903547638
 20
55.00000156462193
  0
LINE
  5
E94C
330
A
100
AcDbEntity
  8
0
  6
Continuous
 62
     7
370
    15
100
AcDbLine
 10
-54.24363903547638
 20
55.99999986588955
 30
0.0
 11
-54.24363903547638
 21
55.00000156462193
 31
0.0
  0
LWPOLYLINE
  5
E94D
330
A
100
AcDbEntity
  8
0
  6
Continuous
 62
     7
370
    15
100
AcDbPolyline
 90
        9
 70
   128
 43
0.0
 10
-55.32434973828496
 20
54.91928942501545
 10
-55.29552763290704
 20
54.91123162209988
 10
-55.21016900856048
 20
54.88737113773823
 10
-55.07155409976841
 20
54.84862811863422
 10
-54.88500983882695
 20
54.79648150503635
 10
-54.65770508125424
 20
54.73294295370579
 10
-54.39837487610058
 20
54.66045625507832
 10
-54.11698521892541
 20
54.58180047571659
 10
-53.82434972524644
 20
54.50000055134296
  0
LWPOLYLINE
  5
E94E
330
A
100
AcDbEntity
  8
0
  6
Continuous
 62
     7
370
    15
100
AcDbPolyline
 90
        9
 70
   128
 43
0.0
 10
-53.82434972524644
 20
1.499999314546585
 10
-54.11698521892541
 20
1.418201252818108
 10
-54.39837487610058
 20
1.339545473456383
 10
-54.65770508125424
 20
1.267055049538612
 10
-54.88500983882695
 20
1.203518360853195
 10
-55.07155409976841
 20
1.151373609900475
 10
-55.21016900856048
 20
1.112626865506172
 10
-55.29552763290704
 20
1.088766381144524
 10
-55.32434973828496
 20
1.0807104408741
  0
LINE
  5
E94F
330
A
100
AcDbEntity
  8
0
  6
Continuous
 62
     7
370
    15
100
AcDbLine
 10
-55.32434973828496
 20
54.91928942501545
 30
0.0
 11
-55.32434973828496
 21
1.0807104408741
 31
0.0
  0
LWPOLYLINE
  5
E950
330
A
100
AcDbEntity
  8
0
  6
Continuous
 62
     7
370
    15
100
AcDbPolyline
 90
       10
 70
   128
 43
0.0
 10
-54.32434974899517
 20
54.91928942501545
 10
-54.31675359103829
 20
54.91291917860508
 10
-54.29419602695854
 20
54.89400215446949
 10
-54.25736242285931
 20
54.86311577260494
 10
-54.20737193743699
 20
54.82119508087635
 10
-54.14574352870696
 20
54.76951412856579
 10
-54.0743497371208
 20
54.70964498817921
 10
-53.99535980212968
 20
54.64340560138226
 10
-53.91117381476798
 20
54.5728076249361
 10
-53.82434972524644
 20
54.50000055134296
  0
LINE
  5
E951
330
A
100
AcDbEntity
  8
0
  6
Continuous
 62
     7
370
    15
100
AcDbLine
 10
-55.32434973828496
 20
54.91928942501545
 30
0.0
 11
-54.32434974899517
 21
54.91928942501545
 31
0.0
  0
LWPOLYLINE
  5
E952
330
A
100
AcDbEntity
  8
0
  6
Continuous
 62
     7
370
    15
100
AcDbPolyline
 90
        9
 70
   128
 43
0.0
 10
-53.82434972524644
 20
1.499999314546585
 10
-53.92189488738077
 20
1.418201252818108
 10
-54.01569144704845
 20
1.339545473456383
 10
-54.10213484391571
 20
1.267055049538612
 10
-54.1779031158425
 20
1.203518360853195
 10
-54.24008452645504
 20
1.151373609900475
 10
-54.28628950575368
 20
1.112626865506172
 10
-54.31474234173074
 20
1.088766381144524
 10
-54.32434974899517
 20
1.0807104408741
  0
LINE
  5
E953
330
A
100
AcDbEntity
  8
0
  6
Continuous
 62
     7
370
    15
100
AcDbLine
 10
-55.32434973828496
 20
1.0807104408741
 30
0.0
 11
-54.32434974899517
 21
1.0807104408741
 31
0.0
  0
LWPOLYLINE
  5
E954
330
A
100
AcDbEntity
  8
0
  6
Continuous
 62
     7
370
    15
100
AcDbPolyline
 90
        9
 70
   128
 43
0.0
 10
-54.24363903547638
 20
1.000000163912773
 10
-54.23558251312934
 20
1.009607687592506
 10
-54.21172255263664
 20
1.038059592247009
 10
-54.17297604107299
 20
1.084264367818832
 10
-54.12083204681986
 20
1.146446913480759
 10
-54.05729439770803
 20
1.222215592861176
 10
-53.98480480324944
 20
1.308659091591835
 10
-53.90614901661174
 20
1.402454450726509
 10
-53.82434972524644
 20
1.499999314546585
  0
LINE
  5
E955
330
A
100
AcDbEntity
  8
0
  6
Continuous
 62
     7
370
    15
100
AcDbLine
 10
-54.24363903547638
 20
0.0
 30
0.0
 11
-54.24363903547638
 21
1.000000163912773
 31
0.0
  0
LINE
  5
E956
330
A
100
AcDbEntity
  8
0
  6
Continuous
 62
     8
370
     0
100
AcDbLine
 10
109.675646340847
 20
54.50000055134296
 30
0.0
 11
109.675646340847
 21
1.499999314546585
 31
0.0
  0
LINE
  5
E957
330
A
100
AcDbEntity
  8
0
  6
Continuous
 62
     8
370
     0
100
AcDbLine
 10
109.675646340847
 20
1.499999314546585
 30
0.0
 11
-53.82434972524644
 21
1.499999314546585
 31
0.0
  0
LINE
  5
E958
330
A
100
AcDbEntity
  8
0
  6
Continuous
 62
     8
370
     0
100
AcDbLine
 10
-53.82434972524644
 20
1.499999314546585
 30
0.0
 11
-53.82434972524644
 21
54.50000055134296
 31
0.0
  0
LINE
  5
E959
330
A
100
AcDbEntity
  8
0
  6
Continuous
 62
     8
370
     0
100
AcDbLine
 10
-53.82434972524644
 20
54.50000055134296
 30
0.0
 11
109.675646340847
 21
54.50000055134296
 31
0.0
  0
LINE
  5
E95A
330
A
100
AcDbEntity
  8
0
  6
Continuous
 62
     7
370
    15
100
AcDbLine
 10
-55.74934971481562
 20
100.3385022160313
 30
0.0
 11
-55.82434982024133
 21
100.1885024708412
 31
0.0
  0
LINE
  5
E95B
330
A
100
AcDbEntity
  8
0
  6
Continuous
 62
     7
370
    15
100
AcDbLine
 10
-55.82434982024133
 20
97.68850206105924
 30
0.0
 11
-55.74934971481562
 21
97.5385023158691
 31
0.0
  0
LINE
  5
E95C
330
A
100
AcDbEntity
  8
0
  6
Continuous
 62
     7
370
    15
100
AcDbLine
 10
-54.24363903547637
 20
100.3385022160313
 30
0.0
 11
-54.32434974899516
 21
100.3385022160313
 31
0.0
  0
LINE
  5
E95D
330
A
100
AcDbEntity
  8
0
  6
Continuous
 62
     7
370
    15
100
AcDbLine
 10
-55.32434973828495
 20
100.3385022160313
 30
0.0
 11
-55.74934971481562
 21
100.3385022160313
 31
0.0
  0
LINE
  5
E95E
330
A
100
AcDbEntity
  8
0
  6
Continuous
 62
     7
370
    15
100
AcDbLine
 10
-55.74934971481562
 20
97.5385023158691
 30
0.0
 11
-55.32434973828495
 21
97.5385023158691
 31
0.0
  0
LINE
  5
E95F
330
A
100
AcDbEntity
  8
0
  6
Continuous
 62
     7
370
    15
100
AcDbLine
 10
-54.32434974899516
 20
97.5385023158691
 30
0.0
 11
-54.24363903547637
 21
97.5385023158691
 31
0.0
  0
LINE
  5
E960
330
A
100
AcDbEntity
  8
0
  6
Continuous
 62
     7
370
    15
100
AcDbLine
 10
-55.74934971481562
 20
127.3385019850634
 30
0.0
 11
-55.82434982024133
 21
127.1885022398732
 31
0.0
  0
LINE
  5
E961
330
A
100
AcDbEntity
  8
0
  6
Continuous
 62
     7
370
    15
100
AcDbLine
 10
-55.82434982024133
 20
124.6885018300913
 30
0.0
 11
-55.74934971481562
 21
124.5385020849012
 31
0.0
  0
LINE
  5
E962
330
A
100
AcDbEntity
  8
0
  6
Continuous
 62
     7
370
    15
100
AcDbLine
 10
-54.24363903547637
 20
127.3385019850634
 30
0.0
 11
-54.32434974899516
 21
127.3385019850634
 31
0.0
  0
LINE
  5
E963
330
A
100
AcDbEntity
  8
0
  6
Continuous
 62
     7
370
    15
100
AcDbLine
 10
-55.32434973828495
 20
127.3385019850634
 30
0.0
 11
-55.74934971481562
 21
127.3385019850634
 31
0.0
  0
LINE
  5
E964
330
A
100
AcDbEntity
  8
0
  6
Continuous
 62
     7
370
    15
100
AcDbLine
 10
-55.74934971481562
 20
124.5385020849012
 30
0.0
 11
-55.32434973828495
 21
124.5385020849012
 31
0.0
  0
LINE
  5
E965
330
A
100
AcDbEntity
  8
0
  6
Continuous
 62
     7
370
    15
100
AcDbLine
 10
-54.32434974899516
 20
124.5385020849012
 30
0.0
 11
-54.24363903547637
 21
124.5385020849012
 31
0.0
  0
LINE
  5
E966
330
A
100
AcDbEntity
  8
0
  6
Continuous
 62
     7
370
    15
100
AcDbLine
 10
111.6006528496742
 20
124.5385020849012
 30
0.0
 11
111.6756503939629
 21
124.6885018300913
 31
0.0
  0
LINE
  5
E967
330
A
100
AcDbEntity
  8
0
  6
Continuous
 62
     7
370
    15
100
AcDbLine
 10
111.6756503939629
 20
127.1885022398732
 30
0.0
 11
111.6006528496742
 21
127.3385019850634
 31
0.0
  0
LINE
  5
E968
330
A
100
AcDbEntity
  8
0
  6
Continuous
 62
     7
370
    15
100
AcDbLine
 10
110.0949352145195
 20
124.5385020849012
 30
0.0
 11
110.1756548047066
 21
124.5385020849012
 31
0.0
  0
LINE
  5
E969
330
A
100
AcDbEntity
  8
0
  6
Continuous
 62
     7
370
    15
100
AcDbLine
 10
111.1756568312645
 20
124.5385020849012
 30
0.0
 11
111.6006528496742
 21
124.5385020849012
 31
0.0
  0
LINE
  5
E96A
330
A
100
AcDbEntity
  8
0
  6
Continuous
 62
     7
370
    15
100
AcDbLine
 10
111.6006528496742
 20
127.3385019850634
 30
0.0
 11
111.1756568312645
 21
127.3385019850634
 31
0.0
  0
LINE
  5
E96B
330
A
100
AcDbEntity
  8
0
  6
Continuous
 62
     7
370
    15
100
AcDbLine
 10
110.1756548047066
 20
127.3385019850634
 30
0.0
 11
110.0949352145195
 21
127.3385019850634
 31
0.0
  0
LINE
  5
E96C
330
A
100
AcDbEntity
  8
0
  6
Continuous
 62
     7
370
    15
100
AcDbLine
 10
111.6006528496742
 20
97.5385023158691
 30
0.0
 11
111.6756503939629
 21
97.68850206105924
 31
0.0
  0
LINE
  5
E96D
330
A
100
AcDbEntity
  8
0
  6
Continuous
 62
     7
370
    15
100
AcDbLine
 10
111.6756503939629
 20
100.1885024708412
 30
0.0
 11
111.6006528496742
 21
100.3385022160313
 31
0.0
  0
LINE
  5
E96E
330
A
100
AcDbEntity
  8
0
  6
Continuous
 62
     7
370
    15
100
AcDbLine
 10
110.0949352145195
 20
97.5385023158691
 30
0.0
 11
110.1756548047066
 21
97.5385023158691
 31
0.0
  0
LINE
  5
E96F
330
A
100
AcDbEntity
  8
0
  6
Continuous
 62
     7
370
    15
100
AcDbLine
 10
111.1756568312645
 20
97.5385023158691
 30
0.0
 11
111.6006528496742
 21
97.5385023158691
 31
0.0
  0
LINE
  5
E970
330
A
100
AcDbEntity
  8
0
  6
Continuous
 62
     7
370
    15
100
AcDbLine
 10
111.6006528496742
 20
100.3385022160313
 30
0.0
 11
111.1756568312645
 21
100.3385022160313
 31
0.0
  0
LINE
  5
E971
330
A
100
AcDbEntity
  8
0
  6
Continuous
 62
     7
370
    15
100
AcDbLine
 10
110.1756548047066
 20
100.3385022160313
 30
0.0
 11
110.0949352145195
 21
100.3385022160313
 31
0.0
  0
LINE
  5
E972
330
A
100
AcDbEntity
  8
0
  6
Continuous
 62
     7
370
    15
100
AcDbLine
 10
40.52601451889072
 20
117.7858727861844
 30
0.0
 11
40.52601451889072
 21
119.6385020267866
 31
0.0
  0
LINE
  5
E973
330
A
100
AcDbEntity
  8
0
  6
Continuous
 62
     7
370
    15
100
AcDbLine
 10
30.5260166050533
 20
119.6385020267866
 30
0.0
 11
30.5260166050533
 21
117.7858727861844
 31
0.0
  0
LINE
  5
E974
330
A
100
AcDbEntity
  8
0
  6
Continuous
 62
     7
370
    15
100
AcDbLine
 10
32.52601320758855
 20
108.6885022342852
 30
0.0
 11
32.52601320758855
 21
108.5385022562644
 31
0.0
  0
LINE
  5
E975
330
A
100
AcDbEntity
  8
0
  6
Continuous
 62
     7
370
    15
100
AcDbLine
 10
38.52601046577489
 20
108.5385022562644
 30
0.0
 11
38.52601046577489
 21
108.6885022342852
 31
0.0
  0
LINE
  5
E976
330
A
100
AcDbEntity
  8
0
  6
Continuous
 62
     7
370
    15
100
AcDbLine
 10
-28.97398662849868
 20
107.0848311175308
 30
0.0
 11
-28.97398662849868
 21
105.2385022741458
 31
0.0
  0
LINE
  5
E977
330
A
100
AcDbEntity
  8
0
  6
Continuous
 62
     7
370
    15
100
AcDbLine
 10
-18.9739868520161
 20
105.2385022741458
 30
0.0
 11
-18.9739868520161
 21
107.0848311175308
 31
0.0
  0
LINE
  5
E978
330
A
100
AcDbEntity
  8
0
  6
Continuous
 62
     7
370
    15
100
AcDbLine
 10
-20.97398717984164
 20
116.1885020666472
 30
0.0
 11
-20.97398717984164
 21
116.338502044668
 31
0.0
  0
LINE
  5
E979
330
A
100
AcDbEntity
  8
0
  6
Continuous
 62
     7
370
    15
100
AcDbLine
 10
-26.97398630067313
 20
116.338502044668
 30
0.0
 11
-26.97398630067313
 21
116.1885020666472
 31
0.0
  0
LINE
  5
E97A
330
A
100
AcDbEntity
  8
0
  6
Continuous
 62
     7
370
    15
100
AcDbLine
 10
-29.47398764177764
 20
108.684830960696
 30
0.0
 11
-29.47398764177764
 21
107.0848311175308
 31
0.0
  0
LINE
  5
E97B
330
A
100
AcDbEntity
  8
0
  6
Continuous
 62
     7
370
    15
100
AcDbLine
 10
-18.47398583873713
 20
107.0848311175308
 30
0.0
 11
-18.47398583873713
 21
108.684830960696
 31
0.0
  0
LINE
  5
E97C
330
A
100
AcDbEntity
  8
0
  6
Continuous
 62
     7
370
    15
100
AcDbLine
 10
30.02601559177434
 20
117.7858727861844
 30
0.0
 11
30.02601559177434
 21
116.1858724773578
 31
0.0
  0
LINE
  5
E97D
330
A
100
AcDbEntity
  8
0
  6
Continuous
 62
     7
370
    15
100
AcDbLine
 10
41.0260155321697
 20
116.1858724773578
 30
0.0
 11
41.0260155321697
 21
117.7858727861844
 31
0.0
  0
CIRCLE
  5
E97E
330
A
100
AcDbEntity
  8
0
  6
Continuous
 62
     7
370
    15
100
AcDbCircle
 10
-0.323986807465638
 20
112.4385021504662
 30
0.0
 40
6.000000000000006
  0
CIRCLE
  5
E97F
330
A
100
AcDbEntity
  8
0
  6
Continuous
 62
     7
370
    15
100
AcDbCircle
 10
-0.323986807465638
 20
112.4385021504662
 30
0.0
 40
4.999999999999995
  0
LINE
  5
E980
330
A
100
AcDbEntity
  8
0
  6
Continuous
 62
     7
370
    15
100
AcDbLine
 10
14.22075573221242
 20
104.4385017704866
 30
0.0
 11
-14.32398688181842
 21
104.4385017704866
 31
0.0
  0
LWPOLYLINE
  5
E981
330
A
100
AcDbEntity
  8
0
  6
Continuous
 62
     7
370
    15
100
AcDbPolyline
 90
        3
 70
   128
 43
0.0
 10
25.15580896154439
 20
105.2385022741458
 10
25.15679988876378
 20
105.2434117410979
 10
25.17601493612325
 20
105.4385019343993
  0
LINE
  5
E982
330
A
100
AcDbEntity
  8
0
  6
Continuous
 62
     7
370
    15
100
AcDbLine
 10
25.17601493612325
 20
119.4385023665331
 30
0.0
 11
25.17601493612325
 21
105.4385019343993
 31
0.0
  0
LWPOLYLINE
  5
E983
330
A
100
AcDbEntity
  8
0
  6
Continuous
 62
     7
370
    15
100
AcDbPolyline
 90
        3
 70
   128
 43
0.0
 10
-15.32398518308604
 20
105.4385019343993
 10
-15.30477386101687
 20
105.2434117410979
 10
-15.28689246758426
 20
105.1686619286141
  0
ARC
  5
E984
330
A
100
AcDbEntity
  8
0
  6
Continuous
 62
     7
370
    15
100
AcDbCircle
 10
-14.32398680746563
 20
105.4385021504662
 30
0.0
 40
1.000000000000004
100
AcDbArc
 50
222.5946157321306
 51
270.0
  0
LINE
  5
E985
330
A
100
AcDbEntity
  8
0
  6
Continuous
 62
     7
370
    15
100
AcDbLine
 10
-15.32398518308604
 20
105.4385019343993
 30
0.0
 11
-15.32398518308604
 21
119.4385023665331
 31
0.0
  0
LWPOLYLINE
  5
E986
330
A
100
AcDbEntity
  8
0
  6
Continuous
 62
     7
370
    15
100
AcDbPolyline
 90
        3
 70
   128
 43
0.0
 10
25.17601493612325
 20
119.4385023665331
 10
25.15679988876378
 20
119.6335925598345
 10
25.15580896154439
 20
119.6385020267866
  0
LINE
  5
E987
330
A
100
AcDbEntity
  8
0
  6
Continuous
 62
     7
370
    15
100
AcDbLine
 10
-14.32398688181842
 20
120.4385025304459
 30
0.0
 11
14.22075573221242
 21
120.4385025304459
 31
0.0
  0
ARC
  5
E988
330
A
100
AcDbEntity
  8
0
  6
Continuous
 62
     7
370
    15
100
AcDbCircle
 10
-14.32398680746563
 20
119.4385021504663
 30
0.0
 40
1.000000000000001
100
AcDbArc
 50
90.0
 51
137.4053842678692
  0
LWPOLYLINE
  5
E989
330
A
100
AcDbEntity
  8
0
  6
Continuous
 62
     7
370
    15
100
AcDbPolyline
 90
        3
 70
   128
 43
0.0
 10
-15.28689246758426
 20
119.7083423723183
 10
-15.30477386101687
 20
119.6335925598345
 10
-15.32398518308604
 20
119.4385023665331
  0
LINE
  5
E98A
330
A
100
AcDbEntity
  8
0
  6
Continuous
 62
     7
370
    15
100
AcDbLine
 10
11.81608084455524
 20
101.3385023799441
 30
0.0
 11
-12.46477645024264
 21
101.3385023799441
 31
0.0
  0
LINE
  5
E98B
330
A
100
AcDbEntity
  8
0
  6
Continuous
 62
     7
370
    15
100
AcDbLine
 10
43.02601213470494
 20
108.5385022562644
 30
0.0
 11
25.17601493612325
 21
108.5385022562644
 31
0.0
  0
LINE
  5
E98C
330
A
100
AcDbEntity
  8
0
  6
Continuous
 62
     7
370
    15
100
AcDbLine
 10
44.02601416126287
 20
108.5385022562644
 30
0.0
 11
44.02601416126287
 21
105.2385022741458
 31
0.0
  0
LINE
  5
E98D
330
A
100
AcDbEntity
  8
0
  6
Continuous
 62
     7
370
    15
100
AcDbLine
 10
43.02601213470494
 20
108.5385022562644
 30
0.0
 11
44.02601416126287
 21
108.5385022562644
 31
0.0
  0
LINE
  5
E98E
330
A
100
AcDbEntity
  8
0
  6
Continuous
 62
     7
370
    15
100
AcDbLine
 10
-15.32398518308604
 20
105.2378224086663
 30
0.0
 11
-15.32398518308604
 21
105.4385019343993
 31
0.0
  0
LINE
  5
E98F
330
A
100
AcDbEntity
  8
0
  6
Continuous
 62
     7
370
    15
100
AcDbLine
 10
-32.32398610695805
 20
116.338502044668
 30
0.0
 11
-15.32398518308604
 21
116.338502044668
 31
0.0
  0
LINE
  5
E990
330
A
100
AcDbEntity
  8
0
  6
Continuous
 62
     7
370
    15
100
AcDbLine
 10
25.17601493612325
 20
119.6385020267866
 30
0.0
 11
25.17601493612325
 21
119.4385023665331
 31
0.0
  0
LINE
  5
E991
330
A
100
AcDbEntity
  8
0
  6
Continuous
 62
     7
370
    15
100
AcDbLine
 10
-32.47398627087081
 20
116.338502044668
 30
0.0
 11
-32.47398627087081
 21
119.6385020267866
 31
0.0
  0
LINE
  5
E992
330
A
100
AcDbEntity
  8
0
  6
Continuous
 62
     7
370
    15
100
AcDbLine
 10
-31.47398610695805
 20
116.338502044668
 30
0.0
 11
-32.47398627087081
 21
116.338502044668
 31
0.0
  0
LINE
  5
E993
330
A
100
AcDbEntity
  8
0
  6
Continuous
 62
     7
370
    15
100
AcDbLine
 10
-12.46477645024264
 20
123.5385019209884
 30
0.0
 11
11.81608084455524
 21
123.5385019209884
 31
0.0
  0
LINE
  5
E994
330
A
100
AcDbEntity
  8
0
  6
Continuous
 62
     7
370
    15
100
AcDbLine
 10
-53.57434971337207
 20
107.1885022212467
 30
0.0
 11
-53.57434971337207
 21
106.1885020573339
 31
0.0
  0
LINE
  5
E995
330
A
100
AcDbEntity
  8
0
  6
Continuous
 62
     7
370
    15
100
AcDbLine
 10
-53.57434971337207
 20
107.1885022212467
 30
0.0
 11
-51.57434982210398
 21
107.1885022212467
 31
0.0
  0
LINE
  5
E996
330
A
100
AcDbEntity
  8
0
  6
Continuous
 62
     7
370
    15
100
AcDbLine
 10
-51.57434982210398
 20
116.1885020666472
 30
0.0
 11
-51.57434982210398
 21
107.1885022212467
 31
0.0
  0
LINE
  5
E997
330
A
100
AcDbEntity
  8
0
  6
Continuous
 62
     7
370
    15
100
AcDbLine
 10
-51.57434982210398
 20
116.1885020666472
 30
0.0
 11
-50.5743496581912
 21
116.1885020666472
 31
0.0
  0
LINE
  5
E998
330
A
100
AcDbEntity
  8
0
  6
Continuous
 62
     7
370
    15
100
AcDbLine
 10
-50.5743496581912
 20
116.1885020666472
 30
0.0
 11
-50.5743496581912
 21
106.1885020573339
 31
0.0
  0
LINE
  5
E999
330
A
100
AcDbEntity
  8
0
  6
Continuous
 62
     7
370
    15
100
AcDbLine
 10
-53.57434971337207
 20
106.1885020573339
 30
0.0
 11
-50.5743496581912
 21
106.1885020573339
 31
0.0
  0
LINE
  5
E99A
330
A
100
AcDbEntity
  8
0
  6
Continuous
 62
     7
370
    15
100
AcDbLine
 10
99.92565265893936
 20
116.1885020666472
 30
0.0
 11
99.92565265893936
 21
106.1885020573339
 31
0.0
  0
LINE
  5
E99B
330
A
100
AcDbEntity
  8
0
  6
Continuous
 62
     7
370
    15
100
AcDbLine
 10
99.92565265893936
 20
116.1885020666472
 30
0.0
 11
100.9256546854973
 21
116.1885020666472
 31
0.0
  0
LINE
  5
E99C
330
A
100
AcDbEntity
  8
0
  6
Continuous
 62
     7
370
    15
100
AcDbLine
 10
100.9256546854973
 20
116.1885020666472
 30
0.0
 11
100.9256546854973
 21
107.1885022212467
 31
0.0
  0
LINE
  5
E99D
330
A
100
AcDbEntity
  8
0
  6
Continuous
 62
     7
370
    15
100
AcDbLine
 10
109.4256495594978
 20
107.1885022212467
 30
0.0
 11
109.4256495594978
 21
106.1885020573339
 31
0.0
  0
LINE
  5
E99E
330
A
100
AcDbEntity
  8
0
  6
Continuous
 62
     7
370
    15
100
AcDbLine
 10
99.92565265893936
 20
106.1885020573339
 30
0.0
 11
109.4256495594978
 21
106.1885020573339
 31
0.0
  0
LINE
  5
E99F
330
A
100
AcDbEntity
  8
0
  6
Continuous
 62
     7
370
    15
100
AcDbLine
 10
100.9256546854973
 20
107.1885022212467
 30
0.0
 11
109.4256495594978
 21
107.1885022212467
 31
0.0
  0
LINE
  5
E9A0
330
A
100
AcDbEntity
  8
0
  6
Continuous
 62
     7
370
    15
100
AcDbLine
 10
-50.5743496581912
 20
116.1885020666472
 30
0.0
 11
-50.32434961721301
 21
116.1885020666472
 31
0.0
  0
LINE
  5
E9A1
330
A
100
AcDbEntity
  8
0
  6
Continuous
 62
     7
370
    15
100
AcDbLine
 10
-50.32434961721301
 20
106.1885020573339
 30
0.0
 11
-50.5743496581912
 21
106.1885020573339
 31
0.0
  0
LINE
  5
E9A2
330
A
100
AcDbEntity
  8
0
  6
Continuous
 62
     7
370
    15
100
AcDbLine
 10
99.67565587759017
 20
116.1885020666472
 30
0.0
 11
99.92565265893936
 21
116.1885020666472
 31
0.0
  0
LINE
  5
E9A3
330
A
100
AcDbEntity
  8
0
  6
Continuous
 62
     7
370
    15
100
AcDbLine
 10
100.8756463885307
 20
118.6885022435985
 30
0.0
 11
108.3756541371346
 21
118.6885022435985
 31
0.0
  0
LINE
  5
E9A4
330
A
100
AcDbEntity
  8
0
  6
Continuous
 62
     7
370
    15
100
AcDbLine
 10
109.3756561636925
 20
119.6385020267866
 30
0.0
 11
109.3756561636925
 21
118.6885022435985
 31
0.0
  0
LINE
  5
E9A5
330
A
100
AcDbEntity
  8
0
  6
Continuous
 62
     7
370
    15
100
AcDbLine
 10
109.3756561636925
 20
118.6885022435985
 30
0.0
 11
108.3756541371346
 21
118.6885022435985
 31
0.0
  0
LINE
  5
E9A6
330
A
100
AcDbEntity
  8
0
  6
Continuous
 62
     7
370
    15
100
AcDbLine
 10
100.8756463885307
 20
118.6885022435985
 30
0.0
 11
99.8756443619728
 21
118.6885022435985
 31
0.0
  0
LINE
  5
E9A7
330
A
100
AcDbEntity
  8
0
  6
Continuous
 62
     7
370
    15
100
AcDbLine
 10
99.8756443619728
 20
118.6885022435985
 30
0.0
 11
99.8756443619728
 21
119.6385020267866
 31
0.0
  0
LINE
  5
E9A8
330
A
100
AcDbEntity
  8
0
  6
Continuous
 62
     7
370
    15
100
AcDbLine
 10
99.8756443619728
 20
118.6885022435985
 30
0.0
 11
99.67565587759017
 21
118.6885022435985
 31
0.0
  0
LINE
  5
E9A9
330
A
100
AcDbEntity
  8
0
  6
Continuous
 62
     7
370
    15
100
AcDbLine
 10
-52.62434966824949
 20
118.6885022435985
 30
0.0
 11
-50.32434961721301
 21
118.6885022435985
 31
0.0
  0
LINE
  5
E9AA
330
A
100
AcDbEntity
  8
0
  6
Continuous
 62
     7
370
    15
100
AcDbLine
 10
-53.62434973029885
 20
118.6885022435985
 30
0.0
 11
-53.62434973029885
 21
119.6385020267866
 31
0.0
  0
LINE
  5
E9AB
330
A
100
AcDbEntity
  8
0
  6
Continuous
 62
     7
370
    15
100
AcDbLine
 10
-52.62434966824949
 20
118.6885022435985
 30
0.0
 11
-53.62434973029885
 21
118.6885022435985
 31
0.0
  0
LINE
  5
E9AC
330
A
100
AcDbEntity
  8
0
  6
Continuous
 62
     7
370
    15
100
AcDbLine
 10
100.8756463885307
 20
106.1885020573339
 30
0.0
 11
108.3756541371346
 21
106.1885020573339
 31
0.0
  0
LINE
  5
E9AD
330
A
100
AcDbEntity
  8
0
  6
Continuous
 62
     7
370
    15
100
AcDbLine
 10
99.8756443619728
 20
105.2385022741458
 30
0.0
 11
99.8756443619728
 21
106.1885020573339
 31
0.0
  0
LINE
  5
E9AE
330
A
100
AcDbEntity
  8
0
  6
Continuous
 62
     7
370
    15
100
AcDbLine
 10
99.8756443619728
 20
106.1885020573339
 30
0.0
 11
99.92565265893936
 21
106.1885020573339
 31
0.0
  0
LINE
  5
E9AF
330
A
100
AcDbEntity
  8
0
  6
Continuous
 62
     7
370
    15
100
AcDbLine
 10
109.3756561636925
 20
106.1885020573339
 30
0.0
 11
109.3756561636925
 21
105.2385022741458
 31
0.0
  0
LINE
  5
E9B0
330
A
100
AcDbEntity
  8
0
  6
Continuous
 62
     7
370
    15
100
AcDbLine
 10
99.67565587759017
 20
106.1885020573339
 30
0.0
 11
99.8756443619728
 21
106.1885020573339
 31
0.0
  0
LINE
  5
E9B1
330
A
100
AcDbEntity
  8
0
  6
Continuous
 62
     7
370
    15
100
AcDbLine
 10
-53.62434973029885
 20
105.2385022741458
 30
0.0
 11
-53.62434973029885
 21
106.1885020573339
 31
0.0
  0
LINE
  5
E9B2
330
A
100
AcDbEntity
  8
0
  6
Continuous
 62
     7
370
    15
100
AcDbLine
 10
-53.62434973029885
 20
106.1885020573339
 30
0.0
 11
-53.57434971337207
 21
106.1885020573339
 31
0.0
  0
LINE
  5
E9B3
330
A
100
AcDbEntity
  8
0
  6
Continuous
 62
     7
370
    15
100
AcDbLine
 10
-55.82434982024133
 20
99.63661747693038
 30
0.0
 11
-55.82434982024133
 21
97.68850206105924
 31
0.0
  0
LINE
  5
E9B4
330
A
100
AcDbEntity
  8
0
  6
Continuous
 62
     7
370
    15
100
AcDbLine
 10
-55.82434982024133
 20
100.1885024708412
 30
0.0
 11
-55.82434982024133
 21
99.63661747693038
 31
0.0
  0
LINE
  5
E9B5
330
A
100
AcDbEntity
  8
0
  6
Continuous
 62
     7
370
    15
100
AcDbLine
 10
-55.74934971481562
 20
99.7203918051622
 30
0.0
 11
-55.74934971481562
 21
97.5385023158691
 31
0.0
  0
LINE
  5
E9B6
330
A
100
AcDbEntity
  8
0
  6
Continuous
 62
     7
370
    15
100
AcDbLine
 10
-55.74934971481562
 20
100.3385022160313
 30
0.0
 11
-55.74934971481562
 21
99.7203918051622
 31
0.0
  0
LINE
  5
E9B7
330
A
100
AcDbEntity
  8
0
  6
Continuous
 62
     7
370
    15
100
AcDbLine
 10
-55.82434982024133
 20
126.6366172459624
 30
0.0
 11
-55.82434982024133
 21
124.6885018300913
 31
0.0
  0
LINE
  5
E9B8
330
A
100
AcDbEntity
  8
0
  6
Continuous
 62
     7
370
    15
100
AcDbLine
 10
-55.82434982024133
 20
127.1885022398732
 30
0.0
 11
-55.82434982024133
 21
126.6366172459624
 31
0.0
  0
LINE
  5
E9B9
330
A
100
AcDbEntity
  8
0
  6
Continuous
 62
     7
370
    15
100
AcDbLine
 10
-55.74934971481562
 20
126.7203915741943
 30
0.0
 11
-55.74934971481562
 21
124.5385020849012
 31
0.0
  0
LINE
  5
E9BA
330
A
100
AcDbEntity
  8
0
  6
Continuous
 62
     7
370
    15
100
AcDbLine
 10
-55.74934971481562
 20
127.3385019850634
 30
0.0
 11
-55.74934971481562
 21
126.7203915741943
 31
0.0
  0
LINE
  5
E9BB
330
A
100
AcDbEntity
  8
0
  6
Continuous
 62
     7
370
    15
100
AcDbLine
 10
111.6756503939629
 20
126.6302442055843
 30
0.0
 11
111.6756503939629
 21
127.1885022398732
 31
0.0
  0
LINE
  5
E9BC
330
A
100
AcDbEntity
  8
0
  6
Continuous
 62
     7
370
    15
100
AcDbLine
 10
111.6756503939629
 20
124.6885018300913
 30
0.0
 11
111.6756503939629
 21
126.6302442055843
 31
0.0
  0
LINE
  5
E9BD
330
A
100
AcDbEntity
  8
0
  6
Continuous
 62
     7
370
    15
100
AcDbLine
 10
111.6006528496742
 20
126.7132529866598
 30
0.0
 11
111.6006528496742
 21
127.3385019850634
 31
0.0
  0
LINE
  5
E9BE
330
A
100
AcDbEntity
  8
0
  6
Continuous
 62
     7
370
    15
100
AcDbLine
 10
111.6006528496742
 20
124.5385020849012
 30
0.0
 11
111.6006528496742
 21
126.7132529866598
 31
0.0
  0
LINE
  5
E9BF
330
A
100
AcDbEntity
  8
0
  6
Continuous
 62
     7
370
    15
100
AcDbLine
 10
111.6756503939629
 20
97.68850206105924
 30
0.0
 11
111.6756503939629
 21
100.1883040991328
 31
0.0
  0
LINE
  5
E9C0
330
A
100
AcDbEntity
  8
0
  6
Continuous
 62
     7
370
    15
100
AcDbLine
 10
111.6006528496742
 20
97.5385023158691
 30
0.0
 11
111.6006528496742
 21
100.3382805612586
 31
0.0
  0
LINE
  5
E9C1
330
A
100
AcDbEntity
  8
0
  6
Continuous
 62
     7
370
    15
100
AcDbLine
 10
-18.54828675373996
 20
107.0848311175308
 30
0.0
 11
-18.47398583873713
 21
107.0848311175308
 31
0.0
  0
LINE
  5
E9C2
330
A
100
AcDbEntity
  8
0
  6
Continuous
 62
     7
370
    15
100
AcDbLine
 10
-29.47398764177764
 20
107.0848311175308
 30
0.0
 11
-18.54828675373996
 21
107.0848311175308
 31
0.0
  0
LINE
  5
E9C3
330
A
100
AcDbEntity
  8
0
  6
Continuous
 62
     7
370
    15
100
AcDbLine
 10
30.02601559177434
 20
117.7858727861844
 30
0.0
 11
41.0260155321697
 21
117.7858727861844
 31
0.0
  0
LINE
  5
E9C4
330
A
100
AcDbEntity
  8
0
  6
Continuous
 62
     7
370
    15
100
AcDbLine
 10
-54.24363903547637
 20
129.6385027345918
 30
0.0
 11
-54.24363903547637
 21
119.6385020267866
 31
0.0
  0
LINE
  5
E9C5
330
A
100
AcDbEntity
  8
0
  6
Continuous
 62
     7
370
    15
100
AcDbLine
 10
110.0949352145195
 20
119.6385020267866
 30
0.0
 11
110.0949352145195
 21
129.6385027345918
 31
0.0
  0
LINE
  5
E9C6
330
A
100
AcDbEntity
  8
0
  6
Continuous
 62
     7
370
    15
100
AcDbLine
 10
110.0949352145195
 20
119.6385020267866
 30
0.0
 11
15.5256509305576
 21
119.6385020267866
 31
0.0
  0
ARC
  5
E9C7
330
A
100
AcDbEntity
  8
0
  6
Continuous
 62
     7
370
    15
100
AcDbCircle
 10
-0.324349367465623
 20
111.6385021504662
 30
0.0
 40
17.00000000000004
100
AcDbArc
 50
28.07248693585312
 51
151.9275130641469
  0
LINE
  5
E9C8
330
A
100
AcDbEntity
  8
0
  6
Continuous
 62
     7
370
    15
100
AcDbLine
 10
-15.32435026153529
 20
119.6385020267866
 30
0.0
 11
-55.09363903547637
 21
119.6385020267866
 31
0.0
  0
ELLIPSE
  5
E9C9
330
A
100
AcDbEntity
  8
0
  6
Continuous
 62
     7
370
    15
100
AcDbEllipse
 10
-53.82434972524643
 20
129.6385021504662
 30
0.0
 11
0.0
 21
1.500000000000057
 31
0.0
210
0.0
220
0.0
230
1.0
 40
0.2795262145875472
 41
0.0
 42
1.570796326794897
  0
LINE
  5
E9CA
330
A
100
AcDbEntity
  8
0
  6
Continuous
 62
     7
370
    15
100
AcDbLine
 10
109.675646340847
 20
131.1385020491384
 30
0.0
 11
-53.82434972524643
 21
131.1385020491384
 31
0.0
  0
ELLIPSE
  5
E9CB
330
A
100
AcDbEntity
  8
0
  6
Continuous
 62
     7
370
    15
100
AcDbEllipse
 10
109.6756502747536
 20
129.6385021504663
 30
0.0
 11
0.0
 21
1.5
 31
0.0
210
0.0
220
0.0
230
1.0
 40
0.279526214587501
 41
4.712388980384693
 42
6.283185307179586
  0
LINE
  5
E9CC
330
A
100
AcDbEntity
  8
0
  6
Continuous
 62
     7
370
    15
100
AcDbLine
 10
110.1756548047066
 20
129.6385027345918
 30
0.0
 11
110.1756548047066
 21
119.6385020267866
 31
0.0
  0
LINE
  5
E9CD
330
A
100
AcDbEntity
  8
0
  6
Continuous
 62
     7
370
    15
100
AcDbLine
 10
111.1756568312645
 20
129.6385027345918
 30
0.0
 11
111.1756568312645
 21
119.6385020267866
 31
0.0
  0
LINE
  5
E9CE
330
A
100
AcDbEntity
  8
0
  6
Continuous
 62
     7
370
    15
100
AcDbLine
 10
111.1756568312645
 20
119.6385020267866
 30
0.0
 11
110.1756548047066
 21
119.6385020267866
 31
0.0
  0
LINE
  5
E9CF
330
A
100
AcDbEntity
  8
0
  6
Continuous
 62
     7
370
    15
100
AcDbLine
 10
-55.32434973828495
 20
119.6385020267866
 30
0.0
 11
-55.32434973828495
 21
129.6385027345918
 31
0.0
  0
LINE
  5
E9D0
330
A
100
AcDbEntity
  8
0
  6
Continuous
 62
     7
370
    15
100
AcDbLine
 10
-54.32434974899516
 20
119.6385020267866
 30
0.0
 11
-54.32434974899516
 21
129.6385027345918
 31
0.0
  0
LINE
  5
E9D1
330
A
100
AcDbEntity
  8
0
  6
Continuous
 62
     7
370
    15
100
AcDbLine
 10
-55.32434973828495
 20
119.6385020267866
 30
0.0
 11
-54.32434974899516
 21
119.6385020267866
 31
0.0
  0
ARC
  5
E9D2
330
A
100
AcDbEntity
  8
0
  6
Continuous
 62
     7
370
    15
100
AcDbCircle
 10
109.6756502747536
 20
129.6385021504663
 30
0.0
 40
1.5
100
AcDbArc
 50
0.0
 51
90.0
  0
ARC
  5
E9D3
330
A
100
AcDbEntity
  8
0
  6
Continuous
 62
     7
370
    15
100
AcDbCircle
 10
109.6756502747536
 20
129.6385021504663
 30
0.0
 40
0.4999999999999939
100
AcDbArc
 50
0.0
 51
34.56898942947466
  0
ARC
  5
E9D4
330
A
100
AcDbEntity
  8
0
  6
Continuous
 62
     7
370
    15
100
AcDbCircle
 10
-53.82434972524643
 20
129.6385021504662
 30
0.0
 40
1.500000000000057
100
AcDbArc
 50
90.0
 51
180.0
  0
ARC
  5
E9D5
330
A
100
AcDbEntity
  8
0
  6
Continuous
 62
     7
370
    15
100
AcDbCircle
 10
-53.82434972524643
 20
129.6385021504662
 30
0.0
 40
0.5000000000000184
100
AcDbArc
 50
145.4310105707047
 51
180.0
  0
ELLIPSE
  5
E9D6
330
A
100
AcDbEntity
  8
0
  6
Continuous
 62
     7
370
    15
100
AcDbEllipse
 10
-53.82434972524643
 20
95.23850215046622
 30
0.0
 11
0.0
 21
1.5
 31
0.0
210
0.0
220
0.0
230
1.0
 40
0.2795262145875578
 41
1.570796326794897
 42
3.141592653589793
  0
ELLIPSE
  5
E9D7
330
A
100
AcDbEntity
  8
0
  6
Continuous
 62
     7
370
    15
100
AcDbEllipse
 10
109.6756502747536
 20
95.23850215046622
 30
0.0
 11
0.0
 21
1.5
 31
0.0
210
0.0
220
0.0
230
1.0
 40
0.2795262145875388
 41
3.141592653589978
 42
4.712388980384693
  0
LINE
  5
E9D8
330
A
100
AcDbEntity
  8
0
  6
Continuous
 62
     7
370
    15
100
AcDbLine
 10
-53.82434972524643
 20
93.7385022517941
 30
0.0
 11
109.675646340847
 21
93.7385022517941
 31
0.0
  0
LINE
  5
E9D9
330
A
100
AcDbEntity
  8
0
  6
Continuous
 62
     7
370
    15
100
AcDbLine
 10
110.0949352145195
 20
95.23850156634069
 30
0.0
 11
110.0949352145195
 21
105.2385022741458
 31
0.0
  0
LINE
  5
E9DA
330
A
100
AcDbEntity
  8
0
  6
Continuous
 62
     7
370
    15
100
AcDbLine
 10
-54.24363903547637
 20
105.2385022741458
 30
0.0
 11
-54.24363903547637
 21
95.23850156634069
 31
0.0
  0
LINE
  5
E9DB
330
A
100
AcDbEntity
  8
0
  6
Continuous
 62
     7
370
    15
100
AcDbLine
 10
-55.09363903547637
 20
105.2385022741458
 30
0.0
 11
-15.32435026153529
 21
105.2385022741458
 31
0.0
  0
ARC
  5
E9DC
330
A
100
AcDbEntity
  8
0
  6
Continuous
 62
     7
370
    15
100
AcDbCircle
 10
-0.324349367465623
 20
113.2385021504662
 30
0.0
 40
17.00000000000001
100
AcDbArc
 50
208.0724869358531
 51
331.927513064147
  0
LINE
  5
E9DD
330
A
100
AcDbEntity
  8
0
  6
Continuous
 62
     7
370
    15
100
AcDbLine
 10
15.5256509305576
 20
105.2385022741458
 30
0.0
 11
110.0949352145195
 21
105.2385022741458
 31
0.0
  0
ARC
  5
E9DE
330
A
100
AcDbEntity
  8
0
  6
Continuous
 62
     7
370
    15
100
AcDbCircle
 10
-53.82434972524643
 20
95.23850215046622
 30
0.0
 40
0.5000000000000036
100
AcDbArc
 50
180.0
 51
214.5689894289688
  0
ARC
  5
E9DF
330
A
100
AcDbEntity
  8
0
  6
Continuous
 62
     7
370
    15
100
AcDbCircle
 10
-53.82434972524643
 20
95.23850215046622
 30
0.0
 40
1.500000000000014
100
AcDbArc
 50
180.0
 51
270.0
  0
LINE
  5
E9E0
330
A
100
AcDbEntity
  8
0
  6
Continuous
 62
     7
370
    15
100
AcDbLine
 10
-55.32434973828495
 20
105.2385022741458
 30
0.0
 11
-54.32434974899516
 21
105.2385022741458
 31
0.0
  0
LINE
  5
E9E1
330
A
100
AcDbEntity
  8
0
  6
Continuous
 62
     7
370
    15
100
AcDbLine
 10
-54.32434974899516
 20
95.23850156634069
 30
0.0
 11
-54.32434974899516
 21
105.2385022741458
 31
0.0
  0
LINE
  5
E9E2
330
A
100
AcDbEntity
  8
0
  6
Continuous
 62
     7
370
    15
100
AcDbLine
 10
-55.32434973828495
 20
95.23850156634069
 30
0.0
 11
-55.32434973828495
 21
105.2385022741458
 31
0.0
  0
ARC
  5
E9E3
330
A
100
AcDbEntity
  8
0
  6
Continuous
 62
     7
370
    15
100
AcDbCircle
 10
109.6756502747536
 20
95.23850215046622
 30
0.0
 40
0.4999999999999433
100
AcDbArc
 50
325.4310105717277
 51
0.0
  0
ARC
  5
E9E4
330
A
100
AcDbEntity
  8
0
  6
Continuous
 62
     7
370
    15
100
AcDbCircle
 10
109.6756502747536
 20
95.23850215046622
 30
0.0
 40
1.5
100
AcDbArc
 50
270.0
 51
0.0
  0
LINE
  5
E9E5
330
A
100
AcDbEntity
  8
0
  6
Continuous
 62
     7
370
    15
100
AcDbLine
 10
110.1756548047066
 20
105.2385022741458
 30
0.0
 11
110.1756548047066
 21
95.23850156634069
 31
0.0
  0
LINE
  5
E9E6
330
A
100
AcDbEntity
  8
0
  6
Continuous
 62
     7
370
    15
100
AcDbLine
 10
111.1756568312645
 20
105.2385022741458
 30
0.0
 11
110.1756548047066
 21
105.2385022741458
 31
0.0
  0
LINE
  5
E9E7
330
A
100
AcDbEntity
  8
0
  6
Continuous
 62
     7
370
    15
100
AcDbLine
 10
111.1756568312645
 20
105.2385022741458
 30
0.0
 11
111.1756568312645
 21
95.23850156634069
 31
0.0
  0
ARC
  5
E9E8
330
A
100
AcDbEntity
  8
0
  6
Continuous
 62
     7
370
    15
100
AcDbCircle
 10
49.17565027475357
 20
122.1858725543525
 30
0.0
 40
6.0
100
AcDbArc
 50
270.0
 51
334.8770742422869
  0
LINE
  5
E9E9
330
A
100
AcDbEntity
  8
0
  6
Continuous
 62
     7
370
    15
100
AcDbLine
 10
99.67565587759017
 20
119.6385020267866
 30
0.0
 11
99.67565587759017
 21
105.2385022741458
 31
0.0
  0
ARC
  5
E9EA
330
A
100
AcDbEntity
  8
0
  6
Continuous
 62
     7
370
    15
100
AcDbCircle
 10
49.17565027475357
 20
102.6885021504662
 30
0.0
 40
6.000000000000016
100
AcDbArc
 50
25.15066341254239
 51
90.0
  0
LINE
  5
E9EB
330
A
100
AcDbEntity
  8
0
  6
Continuous
 62
     7
370
    15
100
AcDbLine
 10
49.17565039396286
 20
108.6885022342852
 30
0.0
 11
27.02565188423192
 21
108.6885022342852
 31
0.0
  0
LINE
  5
E9EC
330
A
100
AcDbEntity
  8
0
  6
Continuous
 62
     7
370
    15
100
AcDbLine
 10
27.02565188423192
 20
116.1858724773578
 30
0.0
 11
27.02565188423192
 21
108.6885022342852
 31
0.0
  0
LINE
  5
E9ED
330
A
100
AcDbEntity
  8
0
  6
Continuous
 62
     7
370
    15
100
AcDbLine
 10
27.02565188423192
 20
116.1858724773578
 30
0.0
 11
49.17565039396286
 21
116.1858724773578
 31
0.0
  0
ARC
  5
E9EE
330
A
100
AcDbEntity
  8
0
  6
Continuous
 62
     7
370
    15
100
AcDbCircle
 10
-36.82434972524643
 20
102.6848310416889
 30
0.0
 40
6.000000000000007
100
AcDbArc
 50
90.0
 51
154.8106022400009
  0
LINE
  5
E9EF
330
A
100
AcDbEntity
  8
0
  6
Continuous
 62
     7
370
    15
100
AcDbLine
 10
-50.32434961721301
 20
119.6385020267866
 30
0.0
 11
-50.32434961721301
 21
105.2385022741458
 31
0.0
  0
ARC
  5
E9F0
330
A
100
AcDbEntity
  8
0
  6
Continuous
 62
     7
370
    15
100
AcDbCircle
 10
-36.82434972524643
 20
122.1885021504662
 30
0.0
 40
6.000000000000006
100
AcDbArc
 50
205.1506634125458
 51
270.0
  0
LINE
  5
E9F1
330
A
100
AcDbEntity
  8
0
  6
Continuous
 62
     7
370
    15
100
AcDbLine
 10
-37.67434880137444
 20
116.1885020666472
 30
0.0
 11
-16.82434957608188
 21
116.1885020666472
 31
0.0
  0
LINE
  5
E9F2
330
A
100
AcDbEntity
  8
0
  6
Continuous
 62
     7
370
    15
100
AcDbLine
 10
-16.82434957608188
 20
116.1885020666472
 30
0.0
 11
-16.82434957608188
 21
108.684830960696
 31
0.0
  0
LINE
  5
E9F3
330
A
100
AcDbEntity
  8
0
  6
Continuous
 62
     7
370
    15
100
AcDbLine
 10
-16.82434957608188
 20
108.684830960696
 30
0.0
 11
-37.67434880137444
 21
108.684830960696
 31
0.0
  0
LINE
  5
E9F4
330
A
100
AcDbEntity
  8
0
  6
Continuous
 62
     8
370
     0
100
AcDbLine
 10
-14.32398688181842
 20
105.4385019343993
 30
0.0
 11
24.17601290956533
 21
105.4385019343993
 31
0.0
  0
LINE
  5
E9F5
330
A
100
AcDbEntity
  8
0
  6
Continuous
 62
     8
370
     0
100
AcDbLine
 10
24.17601290956533
 20
105.4385019343993
 30
0.0
 11
24.17601290956533
 21
105.2385022741458
 31
0.0
  0
LINE
  5
E9F6
330
A
100
AcDbEntity
  8
0
  6
Continuous
 62
     8
370
     0
100
AcDbLine
 10
-14.32398688181842
 20
104.4385017704866
 30
0.0
 11
-14.32398688181842
 21
105.4385019343993
 31
0.0
  0
LINE
  5
E9F7
330
A
100
AcDbEntity
  8
0
  6
Continuous
 62
     8
370
     0
100
AcDbLine
 10
24.17601290956533
 20
105.4385019343993
 30
0.0
 11
25.17601493612325
 21
105.4385019343993
 31
0.0
  0
LINE
  5
E9F8
330
A
100
AcDbEntity
  8
0
  6
Continuous
 62
     8
370
     0
100
AcDbLine
 10
-14.32398688181842
 20
119.4385023665331
 30
0.0
 11
-14.32398688181842
 21
105.4385019343993
 31
0.0
  0
LINE
  5
E9F9
330
A
100
AcDbEntity
  8
0
  6
Continuous
 62
     8
370
     0
100
AcDbLine
 10
24.17601290956533
 20
119.4385023665331
 30
0.0
 11
-14.32398688181842
 21
119.4385023665331
 31
0.0
  0
LINE
  5
E9FA
330
A
100
AcDbEntity
  8
0
  6
Continuous
 62
     8
370
     0
100
AcDbLine
 10
24.17601290956533
 20
105.4385019343993
 30
0.0
 11
24.17601290956533
 21
119.4385023665331
 31
0.0
  0
LINE
  5
E9FB
330
A
100
AcDbEntity
  8
0
  6
Continuous
 62
     8
370
     0
100
AcDbLine
 10
24.17601290956533
 20
119.4385023665331
 30
0.0
 11
25.17601493612325
 21
119.4385023665331
 31
0.0
  0
LINE
  5
E9FC
330
A
100
AcDbEntity
  8
0
  6
Continuous
 62
     8
370
     0
100
AcDbLine
 10
-15.32398518308604
 20
105.4385019343993
 30
0.0
 11
-14.32398688181842
 21
105.4385019343993
 31
0.0
  0
LINE
  5
E9FD
330
A
100
AcDbEntity
  8
0
  6
Continuous
 62
     8
370
     0
100
AcDbLine
 10
-15.32398518308604
 20
119.4385023665331
 30
0.0
 11
-14.32398688181842
 21
119.4385023665331
 31
0.0
  0
LINE
  5
E9FE
330
A
100
AcDbEntity
  8
0
  6
Continuous
 62
     8
370
     0
100
AcDbLine
 10
24.17601290956533
 20
119.4385023665331
 30
0.0
 11
24.17601290956533
 21
119.6385020267866
 31
0.0
  0
LINE
  5
E9FF
330
A
100
AcDbEntity
  8
0
  6
Continuous
 62
     8
370
     0
100
AcDbLine
 10
-14.32398688181842
 20
120.4385025304459
 30
0.0
 11
-14.32398688181842
 21
119.4385023665331
 31
0.0
  0
LINE
  5
EA00
330
A
100
AcDbEntity
  8
0
  6
Continuous
 62
     8
370
     0
100
AcDbLine
 10
-13.37003689393008
 20
102.3385025438569
 30
0.0
 11
12.72134128824269
 21
102.3385025438569
 31
0.0
  0
LINE
  5
EA01
330
A
100
AcDbEntity
  8
0
  6
Continuous
 62
     8
370
     0
100
AcDbLine
 10
43.02601213470494
 20
105.2385022741458
 30
0.0
 11
43.02601213470494
 21
108.5385022562644
 31
0.0
  0
LINE
  5
EA02
330
A
100
AcDbEntity
  8
0
  6
Continuous
 62
     8
370
     0
100
AcDbLine
 10
-14.32398688181842
 20
104.4385017704866
 30
0.0
 11
-14.32398688181842
 21
103.594324911823
 31
0.0
  0
LINE
  5
EA03
330
A
100
AcDbEntity
  8
0
  6
Continuous
 62
     8
370
     0
100
AcDbLine
 10
-31.47398610695805
 20
119.6385020267866
 30
0.0
 11
-31.47398610695805
 21
116.338502044668
 31
0.0
  0
LINE
  5
EA04
330
A
100
AcDbEntity
  8
0
  6
Continuous
 62
     8
370
     0
100
AcDbLine
 10
12.72134128824269
 20
122.5385017570756
 30
0.0
 11
-13.37003689393008
 21
122.5385017570756
 31
0.0
  0
LINE
  5
EA05
330
A
100
AcDbEntity
  8
0
  6
Continuous
 62
     8
370
     0
100
AcDbLine
 10
108.3756541371346
 20
118.6885022435985
 30
0.0
 11
108.3756541371346
 21
119.6385020267866
 31
0.0
  0
LINE
  5
EA06
330
A
100
AcDbEntity
  8
0
  6
Continuous
 62
     8
370
     0
100
AcDbLine
 10
100.8756463885307
 20
119.6385020267866
 30
0.0
 11
100.8756463885307
 21
118.6885022435985
 31
0.0
  0
LINE
  5
EA07
330
A
100
AcDbEntity
  8
0
  6
Continuous
 62
     8
370
     0
100
AcDbLine
 10
-52.62434966824949
 20
119.6385020267866
 30
0.0
 11
-52.62434966824949
 21
118.6885022435985
 31
0.0
  0
LINE
  5
EA08
330
A
100
AcDbEntity
  8
0
  6
Continuous
 62
     8
370
     0
100
AcDbLine
 10
108.3756541371346
 20
105.2385022741458
 30
0.0
 11
108.3756541371346
 21
106.1885020573339
 31
0.0
  0
LINE
  5
EA09
330
A
100
AcDbEntity
  8
0
  6
Continuous
 62
     8
370
     0
100
AcDbLine
 10
100.8756463885307
 20
106.1885020573339
 30
0.0
 11
100.8756463885307
 21
105.2385022741458
 31
0.0
  0
LINE
  5
EA0A
330
A
100
AcDbEntity
  8
0
  6
Continuous
 62
     8
370
     0
100
AcDbLine
 10
-52.62434966824949
 20
106.1885020573339
 30
0.0
 11
-52.62434966824949
 21
105.2385022741458
 31
0.0
  0
LINE
  5
EA0B
330
A
100
AcDbEntity
  8
0
  6
Continuous
 62
     8
370
     0
100
AcDbLine
 10
-54.24363903547637
 20
129.6385027345918
 30
0.0
 11
110.0949352145195
 21
129.6385027345918
 31
0.0
  0
LINE
  5
EA0C
330
A
100
AcDbEntity
  8
0
  6
Continuous
 62
     8
370
     0
100
AcDbLine
 10
111.1756568312645
 20
129.6385027345918
 30
0.0
 11
110.1756548047066
 21
129.6385027345918
 31
0.0
  0
LINE
  5
EA0D
330
A
100
AcDbEntity
  8
0
  6
Continuous
 62
     8
370
     0
100
AcDbLine
 10
-55.32434973828495
 20
129.6385027345918
 30
0.0
 11
-54.32434974899516
 21
129.6385027345918
 31
0.0
  0
LINE
  5
EA0E
330
A
100
AcDbEntity
  8
0
  6
Continuous
 62
     8
370
     0
100
AcDbLine
 10
110.0949352145195
 20
95.23850156634069
 30
0.0
 11
-54.24363903547637
 21
95.23850156634069
 31
0.0
  0
LINE
  5
EA0F
330
A
100
AcDbEntity
  8
0
  6
Continuous
 62
     8
370
     0
100
AcDbLine
 10
-55.32434973828495
 20
95.23850156634069
 30
0.0
 11
-54.32434974899516
 21
95.23850156634069
 31
0.0
  0
LINE
  5
EA10
330
A
100
AcDbEntity
  8
0
  6
Continuous
 62
     8
370
     0
100
AcDbLine
 10
111.1756568312645
 20
95.23850156634069
 30
0.0
 11
110.1756548047066
 21
95.23850156634069
 31
0.0
  0
LINE
  5
EA11
330
A
100
AcDbEntity
  8
0
  6
Continuous
 62
     7
370
    15
100
AcDbLine
 10
90.07565728425979
 20
-63.16879297492557
 30
0.0
 11
90.07565728425979
 21
-65.66879315187686
 31
0.0
  0
LINE
  5
EA12
330
A
100
AcDbEntity
  8
0
  6
Continuous
 62
     7
370
    15
100
AcDbLine
 10
93.07564846277236
 20
-65.66879315187686
 30
0.0
 11
93.07564846277236
 21
-63.16879297492557
 31
0.0
  0
LINE
  5
EA13
330
A
100
AcDbEntity
  8
0
  6
Continuous
 62
     7
370
    15
100
AcDbLine
 10
-54.24363903547638
 20
-44.51879322414749
 30
0.0
 11
-54.32434974899517
 21
-44.51879322414749
 31
0.0
  0
LINE
  5
EA14
330
A
100
AcDbEntity
  8
0
  6
Continuous
 62
     7
370
    15
100
AcDbLine
 10
-55.32434973828496
 20
-44.51879322414749
 30
0.0
 11
-55.74934971481562
 21
-44.51879322414749
 31
0.0
  0
LINE
  5
EA15
330
A
100
AcDbEntity
  8
0
  6
Continuous
 62
     7
370
    15
100
AcDbLine
 10
-55.74934971481562
 20
-47.31879312430971
 30
0.0
 11
-55.32434973828496
 21
-47.31879312430971
 31
0.0
  0
LINE
  5
EA16
330
A
100
AcDbEntity
  8
0
  6
Continuous
 62
     7
370
    15
100
AcDbLine
 10
-54.32434974899517
 20
-47.31879312430971
 30
0.0
 11
-54.24363903547638
 21
-47.31879312430971
 31
0.0
  0
LINE
  5
EA17
330
A
100
AcDbEntity
  8
0
  6
Continuous
 62
     7
370
    15
100
AcDbLine
 10
-55.74934971481562
 20
-44.51879322414749
 30
0.0
 11
-55.82434982024134
 21
-44.66879296933763
 31
0.0
  0
LINE
  5
EA18
330
A
100
AcDbEntity
  8
0
  6
Continuous
 62
     7
370
    15
100
AcDbLine
 10
-55.82434982024134
 20
-47.16879337911956
 30
0.0
 11
-55.74934971481562
 21
-47.31879312430971
 31
0.0
  0
LINE
  5
EA19
330
A
100
AcDbEntity
  8
0
  6
Continuous
 62
     7
370
    15
100
AcDbLine
 10
-54.24363903547638
 20
-71.51879299317949
 30
0.0
 11
-54.32434974899517
 21
-71.51879299317949
 31
0.0
  0
LINE
  5
EA1A
330
A
100
AcDbEntity
  8
0
  6
Continuous
 62
     7
370
    15
100
AcDbLine
 10
-55.32434973828496
 20
-71.51879299317949
 30
0.0
 11
-55.74934971481562
 21
-71.51879299317949
 31
0.0
  0
LINE
  5
EA1B
330
A
100
AcDbEntity
  8
0
  6
Continuous
 62
     7
370
    15
100
AcDbLine
 10
-55.74934971481562
 20
-74.31879289334171
 30
0.0
 11
-55.32434973828496
 21
-74.31879289334171
 31
0.0
  0
LINE
  5
EA1C
330
A
100
AcDbEntity
  8
0
  6
Continuous
 62
     7
370
    15
100
AcDbLine
 10
-54.32434974899517
 20
-74.31879289334171
 30
0.0
 11
-54.24363903547638
 21
-74.31879289334171
 31
0.0
  0
LINE
  5
EA1D
330
A
100
AcDbEntity
  8
0
  6
Continuous
 62
     7
370
    15
100
AcDbLine
 10
-55.74934971481562
 20
-71.51879299317949
 30
0.0
 11
-55.82434982024134
 21
-71.66879273836963
 31
0.0
  0
LINE
  5
EA1E
330
A
100
AcDbEntity
  8
0
  6
Continuous
 62
     7
370
    15
100
AcDbLine
 10
-55.82434982024134
 20
-74.16879314815156
 30
0.0
 11
-55.74934971481562
 21
-74.31879289334171
 31
0.0
  0
LINE
  5
EA1F
330
A
100
AcDbEntity
  8
0
  6
Continuous
 62
     7
370
    15
100
AcDbLine
 10
111.6006528496742
 20
-74.31879289334171
 30
0.0
 11
111.6756503939629
 21
-74.16879314815156
 31
0.0
  0
LINE
  5
EA20
330
A
100
AcDbEntity
  8
0
  6
Continuous
 62
     7
370
    15
100
AcDbLine
 10
111.6756503939629
 20
-71.66879273836963
 30
0.0
 11
111.6006528496742
 21
-71.51879299317949
 31
0.0
  0
LINE
  5
EA21
330
A
100
AcDbEntity
  8
0
  6
Continuous
 62
     7
370
    15
100
AcDbLine
 10
110.0949352145195
 20
-74.31879289334171
 30
0.0
 11
110.1756548047066
 21
-74.31879289334171
 31
0.0
  0
LINE
  5
EA22
330
A
100
AcDbEntity
  8
0
  6
Continuous
 62
     7
370
    15
100
AcDbLine
 10
111.1756568312645
 20
-74.31879289334171
 30
0.0
 11
111.6006528496742
 21
-74.31879289334171
 31
0.0
  0
LINE
  5
EA23
330
A
100
AcDbEntity
  8
0
  6
Continuous
 62
     7
370
    15
100
AcDbLine
 10
111.6006528496742
 20
-71.51879299317949
 30
0.0
 11
111.1756568312645
 21
-71.51879299317949
 31
0.0
  0
LINE
  5
EA24
330
A
100
AcDbEntity
  8
0
  6
Continuous
 62
     7
370
    15
100
AcDbLine
 10
110.1756548047066
 20
-71.51879299317949
 30
0.0
 11
110.0949352145195
 21
-71.51879299317949
 31
0.0
  0
LINE
  5
EA25
330
A
100
AcDbEntity
  8
0
  6
Continuous
 62
     7
370
    15
100
AcDbLine
 10
111.6006528496742
 20
-47.31879312430971
 30
0.0
 11
111.6756503939629
 21
-47.16879337911956
 31
0.0
  0
LINE
  5
EA26
330
A
100
AcDbEntity
  8
0
  6
Continuous
 62
     7
370
    15
100
AcDbLine
 10
111.6756503939629
 20
-44.66879296933763
 30
0.0
 11
111.6006528496742
 21
-44.51879322414749
 31
0.0
  0
LINE
  5
EA27
330
A
100
AcDbEntity
  8
0
  6
Continuous
 62
     7
370
    15
100
AcDbLine
 10
110.0949352145195
 20
-47.31879312430971
 30
0.0
 11
110.1756548047066
 21
-47.31879312430971
 31
0.0
  0
LINE
  5
EA28
330
A
100
AcDbEntity
  8
0
  6
Continuous
 62
     7
370
    15
100
AcDbLine
 10
111.1756568312645
 20
-47.31879312430971
 30
0.0
 11
111.6006528496742
 21
-47.31879312430971
 31
0.0
  0
LINE
  5
EA29
330
A
100
AcDbEntity
  8
0
  6
Continuous
 62
     7
370
    15
100
AcDbLine
 10
111.6006528496742
 20
-44.51879322414749
 30
0.0
 11
111.1756568312645
 21
-44.51879322414749
 31
0.0
  0
LINE
  5
EA2A
330
A
100
AcDbEntity
  8
0
  6
Continuous
 62
     7
370
    15
100
AcDbLine
 10
110.1756548047066
 20
-44.51879322414749
 30
0.0
 11
110.0949352145195
 21
-44.51879322414749
 31
0.0
  0
LINE
  5
EA2B
330
A
100
AcDbEntity
  8
0
  6
Continuous
 62
     7
370
    15
100
AcDbLine
 10
-53.57434971337207
 20
-54.16879312952511
 30
0.0
 11
-53.57434971337207
 21
-53.16879296561234
 31
0.0
  0
LINE
  5
EA2C
330
A
100
AcDbEntity
  8
0
  6
Continuous
 62
     7
370
    15
100
AcDbLine
 10
-50.07434980906547
 20
-53.16879296561234
 30
0.0
 11
-53.57434971337207
 21
-53.16879296561234
 31
0.0
  0
LINE
  5
EA2D
330
A
100
AcDbEntity
  8
0
  6
Continuous
 62
     7
370
    15
100
AcDbLine
 10
-50.07434980906547
 20
-54.16879312952511
 30
0.0
 11
-53.57434971337207
 21
-54.16879312952511
 31
0.0
  0
LINE
  5
EA2E
330
A
100
AcDbEntity
  8
0
  6
Continuous
 62
     7
370
    15
100
AcDbLine
 10
109.4256495594978
 20
-54.16879312952511
 30
0.0
 11
109.4256495594978
 21
-53.16879296561234
 31
0.0
  0
LINE
  5
EA2F
330
A
100
AcDbEntity
  8
0
  6
Continuous
 62
     7
370
    15
100
AcDbLine
 10
109.4256495594978
 20
-53.16879296561234
 30
0.0
 11
105.9256499171257
 21
-53.16879296561234
 31
0.0
  0
LINE
  5
EA30
330
A
100
AcDbEntity
  8
0
  6
Continuous
 62
     7
370
    15
100
AcDbLine
 10
109.4256495594978
 20
-54.16879312952511
 30
0.0
 11
105.9256499171257
 21
-54.16879312952511
 31
0.0
  0
LINE
  5
EA31
330
A
100
AcDbEntity
  8
0
  6
Continuous
 62
     7
370
    15
100
AcDbLine
 10
105.9256499171257
 20
-53.16879296561234
 30
0.0
 11
-50.07434980906547
 21
-53.16879296561234
 31
0.0
  0
LINE
  5
EA32
330
A
100
AcDbEntity
  8
0
  6
Continuous
 62
     7
370
    15
100
AcDbLine
 10
105.9256499171257
 20
-54.16879312952511
 30
0.0
 11
-50.07434980906547
 21
-54.16879312952511
 31
0.0
  0
LINE
  5
EA33
330
A
100
AcDbEntity
  8
0
  6
Continuous
 62
     7
370
    15
100
AcDbLine
 10
100.9256546854973
 20
-63.16879297492557
 30
0.0
 11
100.9256546854973
 21
-54.16879312952511
 31
0.0
  0
LINE
  5
EA34
330
A
100
AcDbEntity
  8
0
  6
Continuous
 62
     7
370
    15
100
AcDbLine
 10
100.9256546854973
 20
-63.16879297492557
 30
0.0
 11
82.360491669178
 21
-63.16879297492557
 31
0.0
  0
LINE
  5
EA35
330
A
100
AcDbEntity
  8
0
  6
Continuous
 62
     7
370
    15
100
AcDbLine
 10
82.360491669178
 20
-63.16879297492557
 30
0.0
 11
82.360491669178
 21
-54.16879312952511
 31
0.0
  0
LINE
  5
EA36
330
A
100
AcDbEntity
  8
0
  6
Continuous
 62
     7
370
    15
100
AcDbLine
 10
82.360491669178
 20
-63.16879297492557
 30
0.0
 11
-50.32434961721302
 21
-63.16879297492557
 31
0.0
  0
LINE
  5
EA37
330
A
100
AcDbEntity
  8
0
  6
Continuous
 62
     7
370
    15
100
AcDbLine
 10
-51.57434982210398
 20
-63.16879297492557
 30
0.0
 11
-51.57434982210398
 21
-54.16879312952511
 31
0.0
  0
LINE
  5
EA38
330
A
100
AcDbEntity
  8
0
  6
Continuous
 62
     7
370
    15
100
AcDbLine
 10
-50.32434961721302
 20
-63.16879297492557
 30
0.0
 11
-51.57434982210398
 21
-63.16879297492557
 31
0.0
  0
LINE
  5
EA39
330
A
100
AcDbEntity
  8
0
  6
Continuous
 62
     7
370
    15
100
AcDbLine
 10
-53.62434973029885
 20
-66.61879293506496
 30
0.0
 11
-53.62434973029885
 21
-65.66879315187686
 31
0.0
  0
LINE
  5
EA3A
330
A
100
AcDbEntity
  8
0
  6
Continuous
 62
     7
370
    15
100
AcDbLine
 10
-48.62434971109034
 20
-65.66879315187686
 30
0.0
 11
-53.62434973029885
 21
-65.66879315187686
 31
0.0
  0
LINE
  5
EA3B
330
A
100
AcDbEntity
  8
0
  6
Continuous
 62
     7
370
    15
100
AcDbLine
 10
104.3756460309029
 20
-65.66879315187686
 30
0.0
 11
-48.62434971109034
 21
-65.66879315187686
 31
0.0
  0
LINE
  5
EA3C
330
A
100
AcDbEntity
  8
0
  6
Continuous
 62
     7
370
    15
100
AcDbLine
 10
109.3756561636925
 20
-66.61879293506496
 30
0.0
 11
109.3756561636925
 21
-65.66879315187686
 31
0.0
  0
LINE
  5
EA3D
330
A
100
AcDbEntity
  8
0
  6
Continuous
 62
     7
370
    15
100
AcDbLine
 10
109.3756561636925
 20
-65.66879315187686
 30
0.0
 11
104.3756460309029
 21
-65.66879315187686
 31
0.0
  0
LINE
  5
EA3E
330
A
100
AcDbEntity
  8
0
  6
Continuous
 62
     7
370
    15
100
AcDbLine
 10
-53.57434971337207
 20
-53.16879296561234
 30
0.0
 11
-53.62434973029885
 21
-53.16879296561234
 31
0.0
  0
LINE
  5
EA3F
330
A
100
AcDbEntity
  8
0
  6
Continuous
 62
     7
370
    15
100
AcDbLine
 10
-53.62434973029885
 20
-53.16879296561234
 30
0.0
 11
-53.62434973029885
 21
-52.21879318242424
 31
0.0
  0
LINE
  5
EA40
330
A
100
AcDbEntity
  8
0
  6
Continuous
 62
     7
370
    15
100
AcDbLine
 10
104.3756460309029
 20
-53.16879296561234
 30
0.0
 11
-48.62434971109034
 21
-53.16879296561234
 31
0.0
  0
LINE
  5
EA41
330
A
100
AcDbEntity
  8
0
  6
Continuous
 62
     7
370
    15
100
AcDbLine
 10
109.3756561636925
 20
-53.16879296561234
 30
0.0
 11
109.3756561636925
 21
-52.21879318242424
 31
0.0
  0
LINE
  5
EA42
330
A
100
AcDbEntity
  8
0
  6
Continuous
 62
     7
370
    15
100
AcDbLine
 10
-55.74934971481562
 20
-44.51879322414749
 30
0.0
 11
-55.74934971481562
 21
-47.31879312430971
 31
0.0
  0
LINE
  5
EA43
330
A
100
AcDbEntity
  8
0
  6
Continuous
 62
     7
370
    15
100
AcDbLine
 10
-55.82434982024134
 20
-44.66879296933763
 30
0.0
 11
-55.82434982024134
 21
-47.16879337911956
 31
0.0
  0
LINE
  5
EA44
330
A
100
AcDbEntity
  8
0
  6
Continuous
 62
     7
370
    15
100
AcDbLine
 10
-55.74934971481562
 20
-71.51879299317949
 30
0.0
 11
-55.74934971481562
 21
-74.31879289334171
 31
0.0
  0
LINE
  5
EA45
330
A
100
AcDbEntity
  8
0
  6
Continuous
 62
     7
370
    15
100
AcDbLine
 10
-55.82434982024134
 20
-71.66879273836963
 30
0.0
 11
-55.82434982024134
 21
-74.16879314815156
 31
0.0
  0
LINE
  5
EA46
330
A
100
AcDbEntity
  8
0
  6
Continuous
 62
     7
370
    15
100
AcDbLine
 10
111.6756503939629
 20
-74.16859477644317
 30
0.0
 11
111.6756503939629
 21
-71.66879273836963
 31
0.0
  0
LINE
  5
EA47
330
A
100
AcDbEntity
  8
0
  6
Continuous
 62
     7
370
    15
100
AcDbLine
 10
111.6006528496742
 20
-74.31857123856895
 30
0.0
 11
111.6006528496742
 21
-71.51879299317949
 31
0.0
  0
LINE
  5
EA48
330
A
100
AcDbEntity
  8
0
  6
Continuous
 62
     7
370
    15
100
AcDbLine
 10
111.6756503939629
 20
-47.16859500741117
 30
0.0
 11
111.6756503939629
 21
-44.66879296933763
 31
0.0
  0
LINE
  5
EA49
330
A
100
AcDbEntity
  8
0
  6
Continuous
 62
     7
370
    15
100
AcDbLine
 10
111.6006528496742
 20
-47.31857146953695
 30
0.0
 11
111.6006528496742
 21
-44.51879322414749
 31
0.0
  0
LINE
  5
EA4A
330
A
100
AcDbEntity
  8
0
  6
Continuous
 62
     7
370
    15
100
AcDbLine
 10
-54.24363903547638
 20
-66.61879293506496
 30
0.0
 11
-54.24363903547638
 21
-76.61879364287012
 31
0.0
  0
LINE
  5
EA4B
330
A
100
AcDbEntity
  8
0
  6
Continuous
 62
     7
370
    15
100
AcDbLine
 10
-54.24363903547638
 20
-66.61879293506496
 30
0.0
 11
110.0949352145195
 21
-66.61879293506496
 31
0.0
  0
LINE
  5
EA4C
330
A
100
AcDbEntity
  8
0
  6
Continuous
 62
     7
370
    15
100
AcDbLine
 10
110.0949352145195
 20
-76.61879364287012
 30
0.0
 11
110.0949352145195
 21
-66.61879293506496
 31
0.0
  0
ELLIPSE
  5
EA4D
330
A
100
AcDbEntity
  8
0
  6
Continuous
 62
     7
370
    15
100
AcDbEllipse
 10
-53.82434972524644
 20
-76.61879305874459
 30
0.0
 11
0.0
 21
1.5
 31
0.0
210
0.0
220
0.0
230
1.0
 40
0.2795262145875578
 41
1.570796326794887
 42
3.14159265358991
  0
ELLIPSE
  5
EA4E
330
A
100
AcDbEntity
  8
0
  6
Continuous
 62
     7
370
    15
100
AcDbEllipse
 10
109.6756502747536
 20
-76.61879305874459
 30
0.0
 11
0.0
 21
1.5
 31
0.0
210
0.0
220
0.0
230
1.0
 40
0.2795262145876147
 41
3.141592653589793
 42
4.712388980384693
  0
LINE
  5
EA4F
330
A
100
AcDbEntity
  8
0
  6
Continuous
 62
     7
370
    15
100
AcDbLine
 10
-53.82434972524644
 20
-78.1187929574167
 30
0.0
 11
109.675646340847
 21
-78.1187929574167
 31
0.0
  0
LINE
  5
EA50
330
A
100
AcDbEntity
  8
0
  6
Continuous
 62
     7
370
    15
100
AcDbLine
 10
-55.32434973828496
 20
-76.61879364287012
 30
0.0
 11
-55.32434973828496
 21
-66.61879293506496
 31
0.0
  0
LINE
  5
EA51
330
A
100
AcDbEntity
  8
0
  6
Continuous
 62
     7
370
    15
100
AcDbLine
 10
-55.32434973828496
 20
-66.61879293506496
 30
0.0
 11
-54.32434974899517
 21
-66.61879293506496
 31
0.0
  0
LINE
  5
EA52
330
A
100
AcDbEntity
  8
0
  6
Continuous
 62
     7
370
    15
100
AcDbLine
 10
-54.32434974899517
 20
-76.61879364287012
 30
0.0
 11
-54.32434974899517
 21
-66.61879293506496
 31
0.0
  0
LINE
  5
EA53
330
A
100
AcDbEntity
  8
0
  6
Continuous
 62
     7
370
    15
100
AcDbLine
 10
111.1756568312645
 20
-66.61879293506496
 30
0.0
 11
111.1756568312645
 21
-76.61879364287012
 31
0.0
  0
LINE
  5
EA54
330
A
100
AcDbEntity
  8
0
  6
Continuous
 62
     7
370
    15
100
AcDbLine
 10
111.1756568312645
 20
-66.61879293506496
 30
0.0
 11
110.1756548047066
 21
-66.61879293506496
 31
0.0
  0
LINE
  5
EA55
330
A
100
AcDbEntity
  8
0
  6
Continuous
 62
     7
370
    15
100
AcDbLine
 10
110.1756548047066
 20
-66.61879293506496
 30
0.0
 11
110.1756548047066
 21
-76.61879364287012
 31
0.0
  0
ARC
  5
EA56
330
A
100
AcDbEntity
  8
0
  6
Continuous
 62
     7
370
    15
100
AcDbCircle
 10
-53.82434972524644
 20
-76.61879305874459
 30
0.0
 40
1.500000000000014
100
AcDbArc
 50
180.0
 51
270.0
  0
ARC
  5
EA57
330
A
100
AcDbEntity
  8
0
  6
Continuous
 62
     7
370
    15
100
AcDbCircle
 10
-53.82434972524644
 20
-76.61879305874459
 30
0.0
 40
0.5
100
AcDbArc
 50
180.0
 51
214.568989428967
  0
ARC
  5
EA58
330
A
100
AcDbEntity
  8
0
  6
Continuous
 62
     7
370
    15
100
AcDbCircle
 10
109.6756502747536
 20
-76.61879305874459
 30
0.0
 40
0.4999999999999741
100
AcDbArc
 50
325.4310105689899
 51
0.0
  0
ARC
  5
EA59
330
A
100
AcDbEntity
  8
0
  6
Continuous
 62
     7
370
    15
100
AcDbCircle
 10
109.6756502747536
 20
-76.61879305874459
 30
0.0
 40
1.5
100
AcDbArc
 50
270.0
 51
0.0
  0
LINE
  5
EA5A
330
A
100
AcDbEntity
  8
0
  6
Continuous
 62
     7
370
    15
100
AcDbLine
 10
110.0949352145195
 20
-52.21879318242424
 30
0.0
 11
-54.24363903547638
 21
-52.21879318242424
 31
0.0
  0
LINE
  5
EA5B
330
A
100
AcDbEntity
  8
0
  6
Continuous
 62
     7
370
    15
100
AcDbLine
 10
-54.24363903547638
 20
-42.21879247461908
 30
0.0
 11
-54.24363903547638
 21
-52.21879318242424
 31
0.0
  0
LINE
  5
EA5C
330
A
100
AcDbEntity
  8
0
  6
Continuous
 62
     7
370
    15
100
AcDbLine
 10
110.0949352145195
 20
-52.21879318242424
 30
0.0
 11
110.0949352145195
 21
-42.21879247461908
 31
0.0
  0
ELLIPSE
  5
EA5D
330
A
100
AcDbEntity
  8
0
  6
Continuous
 62
     7
370
    15
100
AcDbEllipse
 10
109.6756502747536
 20
-42.21879305874455
 30
0.0
 11
0.0
 21
1.5
 31
0.0
210
0.0
220
0.0
230
1.0
 40
0.2795262145875388
 41
4.712388980384693
 42
6.283185307179586
  0
ELLIPSE
  5
EA5E
330
A
100
AcDbEntity
  8
0
  6
Continuous
 62
     7
370
    15
100
AcDbEllipse
 10
-53.82434972524644
 20
-42.21879305874455
 30
0.0
 11
0.0
 21
1.5
 31
0.0
210
0.0
220
0.0
230
1.0
 40
0.2795262145875673
 41
0.0
 42
1.570796326794897
  0
LINE
  5
EA5F
330
A
100
AcDbEntity
  8
0
  6
Continuous
 62
     7
370
    15
100
AcDbLine
 10
109.675646340847
 20
-40.71879316007249
 30
0.0
 11
-53.82434972524644
 21
-40.71879316007249
 31
0.0
  0
LINE
  5
EA60
330
A
100
AcDbEntity
  8
0
  6
Continuous
 62
     7
370
    15
100
AcDbLine
 10
111.1756568312645
 20
-42.21879247461908
 30
0.0
 11
111.1756568312645
 21
-52.21879318242424
 31
0.0
  0
LINE
  5
EA61
330
A
100
AcDbEntity
  8
0
  6
Continuous
 62
     7
370
    15
100
AcDbLine
 10
111.1756568312645
 20
-52.21879318242424
 30
0.0
 11
110.1756548047066
 21
-52.21879318242424
 31
0.0
  0
LINE
  5
EA62
330
A
100
AcDbEntity
  8
0
  6
Continuous
 62
     7
370
    15
100
AcDbLine
 10
110.1756548047066
 20
-42.21879247461908
 30
0.0
 11
110.1756548047066
 21
-52.21879318242424
 31
0.0
  0
ARC
  5
EA63
330
A
100
AcDbEntity
  8
0
  6
Continuous
 62
     7
370
    15
100
AcDbCircle
 10
109.6756502747536
 20
-42.21879305874455
 30
0.0
 40
0.4999999999999432
100
AcDbArc
 50
0.0
 51
34.56898943134663
  0
ARC
  5
EA64
330
A
100
AcDbEntity
  8
0
  6
Continuous
 62
     7
370
    15
100
AcDbCircle
 10
109.6756502747536
 20
-42.21879305874455
 30
0.0
 40
1.5
100
AcDbArc
 50
0.0
 51
90.0
  0
LINE
  5
EA65
330
A
100
AcDbEntity
  8
0
  6
Continuous
 62
     7
370
    15
100
AcDbLine
 10
-54.32434974899517
 20
-52.21879318242424
 30
0.0
 11
-54.32434974899517
 21
-42.21879247461908
 31
0.0
  0
LINE
  5
EA66
330
A
100
AcDbEntity
  8
0
  6
Continuous
 62
     7
370
    15
100
AcDbLine
 10
-55.32434973828496
 20
-52.21879318242424
 30
0.0
 11
-54.32434974899517
 21
-52.21879318242424
 31
0.0
  0
LINE
  5
EA67
330
A
100
AcDbEntity
  8
0
  6
Continuous
 62
     7
370
    15
100
AcDbLine
 10
-55.32434973828496
 20
-52.21879318242424
 30
0.0
 11
-55.32434973828496
 21
-42.21879247461908
 31
0.0
  0
ARC
  5
EA68
330
A
100
AcDbEntity
  8
0
  6
Continuous
 62
     7
370
    15
100
AcDbCircle
 10
-53.82434972524644
 20
-42.21879305874455
 30
0.0
 40
0.5000000000000026
100
AcDbArc
 50
145.4310105708942
 51
180.0
  0
ARC
  5
EA69
330
A
100
AcDbEntity
  8
0
  6
Continuous
 62
     7
370
    15
100
AcDbCircle
 10
-53.82434972524644
 20
-42.21879305874455
 30
0.0
 40
1.500000000000014
100
AcDbArc
 50
90.0
 51
180.0
  0
LINE
  5
EA6A
330
A
100
AcDbEntity
  8
0
  6
Continuous
 62
     7
370
    15
100
AcDbLine
 10
-50.32434961721302
 20
-63.16879297492557
 30
0.0
 11
-50.32434961721302
 21
-65.66879315187686
 31
0.0
  0
LINE
  5
EA6B
330
A
100
AcDbEntity
  8
0
  6
Continuous
 62
     7
370
    15
100
AcDbLine
 10
99.67565587759017
 20
-63.16879297492557
 30
0.0
 11
99.67565587759017
 21
-65.66879315187686
 31
0.0
  0
LINE
  5
EA6C
330
A
100
AcDbEntity
  8
0
  6
Continuous
 62
     8
370
     0
100
AcDbLine
 10
-50.07434980906547
 20
-54.16879312952511
 30
0.0
 11
-50.07434980906547
 21
-53.16879296561234
 31
0.0
  0
LINE
  5
EA6D
330
A
100
AcDbEntity
  8
0
  6
Continuous
 62
     8
370
     0
100
AcDbLine
 10
105.9256499171257
 20
-54.16879312952511
 30
0.0
 11
105.9256499171257
 21
-53.16879296561234
 31
0.0
  0
LINE
  5
EA6E
330
A
100
AcDbEntity
  8
0
  6
Continuous
 62
     8
370
     0
100
AcDbLine
 10
-50.32434961721302
 20
-54.16879312952511
 30
0.0
 11
-50.32434961721302
 21
-63.16879297492557
 31
0.0
  0
LINE
  5
EA6F
330
A
100
AcDbEntity
  8
0
  6
Continuous
 62
     8
370
     0
100
AcDbLine
 10
-48.62434971109034
 20
-66.61879293506496
 30
0.0
 11
-48.62434971109034
 21
-65.66879315187686
 31
0.0
  0
LINE
  5
EA70
330
A
100
AcDbEntity
  8
0
  6
Continuous
 62
     8
370
     0
100
AcDbLine
 10
104.3756460309029
 20
-66.61879293506496
 30
0.0
 11
104.3756460309029
 21
-65.66879315187686
 31
0.0
  0
LINE
  5
EA71
330
A
100
AcDbEntity
  8
0
  6
Continuous
 62
     8
370
     0
100
AcDbLine
 10
-48.62434971109034
 20
-53.16879296561234
 30
0.0
 11
-48.62434971109034
 21
-52.21879318242424
 31
0.0
  0
LINE
  5
EA72
330
A
100
AcDbEntity
  8
0
  6
Continuous
 62
     8
370
     0
100
AcDbLine
 10
104.3756460309029
 20
-53.16879296561234
 30
0.0
 11
104.3756460309029
 21
-52.21879318242424
 31
0.0
  0
LINE
  5
EA73
330
A
100
AcDbEntity
  8
0
  6
Continuous
 62
     8
370
     0
100
AcDbLine
 10
110.0949352145195
 20
-76.61879364287012
 30
0.0
 11
-54.24363903547638
 21
-76.61879364287012
 31
0.0
  0
LINE
  5
EA74
330
A
100
AcDbEntity
  8
0
  6
Continuous
 62
     8
370
     0
100
AcDbLine
 10
-55.32434973828496
 20
-76.61879364287012
 30
0.0
 11
-54.32434974899517
 21
-76.61879364287012
 31
0.0
  0
LINE
  5
EA75
330
A
100
AcDbEntity
  8
0
  6
Continuous
 62
     8
370
     0
100
AcDbLine
 10
111.1756568312645
 20
-76.61879364287012
 30
0.0
 11
110.1756548047066
 21
-76.61879364287012
 31
0.0
  0
LINE
  5
EA76
330
A
100
AcDbEntity
  8
0
  6
Continuous
 62
     8
370
     0
100
AcDbLine
 10
-54.24363903547638
 20
-42.21879247461908
 30
0.0
 11
110.0949352145195
 21
-42.21879247461908
 31
0.0
  0
LINE
  5
EA77
330
A
100
AcDbEntity
  8
0
  6
Continuous
 62
     8
370
     0
100
AcDbLine
 10
111.1756568312645
 20
-42.21879247461908
 30
0.0
 11
110.1756548047066
 21
-42.21879247461908
 31
0.0
  0
LINE
  5
EA78
330
A
100
AcDbEntity
  8
0
  6
Continuous
 62
     8
370
     0
100
AcDbLine
 10
-55.32434973828496
 20
-42.21879247461908
 30
0.0
 11
-54.32434974899517
 21
-42.21879247461908
 31
0.0
  0
LINE
  5
EA79
330
A
100
AcDbEntity
  8
0
  6
Continuous
 62
     7
370
    15
100
AcDbLine
 10
-119.123848336598
 20
-154.4694013974232
 30
0.0
 11
-119.123848336598
 21
-157.469044229926
 31
0.0
  0
LINE
  5
EA7A
330
A
100
AcDbEntity
  8
0
  6
Continuous
 62
     7
370
    15
100
AcDbLine
 10
-117.3671772395594
 20
-159.9178714994817
 30
0.0
 11
-116.6599570728135
 21
-160.3262752324937
 31
0.0
  0
LINE
  5
EA7B
330
A
100
AcDbEntity
  8
0
  6
Continuous
 62
     7
370
    15
100
AcDbLine
 10
-109.5877386622317
 20
-160.3262762116441
 30
0.0
 11
-109.2830938905295
 21
-160.1503483242913
 31
0.0
  0
LINE
  5
EA7C
330
A
100
AcDbEntity
  8
0
  6
Continuous
 62
     7
370
    15
100
AcDbLine
 10
-50.5242857083922
 20
-138.4326956833279
 30
0.0
 11
-51.59899330229132
 21
-139.053111171371
 31
0.0
  0
LINE
  5
EA7D
330
A
100
AcDbEntity
  8
0
  6
Continuous
 62
     7
370
    15
100
AcDbLine
 10
-146.6937671596802
 20
-75.23708263718865
 30
0.0
 11
-147.4008740567706
 21
-75.64528676000984
 31
0.0
  0
LINE
  5
EA7E
330
A
100
AcDbEntity
  8
0
  6
Continuous
 62
     7
370
    15
100
AcDbLine
 10
-32.16037796440605
 20
-182.4599298901051
 30
0.0
 11
-31.69577415547974
 21
-182.1917198202238
 31
0.0
  0
LINE
  5
EA7F
330
A
100
AcDbEntity
  8
0
  6
Continuous
 62
     7
370
    15
100
AcDbLine
 10
-46.11328248330028
 20
-184.4993782144709
 30
0.0
 11
-45.28772055138097
 21
-184.9759649733335
 31
0.0
  0
LINE
  5
EA80
330
A
100
AcDbEntity
  8
0
  6
Continuous
 62
     7
370
    15
100
AcDbLine
 10
-43.88783471006036
 20
-182.5510284583257
 30
0.0
 11
-44.71339664197967
 21
-182.0744416994631
 31
0.0
  0
LINE
  5
EA81
330
A
100
AcDbEntity
  8
0
  6
Continuous
 62
     7
370
    15
100
AcDbLine
 10
-46.11328248330028
 20
-155.9204496767956
 30
0.0
 11
-45.28772055138097
 21
-156.3970364356582
 31
0.0
  0
LINE
  5
EA82
330
A
100
AcDbEntity
  8
0
  6
Continuous
 62
     7
370
    15
100
AcDbLine
 10
-43.88783471006036
 20
-153.9720991601876
 30
0.0
 11
-44.71339664197967
 21
-153.495512401325
 31
0.0
  0
LINE
  5
EA83
330
A
100
AcDbEntity
  8
0
  6
Continuous
 62
     7
370
    15
100
AcDbLine
 10
-27.02139955458256
 20
-144.8989402614711
 30
0.0
 11
-26.19583762266325
 21
-145.3755270203337
 31
0.0
  0
LINE
  5
EA84
330
A
100
AcDbEntity
  8
0
  6
Continuous
 62
     7
370
    15
100
AcDbLine
 10
-24.79595178134264
 20
-142.9505897448631
 30
0.0
 11
-25.62151371326195
 21
-142.4740029860005
 31
0.0
  0
LINE
  5
EA85
330
A
100
AcDbEntity
  8
0
  6
Continuous
 62
     7
370
    15
100
AcDbLine
 10
-27.02139955458256
 20
-173.4778687991464
 30
0.0
 11
-26.19583762266325
 21
-173.954455558009
 31
0.0
  0
LINE
  5
EA86
330
A
100
AcDbEntity
  8
0
  6
Continuous
 62
     7
370
    15
100
AcDbLine
 10
-24.79595178134264
 20
-171.5295190430013
 30
0.0
 11
-25.62151371326195
 21
-171.0529322841387
 31
0.0
  0
LINE
  5
EA87
330
A
100
AcDbEntity
  8
0
  6
Continuous
 62
     7
370
    15
100
AcDbLine
 10
-165.1368146461532
 20
-127.9066808816503
 30
0.0
 11
-49.10553750600161
 21
-194.8901113922521
 31
0.0
  0
LINE
  5
EA88
330
A
100
AcDbEntity
  8
0
  6
Continuous
 62
     7
370
    15
100
AcDbLine
 10
-165.6772134911691
 20
-83.2098910041934
 30
0.0
 11
-165.6772134911691
 21
-126.9707326413078
 31
0.0
  0
LINE
  5
EA89
330
A
100
AcDbEntity
  8
0
  6
Continuous
 62
     7
370
    15
100
AcDbLine
 10
-22.74078188589829
 20
-179.6698768854511
 30
0.0
 11
-22.74078188589829
 21
-135.9090352483367
 31
0.0
  0
LINE
  5
EA8A
330
A
100
AcDbEntity
  8
0
  6
Continuous
 62
     7
370
    15
100
AcDbLine
 10
-23.28118614332698
 20
-134.9730823625491
 30
0.0
 11
-139.3124632834783
 21
-67.98965185194729
 31
0.0
  0
ARC
  5
EA8B
330
A
100
AcDbEntity
  8
0
  6
Continuous
 62
     7
370
    15
100
AcDbCircle
 10
-112.7097837873307
 20
-152.8362161856946
 30
0.0
 40
8.058926846132382
100
AcDbArc
 50
278.4227942829301
 51
295.0132829082526
  0
LWPOLYLINE
  5
EA8C
330
A
100
AcDbEntity
  8
0
  6
Continuous
 62
     7
370
    15
100
AcDbPolyline
 90
       12
 70
   128
 43
0.0
 10
-119.123848336598
 20
-157.469044229926
 10
-119.0971041855844
 20
-157.795709185548
 10
-118.9080976312539
 20
-158.389534752726
 10
-118.5433387186331
 20
-158.9553919989223
 10
-118.0139110810637
 20
-159.4760875615256
 10
-117.3358999974248
 20
-159.9358008705397
 10
-116.5299090204662
 20
-160.320562402005
 10
-115.6204267862611
 20
-160.6186819391129
 10
-114.6350884565429
 20
-160.8211007993879
 10
-113.603829818283
 20
-160.9216699287885
 10
-112.5579873826214
 20
-160.9173329533948
 10
-111.5293397086996
 20
-160.8082205565249
  0
ARC
  5
EA8D
330
A
100
AcDbEntity
  8
0
  6
Continuous
 62
     7
370
    15
100
AcDbCircle
 10
-113.1483894024232
 20
-153.6215972175479
 30
0.0
 40
7.568607189425939
100
AcDbArc
 50
242.356750776391
 51
280.3001136575761
  0
ARC
  5
EA8E
330
A
100
AcDbEntity
  8
0
  6
Continuous
 62
     7
370
    15
100
AcDbCircle
 10
-112.7051171606117
 20
-154.7064142124776
 30
0.0
 40
6.426577439962791
100
AcDbArc
 50
278.1406481381229
 51
299.0174520464576
  0
LINE
  5
EA8F
330
A
100
AcDbEntity
  8
0
  6
Continuous
 62
     7
370
    15
100
AcDbLine
 10
-148.125890010017
 20
-77.24774253416965
 30
0.0
 11
-148.125890010017
 21
-83.32932093048404
 31
0.0
  0
ARC
  5
EA90
330
A
100
AcDbEntity
  8
0
  6
Continuous
 62
     7
370
    15
100
AcDbCircle
 10
-146.6171294998853
 20
-77.002997988531
 30
0.0
 40
1.528482309204971
100
AcDbArc
 50
50.79673249425324
 51
189.2140118339972
  0
LINE
  5
EA91
330
A
100
AcDbEntity
  8
0
  6
Continuous
 62
     7
370
    15
100
AcDbLine
 10
-35.34235867204052
 20
-139.4983967516161
 30
0.0
 11
-145.6510163435296
 21
-75.81856414121461
 31
0.0
  0
ARC
  5
EA92
330
A
100
AcDbEntity
  8
0
  6
Continuous
 62
     7
370
    15
100
AcDbCircle
 10
-38.2407352761802
 20
-144.0295130061918
 30
0.0
 40
5.378810412340609
100
AcDbArc
 50
2.605446111843972
 51
57.39455403378274
  0
LINE
  5
EA93
330
A
100
AcDbEntity
  8
0
  6
Continuous
 62
     7
370
    15
100
AcDbLine
 10
-32.86748519076855
 20
-183.387233895433
 30
0.0
 11
-32.86748519076855
 21
-143.7850033509031
 31
0.0
  0
LINE
  5
EA94
330
A
100
AcDbEntity
  8
0
  6
Continuous
 62
     7
370
    15
100
AcDbLine
 10
-38.87788920622529
 20
-179.9175015126403
 30
0.0
 11
-32.86748519076855
 21
-183.387233895433
 31
0.0
  0
LINE
  5
EA95
330
A
100
AcDbEntity
  8
0
  6
Continuous
 62
     7
370
    15
100
AcDbLine
 10
-38.87788920622529
 20
-179.9175015126403
 30
0.0
 11
-38.87788920622529
 21
-148.1444736974781
 31
0.0
  0
LWPOLYLINE
  5
EA96
330
A
100
AcDbEntity
  8
0
  6
Continuous
 62
     7
370
    15
100
AcDbPolyline
 90
       16
 70
   128
 43
0.0
 10
-38.87788920622529
 20
-148.1444736974781
 10
-39.27993853088287
 20
-146.8677611494212
 10
-39.80438230361597
 20
-145.5954662080082
 10
-40.44093669338827
 20
-144.3525280492551
 10
-41.17713676975222
 20
-143.1633000880925
 10
-41.99853670038101
 20
-142.0511013240444
 10
-42.88904692585561
 20
-141.0377235929136
 10
-43.83121865089242
 20
-140.1430270272176
 10
-44.8065810191315
 20
-139.3845492099014
 10
-45.79602043477325
 20
-138.7771553969997
 10
-46.7801388107905
 20
-138.33275109628
 10
-47.73965396398944
 20
-138.0600448403908
 10
-48.65575786322233
 20
-137.9643824395671
 10
-49.51049595102313
 20
-138.0476375105665
 10
-50.28710431839704
 20
-138.3081856525693
 10
-50.5242857083922
 20
-138.4326956833279
  0
ARC
  5
EA97
330
A
100
AcDbEntity
  8
0
  6
Continuous
 62
     7
370
    15
100
AcDbCircle
 10
-37.53362837908981
 20
-143.6213088833707
 30
0.0
 40
5.378810412340781
100
AcDbArc
 50
2.605446111845374
 51
57.39455403378386
  0
LINE
  5
EA98
330
A
100
AcDbEntity
  8
0
  6
Continuous
 62
     7
370
    15
100
AcDbLine
 10
-32.86748519076855
 20
-183.387233895433
 30
0.0
 11
-32.16037829367815
 21
-182.9790297726118
 31
0.0
  0
LINE
  5
EA99
330
A
100
AcDbEntity
  8
0
  6
Continuous
 62
     7
370
    15
100
AcDbLine
 10
-32.16037829367815
 20
-182.9790297726118
 30
0.0
 11
-32.16037829367815
 21
-143.3767992280819
 31
0.0
  0
LINE
  5
EA9A
330
A
100
AcDbEntity
  8
0
  6
Continuous
 62
     7
370
    15
100
AcDbLine
 10
-34.63525177495012
 20
-139.0901926287949
 30
0.0
 11
-144.9439094464392
 21
-75.41036001839339
 31
0.0
  0
LINE
  5
EA9B
330
A
100
AcDbEntity
  8
0
  6
Continuous
 62
     7
370
    15
100
AcDbLine
 10
-40.43352411640626
 20
-149.0425226156169
 30
0.0
 11
-38.87788920622529
 21
-148.1444736974781
 31
0.0
  0
LINE
  5
EA9C
330
A
100
AcDbEntity
  8
0
  6
Continuous
 62
     7
370
    15
100
AcDbLine
 10
-40.43352411640626
 20
-180.815550430779
 30
0.0
 11
-38.87788920622529
 21
-179.9175015126403
 31
0.0
  0
ARC
  5
EA9D
330
A
100
AcDbEntity
  8
0
  6
Continuous
 62
     7
370
    15
100
AcDbCircle
 10
-145.9691289818725
 20
-76.84144569389272
 30
0.0
 40
1.76042077539816
100
AcDbArc
 50
54.3824592968438
 51
114.3071334219874
  0
LINE
  5
EA9E
330
A
100
AcDbEntity
  8
0
  6
Continuous
 62
     7
370
    15
100
AcDbLine
 10
-35.73127003376362
 20
-138.4574747557604
 30
0.0
 11
-143.9186045444399
 21
-76.0022559394587
 31
0.0
  0
ARC
  5
EA9F
330
A
100
AcDbEntity
  8
0
  6
Continuous
 62
     7
370
    15
100
AcDbCircle
 10
-39.1647165836539
 20
-144.5223118929594
 30
0.0
 40
7.684038053890242
100
AcDbArc
 50
2.605530936817199
 51
57.39453082788588
  0
LINE
  5
EAA0
330
A
100
AcDbEntity
  8
0
  6
Continuous
 62
     7
370
    15
100
AcDbLine
 10
-31.48862239504865
 20
-181.7338773872116
 30
0.0
 11
-31.48862239504865
 21
-144.1729999674627
 31
0.0
  0
LINE
  5
EAA1
330
A
100
AcDbEntity
  8
0
  6
Continuous
 62
     7
370
    15
100
AcDbLine
 10
-35.02416346594555
 20
-138.049270823024
 30
0.0
 11
-143.2114979766216
 21
-75.59405200672231
 31
0.0
  0
ARC
  5
EAA2
330
A
100
AcDbEntity
  8
0
  6
Continuous
 62
     7
370
    15
100
AcDbCircle
 10
-31.95838955507929
 20
-181.7971145980454
 30
0.0
 40
0.4740043559688025
100
AcDbArc
 50
303.644331205943
 51
7.666723268857906
  0
ARC
  5
EAA3
330
A
100
AcDbEntity
  8
0
  6
Continuous
 62
     7
370
    15
100
AcDbCircle
 10
-144.7293744139706
 20
-77.78739344885162
 30
0.0
 40
2.667338666315377
100
AcDbArc
 50
55.31527914532821
 51
104.2145504909712
  0
LWPOLYLINE
  5
EAA4
330
A
100
AcDbEntity
  8
0
  6
Continuous
 62
     7
370
    15
100
AcDbPolyline
 90
       17
 70
   128
 43
0.0
 10
-45.02388193824731
 20
-184.9266238351571
 10
-45.26838173335955
 20
-184.78690500056
 10
-45.40119237991803
 20
-184.4960409581447
 10
-45.40209458589402
 20
-184.0983157395366
 10
-45.27095071548524
 20
-183.6542770328167
 10
-45.02772652108501
 20
-183.2315273551015
 10
-44.70945064328794
 20
-182.8944257691383
 10
-44.36457746990231
 20
-182.6942928897539
 10
-44.04561143746105
 20
-182.6615978197329
 10
-43.80111098380416
 20
-182.8013170346233
 10
-43.66830033724568
 20
-183.0921803165757
 10
-43.66739813126992
 20
-183.4899062956467
 10
-43.79854200167847
 20
-183.9339442419036
 10
-44.04176619607892
 20
-184.3566939196188
 10
-44.36004207387577
 20
-184.6937955055821
 10
-44.7049152472614
 20
-184.8939283849665
 10
-45.02388193824731
 20
-184.9266238351571
  0
LWPOLYLINE
  5
EAA5
330
A
100
AcDbEntity
  8
0
  6
Continuous
 62
     7
370
    15
100
AcDbPolyline
 90
       18
 70
   128
 43
0.0
 10
-45.13560928238257
 20
-185.0319116722871
 10
-45.39647654269629
 20
-184.8896825348017
 10
-45.54812485490561
 20
-184.5953562384032
 10
-45.57007282626773
 20
-184.1886829595532
 10
-45.45935634795205
 20
-183.7245855075435
 10
-45.23092833155715
 20
-183.2657428726403
 10
-44.9156396116482
 20
-182.8741257031009
 10
-44.55607101756709
 20
-182.6026220986741
 10
-44.20078427987687
 20
-182.4879012058211
 10
-43.89776358560721
 20
-182.5454567557589
 10
-43.68793286611776
 20
-182.7675148788768
 10
-43.5996312672205
 20
-183.124085963067
 10
-43.6447843714102
 20
-183.5670137174239
 10
-43.81729405654323
 20
-184.0364769008166
 10
-44.09386167647176
 20
-184.4690729651812
 10
-44.43713524524742
 20
-184.8063763898196
 10
-44.80075388805267
 20
-185.0028333337993
 10
-45.13560928238257
 20
-185.0319116722871
  0
LINE
  5
EAA6
330
A
100
AcDbEntity
  8
0
  6
Continuous
 62
     7
370
    15
100
AcDbLine
 10
-44.58601635343416
 20
-184.7647079988145
 30
0.0
 11
-43.85467040863841
 21
-183.9232837494003
 31
0.0
  0
LINE
  5
EAA7
330
A
100
AcDbEntity
  8
0
  6
Continuous
 62
     7
370
    15
100
AcDbLine
 10
-43.85467040863841
 20
-183.9232837494003
 30
0.0
 11
-43.8034000845139
 21
-182.952686958324
 31
0.0
  0
LINE
  5
EAA8
330
A
100
AcDbEntity
  8
0
  6
Continuous
 62
     7
370
    15
100
AcDbLine
 10
-43.8034000845139
 20
-182.952686958324
 30
0.0
 11
-44.48347636372955
 21
-182.8235140363687
 31
0.0
  0
LINE
  5
EAA9
330
A
100
AcDbEntity
  8
0
  6
Continuous
 62
     7
370
    15
100
AcDbLine
 10
-44.48347636372955
 20
-182.8235140363687
 30
0.0
 11
-45.21482296706995
 21
-183.6649379054897
 31
0.0
  0
LINE
  5
EAAA
330
A
100
AcDbEntity
  8
0
  6
Continuous
 62
     7
370
    15
100
AcDbLine
 10
-45.26609263264982
 20
-184.6355350768592
 30
0.0
 11
-45.21482296706995
 21
-183.6649379054897
 31
0.0
  0
LINE
  5
EAAB
330
A
100
AcDbEntity
  8
0
  6
Continuous
 62
     7
370
    15
100
AcDbLine
 10
-45.26609263264982
 20
-184.6355350768592
 30
0.0
 11
-44.58601635343416
 21
-184.7647079988145
 31
0.0
  0
LWPOLYLINE
  5
EAAC
330
A
100
AcDbEntity
  8
0
  6
Continuous
 62
     7
370
    15
100
AcDbPolyline
 90
        3
 70
   128
 43
0.0
 10
-44.54046812253955
 20
-182.0178743008279
 10
-44.54006904456764
 20
-182.0228462446572
 10
-44.5348191277501
 20
-182.1775324939731
  0
LINE
  5
EAAD
330
A
100
AcDbEntity
  8
0
  6
Continuous
 62
     7
370
    15
100
AcDbLine
 10
-45.93470496907048
 20
-184.6024690089809
 30
0.0
 11
-46.07579022737173
 21
-184.6774184000122
 31
0.0
  0
LINE
  5
EAAE
330
A
100
AcDbEntity
  8
0
  6
Continuous
 62
     7
370
    15
100
AcDbLine
 10
-44.58601635343416
 20
-184.7647079988145
 30
0.0
 11
-45.25258983605818
 21
-184.3799033180936
 31
0.0
  0
LINE
  5
EAAF
330
A
100
AcDbEntity
  8
0
  6
Continuous
 62
     7
370
    15
100
AcDbLine
 10
-43.85467040863841
 20
-183.9232837494003
 30
0.0
 11
-44.90990105480569
 21
-183.3141120639519
 31
0.0
  0
LWPOLYLINE
  5
EAB0
330
A
100
AcDbEntity
  8
0
  6
Continuous
 62
     7
370
    15
100
AcDbPolyline
 90
       17
 70
   128
 43
0.0
 10
-45.41848970996466
 20
-155.7071971836964
 10
-45.34520095021571
 20
-155.2757368079435
 10
-45.14852729145127
 20
-154.8350575112066
 10
-44.85841143536004
 20
-154.4522490829079
 10
-44.51902064500337
 20
-154.1855892546777
 10
-44.18202366393348
 20
-154.0756769536581
 10
-43.89872571913338
 20
-154.1392432527983
 10
-43.71225554897569
 20
-154.3666121579125
 10
-43.65100300719905
 20
-154.7231685365991
 10
-43.724291766948
 20
-155.154628912352
 10
-43.92096542571244
 20
-155.595308209089
 10
-44.21108128180367
 20
-155.9781166373876
 10
-44.55047207216012
 20
-156.2447749446921
 10
-44.88746905323023
 20
-156.3546872457116
 10
-45.17076765657475
 20
-156.2911213267411
 10
-45.35723716818825
 20
-156.0637520414573
 10
-45.41848970996466
 20
-155.7071971836964
  0
LWPOLYLINE
  5
EAB1
330
A
100
AcDbEntity
  8
0
  6
Continuous
 62
     7
370
    15
100
AcDbPolyline
 90
       18
 70
   128
 43
0.0
 10
-45.57757035549093
 20
-155.7356243954192
 10
-45.50436918216155
 20
-155.2818493685998
 10
-45.30737744639964
 20
-154.8149360331196
 10
-45.0131996877833
 20
-154.3979421371508
 10
-44.66156655502346
 20
-154.0871880169112
 10
-44.29996766822433
 20
-153.9246410644246
 10
-43.97723871246421
 20
-153.9322531621129
 10
-43.73696677309317
 20
-154.108997777707
 10
-43.61160163074192
 20
-154.4310051187338
 10
-43.61807446471084
 20
-154.854783484203
 10
-43.75551072789335
 20
-155.3231020399099
 10
-44.00535000187642
 20
-155.7727117869232
 10
-44.33384846607078
 20
-156.1428883668909
 10
-44.69664195260748
 20
-156.3836374087014
 10
-45.04473277445913
 20
-156.4624464969639
 10
-45.33110941483392
 20
-156.3686724217443
 10
-45.51709489623386
 20
-156.1149763368165
 10
-45.57757035549093
 20
-155.7356243954192
  0
LINE
  5
EAB2
330
A
100
AcDbEntity
  8
0
  6
Continuous
 62
     7
370
    15
100
AcDbLine
 10
-45.24900471975661
 20
-156.0843422242382
 30
0.0
 11
-44.54927352115578
 21
-156.1662800775258
 31
0.0
  0
LINE
  5
EAB3
330
A
100
AcDbEntity
  8
0
  6
Continuous
 62
     7
370
    15
100
AcDbLine
 10
-44.54927352115578
 20
-156.1662800775258
 30
0.0
 11
-43.83501483070859
 21
-155.2971190024247
 31
0.0
  0
LINE
  5
EAB4
330
A
100
AcDbEntity
  8
0
  6
Continuous
 62
     7
370
    15
100
AcDbLine
 10
-43.83501483070859
 20
-155.2971190024247
 30
0.0
 11
-43.8204879974071
 21
-154.3460219751315
 31
0.0
  0
LINE
  5
EAB5
330
A
100
AcDbEntity
  8
0
  6
Continuous
 62
     7
370
    15
100
AcDbLine
 10
-43.8204879974071
 20
-154.3460219751315
 30
0.0
 11
-44.52021919600793
 21
-154.2640856427698
 31
0.0
  0
LINE
  5
EAB6
330
A
100
AcDbEntity
  8
0
  6
Continuous
 62
     7
370
    15
100
AcDbLine
 10
-45.23447788645512
 20
-155.133245196945
 30
0.0
 11
-44.52021919600793
 21
-154.2640856427698
 31
0.0
  0
LINE
  5
EAB7
330
A
100
AcDbEntity
  8
0
  6
Continuous
 62
     7
370
    15
100
AcDbLine
 10
-45.23447788645512
 20
-155.133245196945
 30
0.0
 11
-45.24900471975661
 21
-156.0843422242382
 31
0.0
  0
LINE
  5
EAB8
330
A
100
AcDbEntity
  8
0
  6
Continuous
 62
     7
370
    15
100
AcDbLine
 10
-45.93470496907048
 20
-156.0235404713056
 30
0.0
 11
-46.07579022737173
 21
-156.0984898623368
 31
0.0
  0
LINE
  5
EAB9
330
A
100
AcDbEntity
  8
0
  6
Continuous
 62
     7
370
    15
100
AcDbLine
 10
-44.54046812253955
 20
-153.4389457631525
 30
0.0
 11
-44.53497322716476
 21
-153.611550062098
 31
0.0
  0
LINE
  5
EABA
330
A
100
AcDbEntity
  8
0
  6
Continuous
 62
     7
370
    15
100
AcDbLine
 10
-44.54927352115578
 20
-156.1662800775258
 30
0.0
 11
-45.24412753913066
 21
-155.7651493912556
 31
0.0
  0
LINE
  5
EABB
330
A
100
AcDbEntity
  8
0
  6
Continuous
 62
     7
370
    15
100
AcDbLine
 10
-44.87552569003356
 20
-154.6964448690449
 30
0.0
 11
-43.83501483070859
 21
-155.2971190024247
 31
0.0
  0
LWPOLYLINE
  5
EABC
330
A
100
AcDbEntity
  8
0
  6
Continuous
 62
     7
370
    15
100
AcDbPolyline
 90
       17
 70
   128
 43
0.0
 10
-26.32660678124694
 20
-144.6856877683719
 10
-26.25331802149799
 20
-144.254227392619
 10
-26.05664436273355
 20
-143.8135480958821
 10
-25.76652850664232
 20
-143.4307396675835
 10
-25.42713771628564
 20
-143.1640798393532
 10
-25.09014073521575
 20
-143.0541675383336
 10
-24.80684213187124
 20
-143.1177334573041
 10
-24.62037262025774
 20
-143.345102742588
 10
-24.55912007848133
 20
-143.7016591212747
 10
-24.63240883823028
 20
-144.1331194970275
 10
-24.82908249699472
 20
-144.5737987937645
 10
-25.11919835308595
 20
-144.9566072220631
 10
-25.4585891434424
 20
-145.2232655293676
 10
-25.79558612451251
 20
-145.3331778303871
 10
-26.07888406931261
 20
-145.269611531247
 10
-26.26535423947053
 20
-145.0422426261328
 10
-26.32660678124694
 20
-144.6856877683719
  0
LWPOLYLINE
  5
EABD
330
A
100
AcDbEntity
  8
0
  6
Continuous
 62
     7
370
    15
100
AcDbPolyline
 90
       18
 70
   128
 43
0.0
 10
-26.48568742677321
 20
-144.7141149800947
 10
-26.41248625344383
 20
-144.2603399532753
 10
-26.21549451768192
 20
-143.7934266177951
 10
-25.92131675906558
 20
-143.3764327218263
 10
-25.56968296776108
 20
-143.065678221417
 10
-25.20808408096195
 20
-142.9031312689305
 10
-24.88535578374649
 20
-142.9107437467885
 10
-24.64508384437545
 20
-143.0874883623825
 10
-24.51971870202419
 20
-143.4094957034093
 10
-24.52619153599312
 20
-143.8332740688786
 10
-24.66362779917563
 20
-144.3015926245854
 10
-24.91346641461405
 20
-144.7512019914291
 10
-25.24196553735305
 20
-145.1213789515664
 10
-25.60475902388976
 20
-145.3621279933769
 10
-25.95284984574118
 20
-145.4409370816394
 10
-26.23922582757177
 20
-145.3471626262502
 10
-26.42521130897171
 20
-145.0934665413224
 10
-26.48568742677321
 20
-144.7141149800947
  0
LINE
  5
EABE
330
A
100
AcDbEntity
  8
0
  6
Continuous
 62
     7
370
    15
100
AcDbLine
 10
-26.15712179103889
 20
-145.0628328089138
 30
0.0
 11
-25.45739059243806
 21
-145.1447706622013
 31
0.0
  0
LINE
  5
EABF
330
A
100
AcDbEntity
  8
0
  6
Continuous
 62
     7
370
    15
100
AcDbLine
 10
-25.45739059243806
 20
-145.1447706622013
 30
0.0
 11
-24.74313190199086
 21
-144.2756095871002
 31
0.0
  0
LINE
  5
EAC0
330
A
100
AcDbEntity
  8
0
  6
Continuous
 62
     7
370
    15
100
AcDbLine
 10
-24.74313190199086
 20
-144.2756095871002
 30
0.0
 11
-24.72860506868938
 21
-143.3245125598071
 31
0.0
  0
LINE
  5
EAC1
330
A
100
AcDbEntity
  8
0
  6
Continuous
 62
     7
370
    15
100
AcDbLine
 10
-24.72860506868938
 20
-143.3245125598071
 30
0.0
 11
-25.42833626729021
 21
-143.2425762274453
 31
0.0
  0
LINE
  5
EAC2
330
A
100
AcDbEntity
  8
0
  6
Continuous
 62
     7
370
    15
100
AcDbLine
 10
-26.1425949577374
 20
-144.1117357816206
 30
0.0
 11
-25.42833626729021
 21
-143.2425762274453
 31
0.0
  0
LINE
  5
EAC3
330
A
100
AcDbEntity
  8
0
  6
Continuous
 62
     7
370
    15
100
AcDbLine
 10
-26.1425949577374
 20
-144.1117357816206
 30
0.0
 11
-26.15712179103889
 21
-145.0628328089138
 31
0.0
  0
LINE
  5
EAC4
330
A
100
AcDbEntity
  8
0
  6
Continuous
 62
     7
370
    15
100
AcDbLine
 10
-26.84282204035276
 20
-145.0020310559811
 30
0.0
 11
-26.983907298654
 21
-145.0769804470123
 31
0.0
  0
LINE
  5
EAC5
330
A
100
AcDbEntity
  8
0
  6
Continuous
 62
     7
370
    15
100
AcDbLine
 10
-25.44858519382183
 20
-142.417436347828
 30
0.0
 11
-25.44309029844703
 21
-142.5900406467736
 31
0.0
  0
LINE
  5
EAC6
330
A
100
AcDbEntity
  8
0
  6
Continuous
 62
     7
370
    15
100
AcDbLine
 10
-25.45739059243806
 20
-145.1447706622013
 30
0.0
 11
-26.15224461041271
 21
-144.7436399759312
 31
0.0
  0
LINE
  5
EAC7
330
A
100
AcDbEntity
  8
0
  6
Continuous
 62
     7
370
    15
100
AcDbLine
 10
-25.7836427613156
 20
-143.6749354537205
 30
0.0
 11
-24.74313190199086
 21
-144.2756095871002
 31
0.0
  0
LWPOLYLINE
  5
EAC8
330
A
100
AcDbEntity
  8
0
  6
Continuous
 62
     7
370
    15
100
AcDbPolyline
 90
       17
 70
   128
 43
0.0
 10
-26.32660678124694
 20
-173.2646155455843
 10
-26.25331802149799
 20
-172.8331551698315
 10
-26.05664436273355
 20
-172.3924758730945
 10
-25.76652850664232
 20
-172.0096674447959
 10
-25.42713771628564
 20
-171.7430083770285
 10
-25.09014073521575
 20
-171.633096076009
 10
-24.80684213187124
 20
-171.6966619949795
 10
-24.62037262025774
 20
-171.9240312802633
 10
-24.55912007848133
 20
-172.2805868984871
 10
-24.63240883823028
 20
-172.7120472742399
 10
-24.82908249699472
 20
-173.1527265709769
 10
-25.11919835308595
 20
-173.5355349992755
 10
-25.4585891434424
 20
-173.8021940670429
 10
-25.79558612451251
 20
-173.9121071285253
 10
-26.07888406931261
 20
-173.8485400689223
 10
-26.26535423947053
 20
-173.621171924271
 10
-26.32660678124694
 20
-173.2646155455843
  0
LWPOLYLINE
  5
EAC9
330
A
100
AcDbEntity
  8
0
  6
Continuous
 62
     7
370
    15
100
AcDbPolyline
 90
       18
 70
   128
 43
0.0
 10
-26.48568742677321
 20
-173.29304351777
 10
-26.41248625344383
 20
-172.8392677304877
 10
-26.21549451768192
 20
-172.3723543950076
 10
-25.92131675906558
 20
-171.9553620199645
 10
-25.56968296776108
 20
-171.6446067590923
 10
-25.20808408096195
 20
-171.4820598066058
 10
-24.88535578374649
 20
-171.4896722844638
 10
-24.64508384437545
 20
-171.6664176605207
 10
-24.51971870202419
 20
-171.9884242410846
 10
-24.52619153599312
 20
-172.4122033670168
 10
-24.66362779917563
 20
-172.8805211622607
 10
-24.91346641461405
 20
-173.3301297686415
 10
-25.24196553735305
 20
-173.7003067287788
 10
-25.60475902388976
 20
-173.9410565310522
 10
-25.95284984574118
 20
-174.0198663797777
 10
-26.23922582757177
 20
-173.9260904034626
 10
-26.42521130897171
 20
-173.6723950789977
 10
-26.48568742677321
 20
-173.29304351777
  0
LINE
  5
EACA
330
A
100
AcDbEntity
  8
0
  6
Continuous
 62
     7
370
    15
100
AcDbLine
 10
-26.15712179103889
 20
-173.641761346589
 30
0.0
 11
-25.45739059243806
 21
-173.7236984394137
 31
0.0
  0
LINE
  5
EACB
330
A
100
AcDbEntity
  8
0
  6
Continuous
 62
     7
370
    15
100
AcDbLine
 10
-25.45739059243806
 20
-173.7236984394137
 30
0.0
 11
-24.74313190199086
 21
-172.8545381247755
 31
0.0
  0
LINE
  5
EACC
330
A
100
AcDbEntity
  8
0
  6
Continuous
 62
     7
370
    15
100
AcDbLine
 10
-24.74313190199086
 20
-172.8545381247755
 30
0.0
 11
-24.72860506868938
 21
-171.9034410974824
 31
0.0
  0
LINE
  5
EACD
330
A
100
AcDbEntity
  8
0
  6
Continuous
 62
     7
370
    15
100
AcDbLine
 10
-24.72860506868938
 20
-171.9034410974824
 30
0.0
 11
-25.42833626729021
 21
-171.8215040046577
 31
0.0
  0
LINE
  5
EACE
330
A
100
AcDbEntity
  8
0
  6
Continuous
 62
     7
370
    15
100
AcDbLine
 10
-26.1425949577374
 20
-172.6906643192959
 30
0.0
 11
-25.42833626729021
 21
-171.8215040046577
 31
0.0
  0
LINE
  5
EACF
330
A
100
AcDbEntity
  8
0
  6
Continuous
 62
     7
370
    15
100
AcDbLine
 10
-26.1425949577374
 20
-172.6906643192959
 30
0.0
 11
-26.15712179103889
 21
-173.641761346589
 31
0.0
  0
LINE
  5
EAD0
330
A
100
AcDbEntity
  8
0
  6
Continuous
 62
     7
370
    15
100
AcDbLine
 10
-26.84282204035276
 20
-173.5809595936564
 30
0.0
 11
-26.983907298654
 21
-173.6559089846877
 31
0.0
  0
LINE
  5
EAD1
330
A
100
AcDbEntity
  8
0
  6
Continuous
 62
     7
370
    15
100
AcDbLine
 10
-25.44858519382183
 20
-170.9963648855034
 30
0.0
 11
-25.44309029844703
 21
-171.168968423986
 31
0.0
  0
LINE
  5
EAD2
330
A
100
AcDbEntity
  8
0
  6
Continuous
 62
     7
370
    15
100
AcDbLine
 10
-25.45739059243806
 20
-173.7236984394137
 30
0.0
 11
-26.15224461041271
 21
-173.3225677531436
 31
0.0
  0
LINE
  5
EAD3
330
A
100
AcDbEntity
  8
0
  6
Continuous
 62
     7
370
    15
100
AcDbLine
 10
-25.7836427613156
 20
-172.2538639913957
 30
0.0
 11
-24.74313190199086
 21
-172.8545381247755
 31
0.0
  0
ELLIPSE
  5
EAD4
330
A
100
AcDbEntity
  8
0
  6
Continuous
 62
     7
370
    15
100
AcDbEllipse
 10
-48.56525517729847
 20
-193.4700065772224
 30
0.0
 11
1.460378490006434
 21
-0.4886810180066008
 31
0.0
210
0.0
220
0.0
230
1.0
 40
0.7008315770548265
 41
4.157344685381303
 42
5.728141012176202
  0
ELLIPSE
  5
EAD5
330
A
100
AcDbEntity
  8
0
  6
Continuous
 62
     7
370
    15
100
AcDbEllipse
 10
-48.56525517729847
 20
-150.1933435472777
 30
0.0
 11
1.495434327794612
 21
0.2899898903568285
 31
0.0
210
0.0
220
0.0
230
1.0
 40
0.4032732427404738
 41
3.848948177030277
 42
5.419744503825179
  0
ELLIPSE
  5
EAD6
330
A
100
AcDbEntity
  8
0
  6
Continuous
 62
     7
370
    15
100
AcDbEllipse
 10
-48.56525517729847
 20
-150.1933435472777
 30
0.0
 11
0.499663098427007
 21
0.2436354915293037
 31
0.0
210
0.0
220
0.0
230
1.0
 40
0.075324766743824
 41
3.890278997963851
 42
5.461075324758879
  0
LINE
  5
EAD7
330
A
100
AcDbEntity
  8
0
  6
Continuous
 62
     7
370
    15
100
AcDbLine
 10
-49.62591805912052
 20
-150.8056475702538
 30
0.0
 11
-48.91881116203012
 21
-150.3974434474326
 31
0.0
  0
ELLIPSE
  5
EAD8
330
A
100
AcDbEntity
  8
0
  6
Continuous
 62
     7
370
    15
100
AcDbEllipse
 10
-164.1772139012987
 20
-83.45198040577108
 30
0.0
 11
0.3068251416117884
 21
1.509104183918225
 31
0.0
210
0.0
220
0.0
230
1.0
 40
0.7008890279979562
 41
0.5549034007178448
 42
2.125699727512786
  0
ELLIPSE
  5
EAD9
330
A
100
AcDbEntity
  8
0
  6
Continuous
 62
     7
370
    15
100
AcDbEllipse
 10
-48.56525517729847
 20
-150.1933435472777
 30
0.0
 11
0.9988284297380119
 21
1.150116463053287
 31
0.0
210
0.0
220
0.0
230
1.0
 40
0.4033882451210546
 41
0.8633906978604401
 42
2.434187024655333
  0
ELLIPSE
  5
EADA
330
A
100
AcDbEntity
  8
0
  6
Continuous
 62
     7
370
    15
100
AcDbEllipse
 10
-48.56525517729847
 20
-150.1933435472777
 30
0.0
 11
0.4608158422367835
 21
0.310920839424405
 31
0.0
210
0.0
220
0.0
230
1.0
 40
0.0754639588870138
 41
0.8220974581814439
 42
2.392893784976167
  0
LINE
  5
EADB
330
A
100
AcDbEntity
  8
0
  6
Continuous
 62
     7
370
    15
100
AcDbLine
 10
-40.43352247004509
 20
-146.381244806924
 30
0.0
 11
-47.50459078240442
 21
-150.4632856549665
 31
0.0
  0
LINE
  5
EADC
330
A
100
AcDbEntity
  8
0
  6
Continuous
 62
     7
370
    15
100
AcDbLine
 10
-40.43352247004509
 20
-146.381244806924
 30
0.0
 11
-40.43352247004509
 21
-190.3426418014098
 31
0.0
  0
LINE
  5
EADD
330
A
100
AcDbEntity
  8
0
  6
Continuous
 62
     7
370
    15
100
AcDbLine
 10
-47.50459078240442
 20
-194.4246826494523
 30
0.0
 11
-40.43352247004509
 21
-190.3426418014098
 31
0.0
  0
LWPOLYLINE
  5
EADE
330
A
100
AcDbEntity
  8
0
  6
Continuous
 62
     7
370
    15
100
AcDbPolyline
 90
       11
 70
   128
 43
0.0
 10
-46.12573226722361
 20
-155.7254406748619
 10
-46.05868453377707
 20
-155.2227566602611
 10
-45.86480705499343
 20
-154.6971341566653
 10
-45.56510937631083
 20
-154.2055340457804
 10
-45.19206827868561
 20
-153.8012267475893
 10
-44.78610851673966
 20
-153.528026720934
 10
-44.39122283923984
 20
-153.4155388407384
 10
-44.05020215122613
 20
-153.4759515933332
 10
-43.80000199485266
 20
-153.702721910432
 10
-43.66773530605792
 20
-154.0712717489199
 10
-43.65101420245583
 20
-154.2741210906701
  0
LWPOLYLINE
  5
EADF
330
A
100
AcDbEntity
  8
0
  6
Continuous
 62
     7
370
    15
100
AcDbPolyline
 90
        6
 70
   128
 43
0.0
 10
-44.90774761426451
 20
-156.4510829486002
 10
-45.19206827868561
 20
-156.5716691065347
 10
-45.56510937631083
 20
-156.5980658918677
 10
-45.86480705499343
 20
-156.4524878345449
 10
-46.05868453377707
 20
-156.1507130241786
 10
-46.12573226722361
 20
-155.7254406748619
  0
LWPOLYLINE
  5
EAE0
330
A
100
AcDbEntity
  8
0
  6
Continuous
 62
     7
370
    15
100
AcDbPolyline
 90
       11
 70
   128
 43
0.0
 10
-46.12573226722361
 20
-184.3043684520743
 10
-46.05868453377707
 20
-183.8016844374735
 10
-45.86480705499343
 20
-183.2760626943406
 10
-45.56510937631083
 20
-182.7844618229928
 10
-45.19206827868561
 20
-182.3801545248017
 10
-44.78610851673966
 20
-182.1069544981464
 10
-44.39122283923984
 20
-181.9944666179508
 10
-44.05020215122613
 20
-182.0548801310086
 10
-43.80000199485266
 20
-182.2816496876444
 10
-43.66773530605792
 20
-182.6502002865952
 10
-43.65101420245583
 20
-182.8530496283454
  0
LWPOLYLINE
  5
EAE1
330
A
100
AcDbEntity
  8
0
  6
Continuous
 62
     7
370
    15
100
AcDbPolyline
 90
        6
 70
   128
 43
0.0
 10
-44.90774695572009
 20
-185.030010345643
 10
-45.19206827868561
 20
-185.1505968837472
 10
-45.56510937631083
 20
-185.1769936690802
 10
-45.86480705499343
 20
-185.0314163722201
 10
-46.05868453377707
 20
-184.729640801391
 10
-46.12573226722361
 20
-184.3043684520743
  0
LINE
  5
EAE2
330
A
100
AcDbEntity
  8
0
  6
Continuous
 62
     7
370
    15
100
AcDbLine
 10
-41.14063068422456
 20
-145.9730399237635
 30
0.0
 11
-48.21169899658389
 21
-150.0550807718059
 31
0.0
  0
LINE
  5
EAE3
330
A
100
AcDbEntity
  8
0
  6
Continuous
 62
     7
370
    15
100
AcDbLine
 10
-40.43352247004509
 20
-146.381244806924
 30
0.0
 11
-41.14063068422456
 21
-145.9730399237635
 31
0.0
  0
LINE
  5
EAE4
330
A
100
AcDbEntity
  8
0
  6
Continuous
 62
     7
370
    15
100
AcDbLine
 10
-157.4026283165213
 20
-77.97397312731513
 30
0.0
 11
-164.4736966288806
 21
-82.05601397535762
 31
0.0
  0
LINE
  5
EAE5
330
A
100
AcDbEntity
  8
0
  6
Continuous
 62
     7
370
    15
100
AcDbLine
 10
-157.4026283165213
 20
-77.97397312731513
 30
0.0
 11
-41.19770805382041
 21
-145.0576456788529
 31
0.0
  0
LINE
  5
EAE6
330
A
100
AcDbEntity
  8
0
  6
Continuous
 62
     7
370
    15
100
AcDbLine
 10
-48.26877636617974
 20
-149.1396865268953
 30
0.0
 11
-41.19770805382041
 21
-145.0576456788529
 31
0.0
  0
LINE
  5
EAE7
330
A
100
AcDbEntity
  8
0
  6
Continuous
 62
     7
370
    15
100
AcDbLine
 10
-48.26877636617974
 20
-149.9562259516968
 30
0.0
 11
-41.19770805382041
 21
-145.8741851036543
 31
0.0
  0
LINE
  5
EAE8
330
A
100
AcDbEntity
  8
0
  6
Continuous
 62
     7
370
    15
100
AcDbLine
 10
-41.19770805382041
 20
-145.0576456788529
 30
0.0
 11
-41.19770805382041
 21
-145.8741851036543
 31
0.0
  0
LWPOLYLINE
  5
EAE9
330
A
100
AcDbEntity
  8
0
  6
Continuous
 62
     7
370
    15
100
AcDbPolyline
 90
        3
 70
   128
 43
0.0
 10
-44.44151193204743
 20
-153.4206037473778
 10
-44.37484352023739
 20
-153.6630668657594
 10
-44.37041744259932
 20
-153.6935097513013
  0
LWPOLYLINE
  5
EAEA
330
A
100
AcDbEntity
  8
0
  6
Continuous
 62
     7
370
    15
100
AcDbPolyline
 90
        3
 70
   128
 43
0.0
 10
-45.77030394246435
 20
-156.1184474069416
 10
-45.89917649286485
 20
-156.1634642233742
 10
-46.04218799385194
 20
-156.1933563875877
  0
LWPOLYLINE
  5
EAEB
330
A
100
AcDbEntity
  8
0
  6
Continuous
 62
     7
370
    15
100
AcDbPolyline
 90
        3
 70
   128
 43
0.0
 10
-44.44151193204743
 20
-181.9995322850532
 10
-44.37484352023739
 20
-182.2419954034347
 10
-44.37041744259932
 20
-182.2724382889766
  0
LWPOLYLINE
  5
EAEC
330
A
100
AcDbEntity
  8
0
  6
Continuous
 62
     7
370
    15
100
AcDbPolyline
 90
        3
 70
   128
 43
0.0
 10
-45.77030394246435
 20
-184.6973759446169
 10
-45.89917649286485
 20
-184.7423920005866
 10
-46.04218799385194
 20
-184.772284925263
  0
ELLIPSE
  5
EAED
330
A
100
AcDbEntity
  8
0
  6
Continuous
 62
     7
370
    15
100
AcDbEllipse
 10
-164.1772139012987
 20
-126.7286434357158
 30
0.0
 11
0.9988284297380304
 21
1.150116463053294
 31
0.0
210
0.0
220
0.0
230
1.0
 40
0.4033882451210482
 41
2.434187024655335
 42
3.21966645211492
  0
ELLIPSE
  5
EAEE
330
A
100
AcDbEntity
  8
0
  6
Continuous
 62
     7
370
    15
100
AcDbEllipse
 10
-48.56525517729847
 20
-193.4700065772224
 30
0.0
 11
0.3068251416117817
 21
1.509104183918225
 31
0.0
210
0.0
220
0.0
230
1.0
 40
0.7008890279979532
 41
2.125699727512757
 42
3.696496054307659
  0
LINE
  5
EAEF
330
A
100
AcDbEntity
  8
0
  6
Continuous
 62
     7
370
    15
100
AcDbLine
 10
-41.19770805382041
 20
-190.7839310349482
 30
0.0
 11
-41.19770805382041
 21
-190.7837880679246
 31
0.0
  0
LINE
  5
EAF0
330
A
100
AcDbEntity
  8
0
  6
Continuous
 62
     7
370
    15
100
AcDbLine
 10
-41.19770805382041
 20
-190.7839310349482
 30
0.0
 11
-48.26877636617974
 21
-194.8659718829907
 31
0.0
  0
ELLIPSE
  5
EAF1
330
A
100
AcDbEntity
  8
0
  6
Continuous
 62
     7
370
    15
100
AcDbEllipse
 10
-164.1772139012987
 20
-83.45198040577108
 30
0.0
 11
1.460378490006436
 21
-0.4886810180066021
 31
0.0
210
0.0
220
0.0
230
1.0
 40
0.7008315770548266
 41
2.586548358586415
 42
4.157344685381313
  0
ELLIPSE
  5
EAF2
330
A
100
AcDbEntity
  8
0
  6
Continuous
 62
     7
370
    15
100
AcDbEllipse
 10
-164.1772139012987
 20
-126.7286434357158
 30
0.0
 11
1.495434327794629
 21
0.2899898903568356
 31
0.0
210
0.0
220
0.0
230
1.0
 40
0.4032732427404603
 41
3.063550013632799
 42
3.84894817703028
  0
LINE
  5
EAF3
330
A
100
AcDbEntity
  8
0
  6
Continuous
 62
     7
370
    15
100
AcDbLine
 10
-165.2378744953373
 20
-82.4973076640091
 30
0.0
 11
-164.4880175229669
 21
-82.0644244480379
 31
0.0
  0
LINE
  5
EAF4
330
A
100
AcDbEntity
  8
0
  6
Continuous
 62
     7
370
    15
100
AcDbLine
 10
-30.25118499586824
 20
-184.4645034972594
 30
0.0
 11
-23.18011668350891
 21
-180.3824626492169
 31
0.0
  0
LINE
  5
EAF5
330
A
100
AcDbEntity
  8
0
  6
Continuous
 62
     7
370
    15
100
AcDbLine
 10
-30.25118499586824
 20
-184.4645034972594
 30
0.0
 11
-30.25118499586824
 21
-140.5031065027736
 31
0.0
  0
LINE
  5
EAF6
330
A
100
AcDbEntity
  8
0
  6
Continuous
 62
     7
370
    15
100
AcDbLine
 10
-23.18011668350891
 20
-136.4210656547311
 30
0.0
 11
-30.25118499586824
 21
-140.5031065027736
 31
0.0
  0
LWPOLYLINE
  5
EAF7
330
A
100
AcDbEntity
  8
0
  6
Continuous
 62
     7
370
    15
100
AcDbPolyline
 90
       16
 70
   128
 43
0.0
 10
-24.5589751986895
 20
-143.2752168296632
 10
-24.62602293213627
 20
-142.8499444803464
 10
-24.8199004109199
 20
-142.5481681490544
 10
-25.11959808960228
 20
-142.4025916126572
 10
-25.49263918722772
 20
-142.4289883979903
 10
-25.89859894917367
 20
-142.6244995356801
 10
-26.29348462667349
 20
-142.9679369540828
 10
-26.6345053146872
 20
-143.4220838121923
 10
-26.88470547106044
 20
-143.9377290809635
 10
-27.01697215985541
 20
-144.4589907877703
 10
-27.01697215985541
 20
-144.9293842346793
 10
-26.88470547106044
 20
-145.297935594093
 10
-26.6345053146872
 20
-145.524704390266
 10
-26.29348462667349
 20
-145.5851186637866
 10
-25.89859894917367
 20
-145.472630783591
 10
-25.81586468554679
 20
-145.4295735332757
  0
LWPOLYLINE
  5
EAF8
330
A
100
AcDbEntity
  8
0
  6
Continuous
 62
     7
370
    15
100
AcDbPolyline
 90
       16
 70
   128
 43
0.0
 10
-24.5589751986895
 20
-171.8541446068756
 10
-24.62602293213627
 20
-171.4288722575588
 10
-24.8199004109199
 20
-171.1270966867297
 10
-25.11959808960228
 20
-170.9815193898696
 10
-25.49263918722772
 20
-171.0079161752027
 10
-25.89859894917367
 20
-171.2034273128925
 10
-26.29348462667349
 20
-171.5468647312952
 10
-26.6345053146872
 20
-172.0010123498676
 10
-26.88470547106044
 20
-172.5166568581759
 10
-27.01697215985541
 20
-173.0379193254456
 10
-27.01697215985541
 20
-173.5083127723546
 10
-26.88470547106044
 20
-173.8768633713054
 10
-26.6345053146872
 20
-174.1036329279413
 10
-26.29348462667349
 20
-174.164046440999
 10
-25.89859894917367
 20
-174.0515585608034
 10
-25.81586402700236
 20
-174.0085009303185
  0
LINE
  5
EAF9
330
A
100
AcDbEntity
  8
0
  6
Continuous
 62
     7
370
    15
100
AcDbLine
 10
-30.95829321004771
 20
-184.0562986140989
 30
0.0
 11
-30.95829321004771
 21
-140.094901619613
 31
0.0
  0
LINE
  5
EAFA
330
A
100
AcDbEntity
  8
0
  6
Continuous
 62
     7
370
    15
100
AcDbLine
 10
-30.25118499586824
 20
-140.5031065027736
 30
0.0
 11
-30.95829321004771
 21
-140.094901619613
 31
0.0
  0
LINE
  5
EAFB
330
A
100
AcDbEntity
  8
0
  6
Continuous
 62
     7
370
    15
100
AcDbLine
 10
-30.25118499586824
 20
-184.4645034972594
 30
0.0
 11
-30.95829321004771
 21
-184.0562986140989
 31
0.0
  0
LINE
  5
EAFC
330
A
100
AcDbEntity
  8
0
  6
Continuous
 62
     7
370
    15
100
AcDbLine
 10
-23.88722489768838
 20
-136.0128607715706
 30
0.0
 11
-30.95829321004771
 21
-140.094901619613
 31
0.0
  0
LINE
  5
EAFD
330
A
100
AcDbEntity
  8
0
  6
Continuous
 62
     7
370
    15
100
AcDbLine
 10
-31.01537057964356
 20
-139.9960467995039
 30
0.0
 11
-147.2202908423442
 21
-72.91237424796614
 31
0.0
  0
LINE
  5
EAFE
330
A
100
AcDbEntity
  8
0
  6
Continuous
 62
     7
370
    15
100
AcDbLine
 10
-147.2202908423442
 20
-72.09583482316472
 30
0.0
 11
-147.2202908423442
 21
-72.91237424796614
 31
0.0
  0
LINE
  5
EAFF
330
A
100
AcDbEntity
  8
0
  6
Continuous
 62
     7
370
    15
100
AcDbLine
 10
-31.01537057964356
 20
-139.1795073747024
 30
0.0
 11
-147.2202908423442
 21
-72.09583482316472
 31
0.0
  0
LINE
  5
EB00
330
A
100
AcDbEntity
  8
0
  6
Continuous
 62
     7
370
    15
100
AcDbLine
 10
-31.01537057964356
 20
-139.1795073747024
 30
0.0
 11
-31.01537057964356
 21
-139.9960467995039
 31
0.0
  0
LINE
  5
EB01
330
A
100
AcDbEntity
  8
0
  6
Continuous
 62
     7
370
    15
100
AcDbLine
 10
-31.01537057964356
 20
-139.9960467995039
 30
0.0
 11
-23.94430226728423
 21
-135.9140059514614
 31
0.0
  0
LINE
  5
EB02
330
A
100
AcDbEntity
  8
0
  6
Continuous
 62
     7
370
    15
100
AcDbLine
 10
-31.01537057964356
 20
-139.1795073747024
 30
0.0
 11
-23.94430226728423
 21
-135.09746652666
 31
0.0
  0
LINE
  5
EB03
330
A
100
AcDbEntity
  8
0
  6
Continuous
 62
     7
370
    15
100
AcDbLine
 10
-140.1492225299849
 20
-68.01379397512224
 30
0.0
 11
-147.2202908423442
 21
-72.09583482316472
 31
0.0
  0
ELLIPSE
  5
EB04
330
A
100
AcDbEntity
  8
0
  6
Continuous
 62
     7
370
    15
100
AcDbEllipse
 10
-24.24078190448108
 20
-136.1511240239271
 30
0.0
 11
1.495434327794641
 21
0.2899898903568356
 31
0.0
210
0.0
220
0.0
230
1.0
 40
0.4032732427404678
 41
5.419744503825171
 42
6.990540830620053
  0
ELLIPSE
  5
EB05
330
A
100
AcDbEntity
  8
0
  6
Continuous
 62
     7
370
    15
100
AcDbEllipse
 10
-24.24078190448108
 20
-179.4277870538718
 30
0.0
 11
1.460378490006434
 21
-0.4886810180066004
 31
0.0
210
0.0
220
0.0
230
1.0
 40
0.7008315770548207
 41
5.728141012176215
 42
6.513539175573626
  0
ELLIPSE
  5
EB06
330
A
100
AcDbEntity
  8
0
  6
Continuous
 62
     7
370
    15
100
AcDbEllipse
 10
-24.24078190448108
 20
-136.1511240239271
 30
0.0
 11
0.4996630984270212
 21
0.243635491529318
 31
0.0
210
0.0
220
0.0
230
1.0
 40
0.0753247667438215
 41
5.461075324758702
 42
7.031871651553598
  0
LINE
  5
EB07
330
A
100
AcDbEntity
  8
0
  6
Continuous
 62
     7
370
    15
100
AcDbLine
 10
-23.18012458604289
 20
-135.5388159618941
 30
0.0
 11
-23.88723148313329
 21
-135.9470200847153
 31
0.0
  0
ELLIPSE
  5
EB08
330
A
100
AcDbEntity
  8
0
  6
Continuous
 62
     7
370
    15
100
AcDbEllipse
 10
-24.24078190448108
 20
-136.1511240239271
 30
0.0
 11
0.9988284297380127
 21
1.150116463053301
 31
0.0
210
0.0
220
0.0
230
1.0
 40
0.4033882451210548
 41
5.575779678245173
 42
7.146576005040054
  0
ELLIPSE
  5
EB09
330
A
100
AcDbEntity
  8
0
  6
Continuous
 62
     7
370
    15
100
AcDbEllipse
 10
-139.8527406284816
 20
-69.40976088242056
 30
0.0
 11
0.3068251416117959
 21
1.509104183918225
 31
0.0
210
0.0
220
0.0
230
1.0
 40
0.7008890279979499
 41
6.052771808562134
 42
6.838088707897474
  0
ELLIPSE
  5
EB0A
330
A
100
AcDbEntity
  8
0
  6
Continuous
 62
     7
370
    15
100
AcDbEllipse
 10
-24.24078190448108
 20
-136.1511240239271
 30
0.0
 11
0.4608158422367978
 21
0.310920839424405
 31
0.0
210
0.0
220
0.0
230
1.0
 40
0.0754639588870122
 41
5.534486438566742
 42
7.10528276536169
  0
LWPOLYLINE
  5
EB0B
330
A
100
AcDbEntity
  8
0
  6
Continuous
 62
     7
370
    15
100
AcDbPolyline
 90
        3
 70
   128
 43
0.0
 10
-25.34962900332971
 20
-142.3990943320534
 10
-25.28296059151967
 20
-142.6415574504349
 10
-25.27853451388137
 20
-142.6720003359768
  0
LWPOLYLINE
  5
EB0C
330
A
100
AcDbEntity
  8
0
  6
Continuous
 62
     7
370
    15
100
AcDbPolyline
 90
        3
 70
   128
 43
0.0
 10
-26.67842101374663
 20
-145.0969379916171
 10
-26.80729290560271
 20
-145.1419544278801
 10
-26.95030506513422
 20
-145.1718469722632
  0
LWPOLYLINE
  5
EB0D
330
A
100
AcDbEntity
  8
0
  6
Continuous
 62
     7
370
    15
100
AcDbPolyline
 90
        3
 70
   128
 43
0.0
 10
-25.34962900332971
 20
-170.9780228697287
 10
-25.28296059151967
 20
-171.2204859881102
 10
-25.27853451388137
 20
-171.2509288736521
  0
LWPOLYLINE
  5
EB0E
330
A
100
AcDbEntity
  8
0
  6
Continuous
 62
     7
370
    15
100
AcDbPolyline
 90
        3
 70
   128
 43
0.0
 10
-26.67842101374663
 20
-173.6758665292924
 10
-26.80729290560271
 20
-173.7208822050925
 10
-26.95030506513422
 20
-173.7507755099386
  0
LINE
  5
EB0F
330
A
100
AcDbEntity
  8
0
  6
Continuous
 62
     7
370
    15
100
AcDbLine
 10
-32.54946318187945
 20
-183.2036389765984
 30
0.0
 11
-31.01537057964356
 21
-184.0892517850706
 31
0.0
  0
LINE
  5
EB10
330
A
100
AcDbEntity
  8
0
  6
Continuous
 62
     7
370
    15
100
AcDbLine
 10
-31.01537057964356
 20
-184.9057927307977
 30
0.0
 11
-31.01537057964356
 21
-184.0892517850706
 31
0.0
  0
LINE
  5
EB11
330
A
100
AcDbEntity
  8
0
  6
Continuous
 62
     7
370
    15
100
AcDbLine
 10
-39.26709131534881
 20
-180.1421757465136
 30
0.0
 11
-31.01537057964356
 21
-184.9057927307977
 31
0.0
  0
LINE
  5
EB12
330
A
100
AcDbEntity
  8
0
  6
Continuous
 62
     7
370
    15
100
AcDbLine
 10
-30.95829024659724
 20
-184.0563000102013
 30
0.0
 11
-31.01537057964356
 21
-184.0892517850706
 31
0.0
  0
LINE
  5
EB13
330
A
100
AcDbEntity
  8
0
  6
Continuous
 62
     7
370
    15
100
AcDbLine
 10
-23.94430226728423
 20
-180.8237518827553
 30
0.0
 11
-31.01537057964356
 21
-184.9057927307977
 31
0.0
  0
LINE
  5
EB14
330
A
100
AcDbEntity
  8
0
  6
Continuous
 62
     7
370
    15
100
AcDbLine
 10
-147.2773619351879
 20
-72.9453325633556
 30
0.0
 11
-147.2773619351879
 21
-75.57398509531029
 31
0.0
  0
LINE
  5
EB15
330
A
100
AcDbEntity
  8
0
  6
Continuous
 62
     7
370
    15
100
AcDbLine
 10
-147.9844687088012
 20
-72.53712851181618
 30
0.0
 11
-147.9844687088012
 21
-76.37714215520501
 31
0.0
  0
LINE
  5
EB16
330
A
100
AcDbEntity
  8
0
  6
Continuous
 62
     7
370
    15
100
AcDbLine
 10
-147.9844687088012
 20
-72.53712851181618
 30
0.0
 11
-147.2773619351879
 21
-72.9453325633556
 31
0.0
  0
LINE
  5
EB17
330
A
100
AcDbEntity
  8
0
  6
Continuous
 62
     7
370
    15
100
AcDbLine
 10
-147.2773619351879
 20
-72.9453325633556
 30
0.0
 11
-147.2202816021418
 21
-72.91238078848627
 31
0.0
  0
LINE
  5
EB18
330
A
100
AcDbEntity
  8
0
  6
Continuous
 62
     7
370
    15
100
AcDbLine
 10
-147.9844687088012
 20
-72.53712851181618
 30
0.0
 11
-147.2202910275601
 21
-72.0959781265856
 31
0.0
  0
LINE
  5
EB19
330
A
100
AcDbEntity
  8
0
  6
Continuous
 62
     7
370
    15
100
AcDbLine
 10
-41.88309878721543
 20
-146.3358131476839
 30
0.0
 11
-41.94022884037213
 21
-146.3028326700058
 31
0.0
  0
LINE
  5
EB1A
330
A
100
AcDbEntity
  8
0
  6
Continuous
 62
     7
370
    15
100
AcDbLine
 10
-41.88309878721543
 20
-146.3358131476839
 30
0.0
 11
-48.24706020248436
 21
-150.0096498729051
 31
0.0
  0
LINE
  5
EB1B
330
A
100
AcDbEntity
  8
0
  6
Continuous
 62
     7
370
    15
100
AcDbLine
 10
-48.24706020248436
 20
-150.0096498729051
 30
0.0
 11
-48.30392683783771
 21
-149.976821463088
 31
0.0
  0
LINE
  5
EB1C
330
A
100
AcDbEntity
  8
0
  6
Continuous
 62
     7
370
    15
100
AcDbLine
 10
-48.24706020248436
 20
-150.0096498729051
 30
0.0
 11
-48.24706020248436
 21
-150.0751865648691
 31
0.0
  0
LINE
  5
EB1D
330
A
100
AcDbEntity
  8
0
  6
Continuous
 62
     7
370
    15
100
AcDbLine
 10
-41.88309878721543
 20
-146.4016509829528
 30
0.0
 11
-41.88309878721543
 21
-146.3358131476839
 31
0.0
  0
LINE
  5
EB1E
330
A
100
AcDbEntity
  8
0
  6
Continuous
 62
     7
370
    15
100
AcDbLine
 10
-44.43131832160839
 20
-153.4193314996479
 30
0.0
 11
-44.43309507469098
 21
-153.6573280807495
 31
0.0
  0
LINE
  5
EB1F
330
A
100
AcDbEntity
  8
0
  6
Continuous
 62
     7
370
    15
100
AcDbLine
 10
-45.83298091601159
 20
-156.0822638352944
 30
0.0
 11
-46.01114091302316
 21
-156.1887605923806
 31
0.0
  0
LINE
  5
EB20
330
A
100
AcDbEntity
  8
0
  6
Continuous
 62
     7
370
    15
100
AcDbLine
 10
-44.42996567118894
 20
-182.0287167030393
 30
0.0
 11
-44.43309507469098
 21
-182.2362558579619
 31
0.0
  0
LINE
  5
EB21
330
A
100
AcDbEntity
  8
0
  6
Continuous
 62
     7
370
    15
100
AcDbLine
 10
-45.83298091601159
 20
-184.6611923729697
 30
0.0
 11
-46.01114091302316
 21
-184.7676891300559
 31
0.0
  0
LINE
  5
EB22
330
A
100
AcDbEntity
  8
0
  6
Continuous
 62
     7
370
    15
100
AcDbLine
 10
-24.55898244267928
 20
-136.3348136592428
 30
0.0
 11
-24.61611249583575
 21
-136.3018331815647
 31
0.0
  0
LINE
  5
EB23
330
A
100
AcDbEntity
  8
0
  6
Continuous
 62
     7
370
    15
100
AcDbLine
 10
-24.55898244267928
 20
-136.3348136592428
 30
0.0
 11
-31.27649730649318
 21
-140.2127524458747
 31
0.0
  0
LINE
  5
EB24
330
A
100
AcDbEntity
  8
0
  6
Continuous
 62
     7
370
    15
100
AcDbLine
 10
-31.27649730649318
 20
-140.2127524458747
 30
0.0
 11
-146.8884532488016
 21
-73.47139091020469
 31
0.0
  0
LINE
  5
EB25
330
A
100
AcDbEntity
  8
0
  6
Continuous
 62
     7
370
    15
100
AcDbLine
 10
-146.570197456612
 20
-73.2876657520736
 30
0.0
 11
-146.8884532488016
 21
-73.47139091020469
 31
0.0
  0
LINE
  5
EB26
330
A
100
AcDbEntity
  8
0
  6
Continuous
 62
     7
370
    15
100
AcDbLine
 10
-24.55898244267928
 20
-136.4006514945117
 30
0.0
 11
-24.55898244267928
 21
-136.3348136592428
 31
0.0
  0
LINE
  5
EB27
330
A
100
AcDbEntity
  8
0
  6
Continuous
 62
     7
370
    15
100
AcDbLine
 10
-31.27649730649318
 20
-183.4894164857141
 30
0.0
 11
-30.9582991369482
 21
-183.3057245924276
 31
0.0
  0
LINE
  5
EB28
330
A
100
AcDbEntity
  8
0
  6
Continuous
 62
     7
370
    15
100
AcDbLine
 10
-31.27649730649318
 20
-140.2127524458747
 30
0.0
 11
-31.27649730649318
 21
-183.4894164857141
 31
0.0
  0
LINE
  5
EB29
330
A
100
AcDbEntity
  8
0
  6
Continuous
 62
     7
370
    15
100
AcDbLine
 10
-25.33808274247122
 20
-142.4282779895766
 30
0.0
 11
-25.34357632075694
 21
-142.6691092275754
 31
0.0
  0
LINE
  5
EB2A
330
A
100
AcDbEntity
  8
0
  6
Continuous
 62
     7
370
    15
100
AcDbLine
 10
-26.74109798729387
 20
-145.0607544199699
 30
0.0
 11
-26.91925798430543
 21
-145.1672511770561
 31
0.0
  0
LINE
  5
EB2B
330
A
100
AcDbEntity
  8
0
  6
Continuous
 62
     7
370
    15
100
AcDbLine
 10
-25.33943539289066
 20
-170.9767513824616
 30
0.0
 11
-25.34357632075694
 21
-171.2480377652507
 31
0.0
  0
LINE
  5
EB2C
330
A
100
AcDbEntity
  8
0
  6
Continuous
 62
     7
370
    15
100
AcDbLine
 10
-26.74109798729387
 20
-173.6396829576452
 30
0.0
 11
-26.94630835851535
 21
-173.760238135369
 31
0.0
  0
LINE
  5
EB2D
330
A
100
AcDbEntity
  8
0
  6
Continuous
 62
     7
370
    15
100
AcDbLine
 10
-146.8884532488016
 20
-73.47139091020469
 30
0.0
 11
-146.8884532488016
 21
-75.34947265224415
 31
0.0
  0
LINE
  5
EB2E
330
A
100
AcDbEntity
  8
0
  6
Continuous
 62
     7
370
    15
100
AcDbLine
 10
-32.16049584387292
 20
-182.9790949925833
 30
0.0
 11
-31.27649730649318
 21
-183.4894164857141
 31
0.0
  0
LINE
  5
EB2F
330
A
100
AcDbEntity
  8
0
  6
Continuous
 62
     8
370
     0
100
AcDbLine
 10
-32.86748519076855
 20
-143.7850033509031
 30
0.0
 11
-32.16037829367815
 21
-143.3767992280819
 31
0.0
  0
LINE
  5
EB30
330
A
100
AcDbEntity
  8
0
  6
Continuous
 62
     8
370
     0
100
AcDbLine
 10
-35.34235867204052
 20
-139.4983967516161
 30
0.0
 11
-34.63525177495012
 21
-139.0901926287949
 31
0.0
  0
LINE
  5
EB31
330
A
100
AcDbEntity
  8
0
  6
Continuous
 62
     8
370
     0
100
AcDbLine
 10
-145.6510163435296
 20
-75.81856414121461
 30
0.0
 11
-144.9439094464392
 21
-75.41036001839339
 31
0.0
  0
LINE
  5
EB32
330
A
100
AcDbEntity
  8
0
  6
Continuous
 62
     8
370
     0
100
AcDbLine
 10
-32.16037368386674
 20
-144.560793732075
 30
0.0
 11
-31.48862239504865
 21
-144.1729999674627
 31
0.0
  0
LINE
  5
EB33
330
A
100
AcDbEntity
  8
0
  6
Continuous
 62
     8
370
     0
100
AcDbLine
 10
-35.73127003376362
 20
-138.4574747557604
 30
0.0
 11
-35.02416346594555
 21
-138.049270823024
 31
0.0
  0
LINE
  5
EB34
330
A
100
AcDbEntity
  8
0
  6
Continuous
 62
     8
370
     0
100
AcDbLine
 10
-32.16037368386674
 20
-182.1216711518239
 30
0.0
 11
-31.48862239504865
 21
-181.7338773872116
 31
0.0
  0
LINE
  5
EB35
330
A
100
AcDbEntity
  8
0
  6
Continuous
 62
     8
370
     0
100
AcDbLine
 10
-143.9186045444399
 20
-76.0022559394587
 30
0.0
 11
-143.2114979766216
 21
-75.59405200672231
 31
0.0
  0
LINE
  5
EB36
330
A
100
AcDbEntity
  8
0
  6
Continuous
 62
     8
370
     0
100
AcDbLine
 10
-49.62591805912052
 20
-150.8056475702538
 30
0.0
 11
-49.62591805912052
 21
-194.0823116100933
 31
0.0
  0
LINE
  5
EB37
330
A
100
AcDbEntity
  8
0
  6
Continuous
 62
     8
370
     0
100
AcDbLine
 10
-47.50459078240442
 20
-194.4246826494523
 30
0.0
 11
-47.50459078240442
 21
-150.4632856549665
 31
0.0
  0
LINE
  5
EB38
330
A
100
AcDbEntity
  8
0
  6
Continuous
 62
     8
370
     0
100
AcDbLine
 10
-47.50459078240442
 20
-150.4632856549665
 30
0.0
 11
-48.21169899658389
 21
-150.0550807718059
 31
0.0
  0
LINE
  5
EB39
330
A
100
AcDbEntity
  8
0
  6
Continuous
 62
     8
370
     0
100
AcDbLine
 10
-48.26877636617974
 20
-149.1396865268953
 30
0.0
 11
-164.4736966288806
 21
-82.05601397535762
 31
0.0
  0
LINE
  5
EB3A
330
A
100
AcDbEntity
  8
0
  6
Continuous
 62
     8
370
     0
100
AcDbLine
 10
-165.237874001429
 20
-84.06428603458386
 30
0.0
 11
-49.62591805912052
 21
-150.8056475702538
 31
0.0
  0
LINE
  5
EB3B
330
A
100
AcDbEntity
  8
0
  6
Continuous
 62
     8
370
     0
100
AcDbLine
 10
-48.26877636617974
 20
-149.1396865268953
 30
0.0
 11
-48.26877636617974
 21
-149.9562259516968
 31
0.0
  0
LINE
  5
EB3D
330
A
100
AcDbEntity
  8
0
  6
Continuous
 62
     8
370
     0
100
AcDbLine
 10
-165.237874001429
 20
-127.3409500744233
 30
0.0
 11
-165.237874001429
 21
-84.06428603458386
 31
0.0
  0
LINE
  5
EB3E
330
A
100
AcDbEntity
  8
0
  6
Continuous
 62
     8
370
     0
100
AcDbLine
 10
-48.26877636617974
 20
-194.8659718829907
 30
0.0
 11
-48.26877636617974
 21
-194.6040167517834
 31
0.0
  0
LINE
  5
EB3F
330
A
100
AcDbEntity
  8
0
  6
Continuous
 62
     8
370
     0
100
AcDbLine
 10
-165.2378744953373
 20
-82.4973076640091
 30
0.0
 11
-165.0111695606474
 21
-82.62818163707468
 31
0.0
  0
LINE
  5
EB40
330
A
100
AcDbEntity
  8
0
  6
Continuous
 62
     8
370
     0
100
AcDbLine
 10
-23.18011668350891
 20
-136.4210656547311
 30
0.0
 11
-23.18011668350891
 21
-180.3824626492169
 31
0.0
  0
LINE
  5
EB41
330
A
100
AcDbEntity
  8
0
  6
Continuous
 62
     8
370
     0
100
AcDbLine
 10
-23.18011668350891
 20
-136.4210656547311
 30
0.0
 11
-23.88722489768838
 21
-136.0128607715706
 31
0.0
  0
LINE
  5
EB42
330
A
100
AcDbEntity
  8
0
  6
Continuous
 62
     8
370
     0
100
AcDbLine
 10
-23.94430226728423
 20
-135.09746652666
 30
0.0
 11
-23.94430226728423
 21
-135.9140059514614
 31
0.0
  0
LINE
  5
EB44
330
A
100
AcDbEntity
  8
0
  6
Continuous
 62
     8
370
     0
100
AcDbLine
 10
-23.88723148313329
 20
-136.0128579199842
 30
0.0
 11
-23.88723148313329
 21
-135.9470200847153
 31
0.0
  0
LINE
  5
EB45
330
A
100
AcDbEntity
  8
0
  6
Continuous
 62
     8
370
     0
100
AcDbLine
 10
-23.88723148313329
 20
-135.9470200847153
 30
0.0
 11
-23.94436153628976
 21
-135.9140396070373
 31
0.0
  0
LINE
  5
EB46
330
A
100
AcDbEntity
  8
0
  6
Continuous
 62
     8
370
     0
100
AcDbLine
 10
-23.94430226728423
 20
-180.8237518827553
 30
0.0
 11
-23.94430226728423
 21
-180.8236089157317
 31
0.0
  0
LINE
  5
EB47
330
A
100
AcDbEntity
  8
0
  6
Continuous
 62
     7
370
    15
100
AcDbLine
 10
164.4846751953048
 20
1.499999314546585
 30
0.0
 11
164.4846751953048
 21
-17.24999956786633
 31
0.0
  0
LINE
  5
EB48
330
A
100
AcDbEntity
  8
0
  6
Continuous
 62
     7
370
    15
100
AcDbLine
 10
176.4846752996129
 20
-17.24999956786633
 30
0.0
 11
176.4846752996129
 21
1.499999314546585
 31
0.0
  0
LINE
  5
EB49
330
A
100
AcDbEntity
  8
0
  6
Continuous
 62
     7
370
    15
100
AcDbLine
 10
164.4846751953048
 20
-17.24999956786633
 30
0.0
 11
165.4846753592176
 21
-18.25000159442425
 31
0.0
  0
LINE
  5
EB4A
330
A
100
AcDbEntity
  8
0
  6
Continuous
 62
     7
370
    15
100
AcDbLine
 10
175.4846751357002
 20
-18.25000159442425
 30
0.0
 11
176.4846752996129
 21
-17.24999956786633
 31
0.0
  0
LINE
  5
EB4B
330
A
100
AcDbEntity
  8
0
  6
Continuous
 62
     7
370
    15
100
AcDbLine
 10
174.2346751636398
 20
42.99999959766865
 30
0.0
 11
176.7346753405911
 21
42.99999959766865
 31
0.0
  0
LINE
  5
EB4C
330
A
100
AcDbEntity
  8
0
  6
Continuous
 62
     7
370
    15
100
AcDbLine
 10
176.7346753405911
 20
46.00000008940697
 30
0.0
 11
174.2346751636398
 21
46.00000008940697
 31
0.0
  0
LINE
  5
EB4D
330
A
100
AcDbEntity
  8
0
  6
Continuous
 62
     7
370
    15
100
AcDbLine
 10
174.2346751636398
 20
48.00000041723251
 30
0.0
 11
165.2346753182394
 21
48.00000041723251
 31
0.0
  0
LINE
  5
EB4E
330
A
100
AcDbEntity
  8
0
  6
Continuous
 62
     7
370
    15
100
AcDbLine
 10
164.4846751953048
 20
-17.24999956786633
 30
0.0
 11
176.4846752996129
 21
-17.24999956786633
 31
0.0
  0
LINE
  5
EB4F
330
A
100
AcDbEntity
  8
0
  6
Continuous
 62
     7
370
    15
100
AcDbLine
 10
175.4846751357002
 20
-18.25000159442425
 30
0.0
 11
165.4846753592176
 21
-18.25000159442425
 31
0.0
  0
LINE
  5
EB50
330
A
100
AcDbEntity
  8
0
  6
Continuous
 62
     7
370
    15
100
AcDbLine
 10
164.2346751543266
 20
51.00000090897083
 30
0.0
 11
164.2346751543266
 21
50.20533688366413
 31
0.0
  0
LINE
  5
EB51
330
A
100
AcDbEntity
  8
0
  6
Continuous
 62
     7
370
    15
100
AcDbLine
 10
164.2346751543266
 20
41.6877493262291
 30
0.0
 11
164.2346751543266
 21
2.499999478459358
 31
0.0
  0
LINE
  5
EB52
330
A
100
AcDbEntity
  8
0
  6
Continuous
 62
     7
370
    15
100
AcDbLine
 10
165.2346753182394
 20
51.00000090897083
 30
0.0
 11
165.2346753182394
 21
2.499999478459358
 31
0.0
  0
LINE
  5
EB53
330
A
100
AcDbEntity
  8
0
  6
Continuous
 62
     7
370
    15
100
AcDbLine
 10
165.2346753182394
 20
2.499999478459358
 30
0.0
 11
164.2346751543266
 21
2.499999478459358
 31
0.0
  0
LINE
  5
EB54
330
A
100
AcDbEntity
  8
0
  6
Continuous
 62
     7
370
    15
100
AcDbLine
 10
165.2346753182394
 20
54.50000055134296
 30
0.0
 11
164.2346751543266
 21
54.50000055134296
 31
0.0
  0
LINE
  5
EB55
330
A
100
AcDbEntity
  8
0
  6
Continuous
 62
     7
370
    15
100
AcDbLine
 10
164.2346751543266
 20
54.50000055134296
 30
0.0
 11
164.2346751543266
 21
51.00000090897083
 31
0.0
  0
LINE
  5
EB56
330
A
100
AcDbEntity
  8
0
  6
Continuous
 62
     7
370
    15
100
AcDbLine
 10
165.2346753182394
 20
54.50000055134296
 30
0.0
 11
165.2346753182394
 21
51.00000090897083
 31
0.0
  0
LINE
  5
EB57
330
A
100
AcDbEntity
  8
0
  6
Continuous
 62
     7
370
    15
100
AcDbLine
 10
174.2346751636398
 20
40.75000062584877
 30
0.0
 11
174.2346751636398
 21
2.499999478459358
 31
0.0
  0
LINE
  5
EB58
330
A
100
AcDbEntity
  8
0
  6
Continuous
 62
     7
370
    15
100
AcDbLine
 10
174.2346751636398
 20
2.499999478459358
 30
0.0
 11
165.2346753182394
 21
2.499999478459358
 31
0.0
  0
LINE
  5
EB59
330
A
100
AcDbEntity
  8
0
  6
Continuous
 62
     7
370
    15
100
AcDbLine
 10
165.2346753182394
 20
41.99999943375587
 30
0.0
 11
174.2346751636398
 21
41.99999943375587
 31
0.0
  0
LINE
  5
EB5A
330
A
100
AcDbEntity
  8
0
  6
Continuous
 62
     7
370
    15
100
AcDbLine
 10
174.2346751636398
 20
41.99999943375587
 30
0.0
 11
174.2346751636398
 21
40.75000062584877
 31
0.0
  0
LINE
  5
EB5B
330
A
100
AcDbEntity
  8
0
  6
Continuous
 62
     7
370
    15
100
AcDbLine
 10
174.2346751636398
 20
48.00000041723251
 30
0.0
 11
174.2346751636398
 21
41.99999943375587
 31
0.0
  0
LINE
  5
EB5C
330
A
100
AcDbEntity
  8
0
  6
Continuous
 62
     7
370
    15
100
AcDbLine
 10
176.7346753405911
 20
49.4999997317791
 30
0.0
 11
176.7346753405911
 21
41.99999943375587
 31
0.0
  0
LINE
  5
EB5D
330
A
100
AcDbEntity
  8
0
  6
Continuous
 62
     7
370
    15
100
AcDbLine
 10
177.6846751237792
 20
40.9999992698431
 30
0.0
 11
176.7346753405911
 21
40.9999992698431
 31
0.0
  0
LINE
  5
EB5E
330
A
100
AcDbEntity
  8
0
  6
Continuous
 62
     7
370
    15
100
AcDbLine
 10
176.7346753405911
 20
40.9999992698431
 30
0.0
 11
176.7346753405911
 21
41.99999943375587
 31
0.0
  0
LINE
  5
EB5F
330
A
100
AcDbEntity
  8
0
  6
Continuous
 62
     7
370
    15
100
AcDbLine
 10
177.6846751237792
 20
54.50000055134296
 30
0.0
 11
176.7346753405911
 21
54.50000055134296
 31
0.0
  0
LINE
  5
EB60
330
A
100
AcDbEntity
  8
0
  6
Continuous
 62
     7
370
    15
100
AcDbLine
 10
176.7346753405911
 20
54.50000055134296
 30
0.0
 11
176.7346753405911
 21
49.4999997317791
 31
0.0
  0
LINE
  5
EB61
330
A
100
AcDbEntity
  8
0
  6
Continuous
 62
     7
370
    15
100
AcDbLine
 10
176.7346753405911
 20
36.50000039488077
 30
0.0
 11
176.7346753405911
 21
26.5000001527369
 31
0.0
  0
LINE
  5
EB62
330
A
100
AcDbEntity
  8
0
  6
Continuous
 62
     7
370
    15
100
AcDbLine
 10
164.2346751543266
 20
40.9999992698431
 30
0.0
 11
163.2846753711385
 21
40.9999992698431
 31
0.0
  0
LINE
  5
EB63
330
A
100
AcDbEntity
  8
0
  6
Continuous
 62
     7
370
    15
100
AcDbLine
 10
164.2346751543266
 20
41.99999943375587
 30
0.0
 11
164.2346751543266
 21
41.6877493262291
 31
0.0
  0
LINE
  5
EB64
330
A
100
AcDbEntity
  8
0
  6
Continuous
 62
     7
370
    15
100
AcDbLine
 10
164.2346751543266
 20
49.4999997317791
 30
0.0
 11
164.2346751543266
 21
41.99999943375587
 31
0.0
  0
LINE
  5
EB65
330
A
100
AcDbEntity
  8
0
  6
Continuous
 62
     7
370
    15
100
AcDbLine
 10
164.2346751543266
 20
54.50000055134296
 30
0.0
 11
163.2846753711385
 21
54.50000055134296
 31
0.0
  0
LINE
  5
EB66
330
A
100
AcDbEntity
  8
0
  6
Continuous
 62
     7
370
    15
100
AcDbLine
 10
164.2346751543266
 20
50.20533688366413
 30
0.0
 11
164.2346751543266
 21
49.4999997317791
 31
0.0
  0
CIRCLE
  5
EB67
330
A
100
AcDbEntity
  8
0
  6
Continuous
 62
     7
370
    15
100
AcDbCircle
 10
156.9846752474589
 20
12.50000004470348
 30
0.0
 40
1.250000000027292
  0
LINE
  5
EB68
330
A
100
AcDbEntity
  8
0
  6
Continuous
 62
     7
370
    15
100
AcDbLine
 10
158.0220853576941
 20
11.99293602257967
 30
0.0
 11
157.9425103629512
 21
13.14489170908928
 31
0.0
  0
LINE
  5
EB69
330
A
100
AcDbEntity
  8
0
  6
Continuous
 62
     7
370
    15
100
AcDbLine
 10
157.9425103629512
 20
13.14489170908928
 30
0.0
 11
156.9051008338613
 21
13.65195587277412
 31
0.0
  0
LINE
  5
EB6A
330
A
100
AcDbEntity
  8
0
  6
Continuous
 62
     7
370
    15
100
AcDbLine
 10
156.9051008338613
 20
13.65195587277412
 30
0.0
 11
155.9472653681917
 21
13.00706434994936
 31
0.0
  0
LINE
  5
EB6B
330
A
100
AcDbEntity
  8
0
  6
Continuous
 62
     7
370
    15
100
AcDbLine
 10
155.9472653681917
 20
13.00706434994936
 30
0.0
 11
156.0268403629345
 21
11.85510866343975
 31
0.0
  0
LINE
  5
EB6C
330
A
100
AcDbEntity
  8
0
  6
Continuous
 62
     7
370
    15
100
AcDbLine
 10
157.0642498920245
 20
11.34804449975491
 30
0.0
 11
156.0268403629345
 21
11.85510866343975
 31
0.0
  0
LINE
  5
EB6D
330
A
100
AcDbEntity
  8
0
  6
Continuous
 62
     7
370
    15
100
AcDbLine
 10
157.0642498920245
 20
11.34804449975491
 30
0.0
 11
158.0220853576941
 21
11.99293602257967
 31
0.0
  0
CIRCLE
  5
EB6E
330
A
100
AcDbEntity
  8
0
  6
Continuous
 62
     7
370
    15
100
AcDbCircle
 10
156.9846752474589
 20
12.50000004470348
 30
0.0
 40
1.39999999999998
  0
CIRCLE
  5
EB6F
330
A
100
AcDbEntity
  8
0
  6
Continuous
 62
     7
370
    15
100
AcDbCircle
 10
156.9846752474589
 20
47.50000004470348
 30
0.0
 40
1.250000000027315
  0
LINE
  5
EB70
330
A
100
AcDbEntity
  8
0
  6
Continuous
 62
     7
370
    15
100
AcDbLine
 10
158.0220853576941
 20
46.99293524026871
 30
0.0
 11
157.9425103629512
 21
48.14489185810089
 31
0.0
  0
LINE
  5
EB71
330
A
100
AcDbEntity
  8
0
  6
Continuous
 62
     7
370
    15
100
AcDbLine
 10
157.9425103629512
 20
48.14489185810089
 30
0.0
 11
156.9051008338613
 21
48.65195602178574
 31
0.0
  0
LINE
  5
EB72
330
A
100
AcDbEntity
  8
0
  6
Continuous
 62
     7
370
    15
100
AcDbLine
 10
156.9051008338613
 20
48.65195602178574
 30
0.0
 11
155.9472653681917
 21
48.0070635676384
 31
0.0
  0
LINE
  5
EB73
330
A
100
AcDbEntity
  8
0
  6
Continuous
 62
     7
370
    15
100
AcDbLine
 10
155.9472653681917
 20
48.0070635676384
 30
0.0
 11
156.0268403629345
 21
46.85510881245136
 31
0.0
  0
LINE
  5
EB74
330
A
100
AcDbEntity
  8
0
  6
Continuous
 62
     7
370
    15
100
AcDbLine
 10
157.0642498920245
 20
46.34804464876652
 30
0.0
 11
156.0268403629345
 21
46.85510881245136
 31
0.0
  0
LINE
  5
EB75
330
A
100
AcDbEntity
  8
0
  6
Continuous
 62
     7
370
    15
100
AcDbLine
 10
157.0642498920245
 20
46.34804464876652
 30
0.0
 11
158.0220853576941
 21
46.99293524026871
 31
0.0
  0
CIRCLE
  5
EB76
330
A
100
AcDbEntity
  8
0
  6
Continuous
 62
     7
370
    15
100
AcDbCircle
 10
156.9846752474589
 20
47.50000004470348
 30
0.0
 40
1.39999999999998
  0
CIRCLE
  5
EB77
330
A
100
AcDbEntity
  8
0
  6
Continuous
 62
     7
370
    15
100
AcDbCircle
 10
183.9846752474589
 20
47.50000004470348
 30
0.0
 40
1.250000000027315
  0
LINE
  5
EB78
330
A
100
AcDbEntity
  8
0
  6
Continuous
 62
     7
370
    15
100
AcDbLine
 10
185.0220851267261
 20
46.99293524026871
 30
0.0
 11
184.9425101319832
 21
48.14489185810089
 31
0.0
  0
LINE
  5
EB79
330
A
100
AcDbEntity
  8
0
  6
Continuous
 62
     7
370
    15
100
AcDbLine
 10
184.9425101319832
 20
48.14489185810089
 30
0.0
 11
183.9051006028933
 21
48.65195602178574
 31
0.0
  0
LINE
  5
EB7A
330
A
100
AcDbEntity
  8
0
  6
Continuous
 62
     7
370
    15
100
AcDbLine
 10
183.9051006028933
 20
48.65195602178574
 30
0.0
 11
182.9472651372237
 21
48.0070635676384
 31
0.0
  0
LINE
  5
EB7B
330
A
100
AcDbEntity
  8
0
  6
Continuous
 62
     7
370
    15
100
AcDbLine
 10
182.9472651372237
 20
48.0070635676384
 30
0.0
 11
183.0268401319665
 21
46.85510881245136
 31
0.0
  0
LINE
  5
EB7C
330
A
100
AcDbEntity
  8
0
  6
Continuous
 62
     7
370
    15
100
AcDbLine
 10
184.0642496610565
 20
46.34804464876652
 30
0.0
 11
183.0268401319665
 21
46.85510881245136
 31
0.0
  0
LINE
  5
EB7D
330
A
100
AcDbEntity
  8
0
  6
Continuous
 62
     7
370
    15
100
AcDbLine
 10
184.0642496610565
 20
46.34804464876652
 30
0.0
 11
185.0220851267261
 21
46.99293524026871
 31
0.0
  0
CIRCLE
  5
EB7E
330
A
100
AcDbEntity
  8
0
  6
Continuous
 62
     7
370
    15
100
AcDbCircle
 10
183.9846752474589
 20
47.50000004470348
 30
0.0
 40
1.400000000000012
  0
CIRCLE
  5
EB7F
330
A
100
AcDbEntity
  8
0
  6
Continuous
 62
     7
370
    15
100
AcDbCircle
 10
183.9846752474589
 20
12.50000004470348
 30
0.0
 40
1.250000000027292
  0
LINE
  5
EB80
330
A
100
AcDbEntity
  8
0
  6
Continuous
 62
     7
370
    15
100
AcDbLine
 10
185.0220851267261
 20
11.99293602257967
 30
0.0
 11
184.9425101319832
 21
13.14489170908928
 31
0.0
  0
LINE
  5
EB81
330
A
100
AcDbEntity
  8
0
  6
Continuous
 62
     7
370
    15
100
AcDbLine
 10
184.9425101319832
 20
13.14489170908928
 30
0.0
 11
183.9051006028933
 21
13.65195587277412
 31
0.0
  0
LINE
  5
EB82
330
A
100
AcDbEntity
  8
0
  6
Continuous
 62
     7
370
    15
100
AcDbLine
 10
183.9051006028933
 20
13.65195587277412
 30
0.0
 11
182.9472651372237
 21
13.00706434994936
 31
0.0
  0
LINE
  5
EB83
330
A
100
AcDbEntity
  8
0
  6
Continuous
 62
     7
370
    15
100
AcDbLine
 10
182.9472651372237
 20
13.00706434994936
 30
0.0
 11
183.0268401319665
 21
11.85510866343975
 31
0.0
  0
LINE
  5
EB84
330
A
100
AcDbEntity
  8
0
  6
Continuous
 62
     7
370
    15
100
AcDbLine
 10
184.0642496610565
 20
11.34804449975491
 30
0.0
 11
183.0268401319665
 21
11.85510866343975
 31
0.0
  0
LINE
  5
EB85
330
A
100
AcDbEntity
  8
0
  6
Continuous
 62
     7
370
    15
100
AcDbLine
 10
184.0642496610565
 20
11.34804449975491
 30
0.0
 11
185.0220851267261
 21
11.99293602257967
 31
0.0
  0
CIRCLE
  5
EB86
330
A
100
AcDbEntity
  8
0
  6
Continuous
 62
     7
370
    15
100
AcDbCircle
 10
183.9846752474589
 20
12.50000004470348
 30
0.0
 40
1.400000000000012
  0
LINE
  5
EB87
330
A
100
AcDbEntity
  8
0
  6
Continuous
 62
     7
370
    15
100
AcDbLine
 10
177.6846751237792
 20
1.0807104408741
 30
0.0
 11
187.6846758315844
 21
1.0807104408741
 31
0.0
  0
LINE
  5
EB88
330
A
100
AcDbEntity
  8
0
  6
Continuous
 62
     7
370
    15
100
AcDbLine
 10
187.6846758315844
 20
54.91928942501545
 30
0.0
 11
177.6846751237792
 21
54.91928942501545
 31
0.0
  0
CIRCLE
  5
EB89
330
A
100
AcDbEntity
  8
0
  6
Continuous
 62
     7
370
    15
100
AcDbCircle
 10
183.9846752474589
 20
47.50000004470348
 30
0.0
 40
1.75
  0
CIRCLE
  5
EB8A
330
A
100
AcDbEntity
  8
0
  6
Continuous
 62
     7
370
    15
100
AcDbCircle
 10
183.9846752474589
 20
12.50000004470348
 30
0.0
 40
1.75
  0
LINE
  5
EB8B
330
A
100
AcDbEntity
  8
0
  6
Continuous
 62
     7
370
    15
100
AcDbLine
 10
177.6846751237792
 20
1.0807104408741
 30
0.0
 11
177.6846751237792
 21
54.91928942501545
 31
0.0
  0
ELLIPSE
  5
EB8C
330
A
100
AcDbEntity
  8
0
  6
Continuous
 62
     7
370
    15
100
AcDbEllipse
 10
187.6846752474589
 20
1.500000044703484
 30
0.0
 11
1.5
 21
0.0
 31
0.0
210
0.0
220
0.0
230
1.0
 40
0.2795262145875578
 41
4.712388980384693
 42
6.283185307179586
  0
ELLIPSE
  5
EB8D
330
A
100
AcDbEntity
  8
0
  6
Continuous
 62
     7
370
    15
100
AcDbEllipse
 10
187.6846752474589
 20
54.50000004470348
 30
0.0
 11
1.5
 21
0.0
 31
0.0
210
0.0
220
0.0
230
1.0
 40
0.2795262145875578
 41
0.0
 42
1.570796326794897
  0
LINE
  5
EB8E
330
A
100
AcDbEntity
  8
0
  6
Continuous
 62
     7
370
    15
100
AcDbLine
 10
189.184675146131
 20
1.499999314546585
 30
0.0
 11
189.184675146131
 21
54.50000055134296
 31
0.0
  0
LINE
  5
EB8F
330
A
100
AcDbEntity
  8
0
  6
Continuous
 62
     7
370
    15
100
AcDbLine
 10
187.6846758315844
 20
1.000000163912773
 30
0.0
 11
177.6846751237792
 21
1.000000163912773
 31
0.0
  0
LINE
  5
EB90
330
A
100
AcDbEntity
  8
0
  6
Continuous
 62
     7
370
    15
100
AcDbLine
 10
187.6846758315844
 20
0.0
 30
0.0
 11
177.6846751237792
 21
0.0
 31
0.0
  0
LINE
  5
EB91
330
A
100
AcDbEntity
  8
0
  6
Continuous
 62
     7
370
    15
100
AcDbLine
 10
177.6846751237792
 20
0.0
 30
0.0
 11
177.6846751237792
 21
1.000000163912773
 31
0.0
  0
LINE
  5
EB92
330
A
100
AcDbEntity
  8
0
  6
Continuous
 62
     7
370
    15
100
AcDbLine
 10
177.6846751237792
 20
55.00000156462193
 30
0.0
 11
187.6846758315844
 21
55.00000156462193
 31
0.0
  0
LINE
  5
EB93
330
A
100
AcDbEntity
  8
0
  6
Continuous
 62
     7
370
    15
100
AcDbLine
 10
177.6846751237792
 20
55.99999986588955
 30
0.0
 11
177.6846751237792
 21
55.00000156462193
 31
0.0
  0
LINE
  5
EB94
330
A
100
AcDbEntity
  8
0
  6
Continuous
 62
     7
370
    15
100
AcDbLine
 10
177.6846751237792
 20
55.99999986588955
 30
0.0
 11
187.6846758315844
 21
55.99999986588955
 31
0.0
  0
ARC
  5
EB95
330
A
100
AcDbEntity
  8
0
  6
Continuous
 62
     7
370
    15
100
AcDbCircle
 10
187.6846752474589
 20
54.50000004470348
 30
0.0
 40
1.5
100
AcDbArc
 50
0.0
 51
90.0
  0
ARC
  5
EB96
330
A
100
AcDbEntity
  8
0
  6
Continuous
 62
     7
370
    15
100
AcDbCircle
 10
187.6846752474589
 20
54.50000004470348
 30
0.0
 40
0.5000000000000089
100
AcDbArc
 50
55.4310105710954
 51
90.0
  0
ARC
  5
EB97
330
A
100
AcDbEntity
  8
0
  6
Continuous
 62
     7
370
    15
100
AcDbCircle
 10
187.6846752474589
 20
1.500000044703455
 30
0.0
 40
0.5
100
AcDbArc
 50
270.0
 51
304.5689894290004
  0
ARC
  5
EB98
330
A
100
AcDbEntity
  8
0
  6
Continuous
 62
     7
370
    15
100
AcDbCircle
 10
187.6846752474589
 20
1.500000044703455
 30
0.0
 40
1.5
100
AcDbArc
 50
270.0
 51
0.0
  0
ELLIPSE
  5
EB99
330
A
100
AcDbEntity
  8
0
  6
Continuous
 62
     7
370
    15
100
AcDbEllipse
 10
153.2846752474588
 20
54.50000004470348
 30
0.0
 11
1.5
 21
0.0
 31
0.0
210
0.0
220
0.0
230
1.0
 40
0.2795262145875578
 41
1.570796326794897
 42
3.141592653589793
  0
LINE
  5
EB9A
330
A
100
AcDbEntity
  8
0
  6
Continuous
 62
     7
370
    15
100
AcDbLine
 10
151.7846753487868
 20
54.50000055134296
 30
0.0
 11
151.7846753487868
 21
1.499999314546585
 31
0.0
  0
ELLIPSE
  5
EB9B
330
A
100
AcDbEntity
  8
0
  6
Continuous
 62
     7
370
    15
100
AcDbEllipse
 10
153.2846752474588
 20
1.500000044703427
 30
0.0
 11
1.5
 21
0.0
 31
0.0
210
0.0
220
0.0
230
1.0
 40
0.2795262145875578
 41
3.141592653589793
 42
4.712388980384693
  0
LINE
  5
EB9C
330
A
100
AcDbEntity
  8
0
  6
Continuous
 62
     7
370
    15
100
AcDbLine
 10
163.2846753711385
 20
54.91928942501545
 30
0.0
 11
153.2846746633334
 21
54.91928942501545
 31
0.0
  0
LINE
  5
EB9D
330
A
100
AcDbEntity
  8
0
  6
Continuous
 62
     7
370
    15
100
AcDbLine
 10
163.2846753711385
 20
54.91928942501545
 30
0.0
 11
163.2846753711385
 21
1.0807104408741
 31
0.0
  0
LINE
  5
EB9E
330
A
100
AcDbEntity
  8
0
  6
Continuous
 62
     7
370
    15
100
AcDbLine
 10
153.2846746633334
 20
1.0807104408741
 30
0.0
 11
163.2846753711385
 21
1.0807104408741
 31
0.0
  0
CIRCLE
  5
EB9F
330
A
100
AcDbEntity
  8
0
  6
Continuous
 62
     7
370
    15
100
AcDbCircle
 10
156.9846752474589
 20
47.50000004470348
 30
0.0
 40
1.75
  0
CIRCLE
  5
EBA0
330
A
100
AcDbEntity
  8
0
  6
Continuous
 62
     7
370
    15
100
AcDbCircle
 10
156.9846752474589
 20
12.50000004470348
 30
0.0
 40
1.749999999999943
  0
ARC
  5
EBA1
330
A
100
AcDbEntity
  8
0
  6
Continuous
 62
     7
370
    15
100
AcDbCircle
 10
153.2846752474588
 20
1.500000044703427
 30
0.0
 40
0.5
100
AcDbArc
 50
235.4310105707783
 51
270.0
  0
ARC
  5
EBA2
330
A
100
AcDbEntity
  8
0
  6
Continuous
 62
     7
370
    15
100
AcDbCircle
 10
153.2846752474588
 20
1.500000044703427
 30
0.0
 40
1.5
100
AcDbArc
 50
180.0
 51
270.0
  0
ARC
  5
EBA3
330
A
100
AcDbEntity
  8
0
  6
Continuous
 62
     7
370
    15
100
AcDbCircle
 10
153.2846752474588
 20
54.50000004470348
 30
0.0
 40
0.5000000000000007
100
AcDbArc
 50
90.0
 51
124.5689894289688
  0
ARC
  5
EBA4
330
A
100
AcDbEntity
  8
0
  6
Continuous
 62
     7
370
    15
100
AcDbCircle
 10
153.2846752474588
 20
54.50000004470348
 30
0.0
 40
1.5
100
AcDbArc
 50
90.0
 51
180.0
  0
LINE
  5
EBA5
330
A
100
AcDbEntity
  8
0
  6
Continuous
 62
     7
370
    15
100
AcDbLine
 10
163.2846753711385
 20
1.000000163912773
 30
0.0
 11
153.2846746633334
 21
1.000000163912773
 31
0.0
  0
LINE
  5
EBA6
330
A
100
AcDbEntity
  8
0
  6
Continuous
 62
     7
370
    15
100
AcDbLine
 10
163.2846753711385
 20
0.0
 30
0.0
 11
163.2846753711385
 21
1.000000163912773
 31
0.0
  0
LINE
  5
EBA7
330
A
100
AcDbEntity
  8
0
  6
Continuous
 62
     7
370
    15
100
AcDbLine
 10
163.2846753711385
 20
0.0
 30
0.0
 11
153.2846746633334
 21
0.0
 31
0.0
  0
LINE
  5
EBA8
330
A
100
AcDbEntity
  8
0
  6
Continuous
 62
     7
370
    15
100
AcDbLine
 10
153.2846746633334
 20
55.00000156462193
 30
0.0
 11
163.2846753711385
 21
55.00000156462193
 31
0.0
  0
LINE
  5
EBA9
330
A
100
AcDbEntity
  8
0
  6
Continuous
 62
     7
370
    15
100
AcDbLine
 10
163.2846753711385
 20
55.99999986588955
 30
0.0
 11
163.2846753711385
 21
55.00000156462193
 31
0.0
  0
LINE
  5
EBAA
330
A
100
AcDbEntity
  8
0
  6
Continuous
 62
     7
370
    15
100
AcDbLine
 10
153.2846746633334
 20
55.99999986588955
 30
0.0
 11
163.2846753711385
 21
55.99999986588955
 31
0.0
  0
LINE
  5
EBAB
330
A
100
AcDbEntity
  8
0
  6
Continuous
 62
     7
370
    15
100
AcDbLine
 10
174.2346751636398
 20
36.50000039488077
 30
0.0
 11
177.6846751237792
 21
36.50000039488077
 31
0.0
  0
LINE
  5
EBAC
330
A
100
AcDbEntity
  8
0
  6
Continuous
 62
     7
370
    15
100
AcDbLine
 10
177.6846751237792
 20
26.5000001527369
 30
0.0
 11
174.2346751636398
 21
26.5000001527369
 31
0.0
  0
LINE
  5
EBAD
330
A
100
AcDbEntity
  8
0
  6
Continuous
 62
     7
370
    15
100
AcDbLine
 10
174.2346751636398
 20
40.9999992698431
 30
0.0
 11
176.7346753405911
 21
40.9999992698431
 31
0.0
  0
LINE
  5
EBAE
330
A
100
AcDbEntity
  8
0
  6
Continuous
 62
     7
370
    15
100
AcDbLine
 10
177.6846751237792
 20
1.499999314546585
 30
0.0
 11
163.2846753711385
 21
1.499999314546585
 31
0.0
  0
LINE
  5
EBAF
330
A
100
AcDbEntity
  8
0
  6
Continuous
 62
     8
370
     0
100
AcDbLine
 10
165.2346753182394
 20
51.00000090897083
 30
0.0
 11
164.2346751543266
 21
51.00000090897083
 31
0.0
  0
LINE
  5
EBB0
330
A
100
AcDbEntity
  8
0
  6
Continuous
 62
     8
370
     0
100
AcDbLine
 10
174.2346751636398
 20
40.75000062584877
 30
0.0
 11
165.2346753182394
 21
40.75000062584877
 31
0.0
  0
LINE
  5
EBB1
330
A
100
AcDbEntity
  8
0
  6
Continuous
 62
     8
370
     0
100
AcDbLine
 10
177.6846751237792
 20
49.4999997317791
 30
0.0
 11
176.7346753405911
 21
49.4999997317791
 31
0.0
  0
LINE
  5
EBB2
330
A
100
AcDbEntity
  8
0
  6
Continuous
 62
     8
370
     0
100
AcDbLine
 10
176.7346753405911
 20
41.99999943375587
 30
0.0
 11
177.6846751237792
 21
41.99999943375587
 31
0.0
  0
LINE
  5
EBB3
330
A
100
AcDbEntity
  8
0
  6
Continuous
 62
     8
370
     0
100
AcDbLine
 10
163.2846753711385
 20
41.99999943375587
 30
0.0
 11
164.2346751543266
 21
41.99999943375587
 31
0.0
  0
LINE
  5
EBB4
330
A
100
AcDbEntity
  8
0
  6
Continuous
 62
     8
370
     0
100
AcDbLine
 10
164.2346751543266
 20
49.4999997317791
 30
0.0
 11
163.2846753711385
 21
49.4999997317791
 31
0.0
  0
LINE
  5
EBB5
330
A
100
AcDbEntity
  8
0
  6
Continuous
 62
     8
370
     0
100
AcDbLine
 10
187.6846758315844
 20
54.91928942501545
 30
0.0
 11
187.6846758315844
 21
1.0807104408741
 31
0.0
  0
LINE
  5
EBB6
330
A
100
AcDbEntity
  8
0
  6
Continuous
 62
     8
370
     0
100
AcDbLine
 10
187.6846758315844
 20
0.0
 30
0.0
 11
187.6846758315844
 21
1.000000163912773
 31
0.0
  0
LINE
  5
EBB7
330
A
100
AcDbEntity
  8
0
  6
Continuous
 62
     8
370
     0
100
AcDbLine
 10
187.6846758315844
 20
55.99999986588955
 30
0.0
 11
187.6846758315844
 21
55.00000156462193
 31
0.0
  0
LINE
  5
EBB8
330
A
100
AcDbEntity
  8
0
  6
Continuous
 62
     8
370
     0
100
AcDbLine
 10
153.2846746633334
 20
1.0807104408741
 30
0.0
 11
153.2846746633334
 21
54.91928942501545
 31
0.0
  0
LINE
  5
EBB9
330
A
100
AcDbEntity
  8
0
  6
Continuous
 62
     8
370
     0
100
AcDbLine
 10
153.2846746633334
 20
0.0
 30
0.0
 11
153.2846746633334
 21
1.000000163912773
 31
0.0
  0
LINE
  5
EBBA
330
A
100
AcDbEntity
  8
0
  6
Continuous
 62
     8
370
     0
100
AcDbLine
 10
153.2846746633334
 20
55.99999986588955
 30
0.0
 11
153.2846746633334
 21
55.00000156462193
 31
0.0
  0
LINE
  5
EBBB
330
A
100
AcDbEntity
  8
0
  6
Continuous
 62
     7
370
    15
100
AcDbLine
 10
-114.6263554306316
 20
1.499999314546585
 30
0.0
 11
-114.6263554306316
 21
-17.24999956786633
 31
0.0
  0
LINE
  5
EBBC
330
A
100
AcDbEntity
  8
0
  6
Continuous
 62
     7
370
    15
100
AcDbLine
 10
-102.6263553263235
 20
-17.24999956786633
 30
0.0
 11
-102.6263553263235
 21
1.499999314546585
 31
0.0
  0
LINE
  5
EBBD
330
A
100
AcDbEntity
  8
0
  6
Continuous
 62
     7
370
    15
100
AcDbLine
 10
-114.6263554306316
 20
-17.24999956786633
 30
0.0
 11
-113.6263552667189
 21
-18.25000159442425
 31
0.0
  0
LINE
  5
EBBE
330
A
100
AcDbEntity
  8
0
  6
Continuous
 62
     7
370
    15
100
AcDbLine
 10
-103.6263554902363
 20
-18.25000159442425
 30
0.0
 11
-102.6263553263235
 21
-17.24999956786633
 31
0.0
  0
LINE
  5
EBBF
330
A
100
AcDbEntity
  8
0
  6
Continuous
 62
     7
370
    15
100
AcDbLine
 10
-112.3763552946585
 20
46.00000008940697
 30
0.0
 11
-114.8763554716098
 21
46.00000008940697
 31
0.0
  0
LINE
  5
EBC0
330
A
100
AcDbEntity
  8
0
  6
Continuous
 62
     7
370
    15
100
AcDbLine
 10
-114.8763554716098
 20
42.99999959766865
 30
0.0
 11
-112.3763552946585
 21
42.99999959766865
 31
0.0
  0
LINE
  5
EBC1
330
A
100
AcDbEntity
  8
0
  6
Continuous
 62
     7
370
    15
100
AcDbLine
 10
-103.3763554492581
 20
48.00000041723251
 30
0.0
 11
-112.3763552946585
 21
48.00000041723251
 31
0.0
  0
LINE
  5
EBC2
330
A
100
AcDbEntity
  8
0
  6
Continuous
 62
     7
370
    15
100
AcDbLine
 10
-111.5889495318371
 20
-17.24999956786633
 30
0.0
 11
-102.6263553263235
 21
-17.24999956786633
 31
0.0
  0
LINE
  5
EBC3
330
A
100
AcDbEntity
  8
0
  6
Continuous
 62
     7
370
    15
100
AcDbLine
 10
-114.6263554306316
 20
-17.24999956786633
 30
0.0
 11
-111.5889495318371
 21
-17.24999956786633
 31
0.0
  0
LINE
  5
EBC4
330
A
100
AcDbEntity
  8
0
  6
Continuous
 62
     7
370
    15
100
AcDbLine
 10
-111.0951839560258
 20
-18.25000159442425
 30
0.0
 11
-113.6263552667189
 21
-18.25000159442425
 31
0.0
  0
LINE
  5
EBC5
330
A
100
AcDbEntity
  8
0
  6
Continuous
 62
     7
370
    15
100
AcDbLine
 10
-103.6263554902363
 20
-18.25000159442425
 30
0.0
 11
-111.0951839560258
 21
-18.25000159442425
 31
0.0
  0
LINE
  5
EBC6
330
A
100
AcDbEntity
  8
0
  6
Continuous
 62
     7
370
    15
100
AcDbLine
 10
-103.3763554492581
 20
54.50000055134296
 30
0.0
 11
-102.3763552853453
 21
54.50000055134296
 31
0.0
  0
LINE
  5
EBC7
330
A
100
AcDbEntity
  8
0
  6
Continuous
 62
     7
370
    15
100
AcDbLine
 10
-102.3763552853453
 20
51.00000090897083
 30
0.0
 11
-102.3763552853453
 21
54.50000055134296
 31
0.0
  0
LINE
  5
EBC8
330
A
100
AcDbEntity
  8
0
  6
Continuous
 62
     7
370
    15
100
AcDbLine
 10
-103.3763554492581
 20
51.00000090897083
 30
0.0
 11
-103.3763554492581
 21
54.50000055134296
 31
0.0
  0
LINE
  5
EBC9
330
A
100
AcDbEntity
  8
0
  6
Continuous
 62
     7
370
    15
100
AcDbLine
 10
-102.3763552853453
 20
2.499999478459358
 30
0.0
 11
-102.3763552853453
 21
51.00000090897083
 31
0.0
  0
LINE
  5
EBCA
330
A
100
AcDbEntity
  8
0
  6
Continuous
 62
     7
370
    15
100
AcDbLine
 10
-103.3763554492581
 20
2.499999478459358
 30
0.0
 11
-102.3763552853453
 21
2.499999478459358
 31
0.0
  0
LINE
  5
EBCB
330
A
100
AcDbEntity
  8
0
  6
Continuous
 62
     7
370
    15
100
AcDbLine
 10
-103.3763554492581
 20
2.499999478459358
 30
0.0
 11
-103.3763554492581
 21
51.00000090897083
 31
0.0
  0
LINE
  5
EBCC
330
A
100
AcDbEntity
  8
0
  6
Continuous
 62
     7
370
    15
100
AcDbLine
 10
-112.3763552946585
 20
2.499999478459358
 30
0.0
 11
-112.3763552946585
 21
41.4117444306612
 31
0.0
  0
LINE
  5
EBCD
330
A
100
AcDbEntity
  8
0
  6
Continuous
 62
     7
370
    15
100
AcDbLine
 10
-112.3763552946585
 20
41.4117444306612
 30
0.0
 11
-103.3763554492581
 21
41.4117444306612
 31
0.0
  0
LINE
  5
EBCE
330
A
100
AcDbEntity
  8
0
  6
Continuous
 62
     7
370
    15
100
AcDbLine
 10
-112.3763552946585
 20
2.499999478459358
 30
0.0
 11
-103.3763554492581
 21
2.499999478459358
 31
0.0
  0
LINE
  5
EBCF
330
A
100
AcDbEntity
  8
0
  6
Continuous
 62
     7
370
    15
100
AcDbLine
 10
-112.3763552946585
 20
41.4117444306612
 30
0.0
 11
-112.3763552946585
 21
48.00000041723251
 31
0.0
  0
LINE
  5
EBD0
330
A
100
AcDbEntity
  8
0
  6
Continuous
 62
     7
370
    15
100
AcDbLine
 10
-115.8263552547979
 20
54.50000055134296
 30
0.0
 11
-114.8763554716098
 21
54.50000055134296
 31
0.0
  0
LINE
  5
EBD1
330
A
100
AcDbEntity
  8
0
  6
Continuous
 62
     7
370
    15
100
AcDbLine
 10
-114.8763554716098
 20
49.4999997317791
 30
0.0
 11
-114.8763554716098
 21
54.50000055134296
 31
0.0
  0
LINE
  5
EBD2
330
A
100
AcDbEntity
  8
0
  6
Continuous
 62
     7
370
    15
100
AcDbLine
 10
-114.8763554716098
 20
3.499999642372131
 30
0.0
 11
-114.8763554716098
 21
49.4999997317791
 31
0.0
  0
LINE
  5
EBD3
330
A
100
AcDbEntity
  8
0
  6
Continuous
 62
     7
370
    15
100
AcDbLine
 10
-114.8763554716098
 20
2.499999478459358
 30
0.0
 11
-115.8263552547979
 21
2.499999478459358
 31
0.0
  0
LINE
  5
EBD4
330
A
100
AcDbEntity
  8
0
  6
Continuous
 62
     7
370
    15
100
AcDbLine
 10
-114.8763554716098
 20
3.499999642372131
 30
0.0
 11
-114.8763554716098
 21
2.499999478459358
 31
0.0
  0
LINE
  5
EBD5
330
A
100
AcDbEntity
  8
0
  6
Continuous
 62
     7
370
    15
100
AcDbLine
 10
-102.3763552853453
 20
54.50000055134296
 30
0.0
 11
-101.4263555021572
 21
54.50000055134296
 31
0.0
  0
LINE
  5
EBD6
330
A
100
AcDbEntity
  8
0
  6
Continuous
 62
     7
370
    15
100
AcDbLine
 10
-101.4263555021572
 20
2.499999478459358
 30
0.0
 11
-102.3763552853453
 21
2.499999478459358
 31
0.0
  0
CIRCLE
  5
EBD7
330
A
100
AcDbEntity
  8
0
  6
Continuous
 62
     7
370
    15
100
AcDbCircle
 10
-122.1263553784776
 20
12.50000004470348
 30
0.0
 40
1.250000000027283
  0
CIRCLE
  5
EBD8
330
A
100
AcDbEntity
  8
0
  6
Continuous
 62
     7
370
    15
100
AcDbCircle
 10
-122.1263553784776
 20
12.50000004470348
 30
0.0
 40
1.400000000000009
  0
LINE
  5
EBD9
330
A
100
AcDbEntity
  8
0
  6
Continuous
 62
     7
370
    15
100
AcDbLine
 10
-122.1988619850564
 20
11.34757790714502
 30
0.0
 11
-121.1645826311398
 21
11.86099648475647
 31
0.0
  0
LINE
  5
EBDA
330
A
100
AcDbEntity
  8
0
  6
Continuous
 62
     7
370
    15
100
AcDbLine
 10
-121.1645826311398
 20
11.86099648475647
 30
0.0
 11
-121.0920754434156
 21
13.01341783255339
 31
0.0
  0
LINE
  5
EBDB
330
A
100
AcDbEntity
  8
0
  6
Continuous
 62
     7
370
    15
100
AcDbLine
 10
-121.0920754434156
 20
13.01341783255339
 30
0.0
 11
-122.0538485409307
 21
13.65242153406143
 31
0.0
  0
LINE
  5
EBDC
330
A
100
AcDbEntity
  8
0
  6
Continuous
 62
     7
370
    15
100
AcDbLine
 10
-122.0538485409307
 20
13.65242153406143
 30
0.0
 11
-123.08812882617
 21
13.13900388777256
 31
0.0
  0
LINE
  5
EBDD
330
A
100
AcDbEntity
  8
0
  6
Continuous
 62
     7
370
    15
100
AcDbLine
 10
-123.1606350825715
 20
11.98658160865307
 30
0.0
 11
-123.08812882617
 21
13.13900388777256
 31
0.0
  0
LINE
  5
EBDE
330
A
100
AcDbEntity
  8
0
  6
Continuous
 62
     7
370
    15
100
AcDbLine
 10
-123.1606350825715
 20
11.98658160865307
 30
0.0
 11
-122.1988619850564
 21
11.34757790714502
 31
0.0
  0
CIRCLE
  5
EBDF
330
A
100
AcDbEntity
  8
0
  6
Continuous
 62
     7
370
    15
100
AcDbCircle
 10
-122.1263553784776
 20
47.50000004470348
 30
0.0
 40
1.250000000027287
  0
CIRCLE
  5
EBE0
330
A
100
AcDbEntity
  8
0
  6
Continuous
 62
     7
370
    15
100
AcDbCircle
 10
-122.1263553784776
 20
47.50000004470348
 30
0.0
 40
1.4
  0
LINE
  5
EBE1
330
A
100
AcDbEntity
  8
0
  6
Continuous
 62
     7
370
    15
100
AcDbLine
 10
-123.1364691244054
 20
46.94053344428539
 30
0.0
 11
-122.1468997733283
 21
46.34548164904118
 31
0.0
  0
LINE
  5
EBE2
330
A
100
AcDbEntity
  8
0
  6
Continuous
 62
     7
370
    15
100
AcDbLine
 10
-123.1159250797319
 20
48.09505119919777
 30
0.0
 11
-122.1058107526588
 21
48.65451715886593
 31
0.0
  0
LINE
  5
EBE3
330
A
100
AcDbEntity
  8
0
  6
Continuous
 62
     7
370
    15
100
AcDbLine
 10
-121.1162414015818
 20
48.05946722626686
 30
0.0
 11
-122.1058107526588
 21
48.65451715886593
 31
0.0
  0
LINE
  5
EBE4
330
A
100
AcDbEntity
  8
0
  6
Continuous
 62
     7
370
    15
100
AcDbLine
 10
-121.1367854462552
 20
46.90494947135448
 30
0.0
 11
-121.1162414015818
 21
48.05946722626686
 31
0.0
  0
LINE
  5
EBE5
330
A
100
AcDbEntity
  8
0
  6
Continuous
 62
     7
370
    15
100
AcDbLine
 10
-122.1468997733283
 20
46.34548164904118
 30
0.0
 11
-121.1367854462552
 21
46.90494947135448
 31
0.0
  0
LINE
  5
EBE6
330
A
100
AcDbEntity
  8
0
  6
Continuous
 62
     7
370
    15
100
AcDbLine
 10
-123.1159250797319
 20
48.09505119919777
 30
0.0
 11
-123.1364691244054
 21
46.94053344428539
 31
0.0
  0
CIRCLE
  5
EBE7
330
A
100
AcDbEntity
  8
0
  6
Continuous
 62
     7
370
    15
100
AcDbCircle
 10
-95.12635537847757
 20
47.50000004470348
 30
0.0
 40
1.250000000027287
  0
LINE
  5
EBE8
330
A
100
AcDbEntity
  8
0
  6
Continuous
 62
     7
370
    15
100
AcDbLine
 10
-96.13646935537338
 20
46.94053344428539
 30
0.0
 11
-95.1469000042963
 21
46.34548164904118
 31
0.0
  0
LINE
  5
EBE9
330
A
100
AcDbEntity
  8
0
  6
Continuous
 62
     7
370
    15
100
AcDbLine
 10
-95.1469000042963
 20
46.34548164904118
 30
0.0
 11
-94.1367856772232
 21
46.90494947135448
 31
0.0
  0
LINE
  5
EBEA
330
A
100
AcDbEntity
  8
0
  6
Continuous
 62
     7
370
    15
100
AcDbLine
 10
-96.11592531069994
 20
48.09505119919777
 30
0.0
 11
-95.10581098362684
 21
48.65451715886593
 31
0.0
  0
LINE
  5
EBEB
330
A
100
AcDbEntity
  8
0
  6
Continuous
 62
     7
370
    15
100
AcDbLine
 10
-94.11624163254976
 20
48.05946722626686
 30
0.0
 11
-95.10581098362684
 21
48.65451715886593
 31
0.0
  0
LINE
  5
EBEC
330
A
100
AcDbEntity
  8
0
  6
Continuous
 62
     7
370
    15
100
AcDbLine
 10
-96.11592531069994
 20
48.09505119919777
 30
0.0
 11
-96.13646935537338
 21
46.94053344428539
 31
0.0
  0
LINE
  5
EBED
330
A
100
AcDbEntity
  8
0
  6
Continuous
 62
     7
370
    15
100
AcDbLine
 10
-94.1367856772232
 20
46.90494947135448
 30
0.0
 11
-94.11624163254976
 21
48.05946722626686
 31
0.0
  0
CIRCLE
  5
EBEE
330
A
100
AcDbEntity
  8
0
  6
Continuous
 62
     7
370
    15
100
AcDbCircle
 10
-95.12635537847757
 20
47.50000004470348
 30
0.0
 40
1.400000000000007
  0
CIRCLE
  5
EBEF
330
A
100
AcDbEntity
  8
0
  6
Continuous
 62
     7
370
    15
100
AcDbCircle
 10
-95.12635537847757
 20
12.50000004470348
 30
0.0
 40
1.250000000027301
  0
CIRCLE
  5
EBF0
330
A
100
AcDbEntity
  8
0
  6
Continuous
 62
     7
370
    15
100
AcDbCircle
 10
-95.12635537847757
 20
12.50000004470348
 30
0.0
 40
1.400000000000021
  0
LINE
  5
EBF1
330
A
100
AcDbEntity
  8
0
  6
Continuous
 62
     7
370
    15
100
AcDbLine
 10
-96.13646935537338
 20
11.94053329527378
 30
0.0
 11
-95.1469000042963
 21
11.34548243135214
 31
0.0
  0
LINE
  5
EBF2
330
A
100
AcDbEntity
  8
0
  6
Continuous
 62
     7
370
    15
100
AcDbLine
 10
-94.11624163254976
 20
13.05946707725525
 30
0.0
 11
-95.10581098362684
 21
13.65451794117689
 31
0.0
  0
LINE
  5
EBF3
330
A
100
AcDbEntity
  8
0
  6
Continuous
 62
     7
370
    15
100
AcDbLine
 10
-96.11592531069994
 20
13.09505105018616
 30
0.0
 11
-95.10581098362684
 21
13.65451794117689
 31
0.0
  0
LINE
  5
EBF4
330
A
100
AcDbEntity
  8
0
  6
Continuous
 62
     7
370
    15
100
AcDbLine
 10
-94.1367856772232
 20
11.90494932234287
 30
0.0
 11
-94.11624163254976
 21
13.05946707725525
 31
0.0
  0
LINE
  5
EBF5
330
A
100
AcDbEntity
  8
0
  6
Continuous
 62
     7
370
    15
100
AcDbLine
 10
-96.11592531069994
 20
13.09505105018616
 30
0.0
 11
-96.13646935537338
 21
11.94053329527378
 31
0.0
  0
LINE
  5
EBF6
330
A
100
AcDbEntity
  8
0
  6
Continuous
 62
     7
370
    15
100
AcDbLine
 10
-95.1469000042963
 20
11.34548243135214
 30
0.0
 11
-94.1367856772232
 21
11.90494932234287
 31
0.0
  0
LINE
  5
EBF7
330
A
100
AcDbEntity
  8
0
  6
Continuous
 62
     7
370
    15
100
AcDbLine
 10
-115.8263552547979
 20
54.91928942501545
 30
0.0
 11
-125.8263559626031
 21
54.91928942501545
 31
0.0
  0
LINE
  5
EBF8
330
A
100
AcDbEntity
  8
0
  6
Continuous
 62
     7
370
    15
100
AcDbLine
 10
-115.8263552547979
 20
54.91928942501545
 30
0.0
 11
-115.8263552547979
 21
1.0807104408741
 31
0.0
  0
CIRCLE
  5
EBF9
330
A
100
AcDbEntity
  8
0
  6
Continuous
 62
     7
370
    15
100
AcDbCircle
 10
-122.1263553784776
 20
12.50000004470348
 30
0.0
 40
1.749999999999957
  0
LINE
  5
EBFA
330
A
100
AcDbEntity
  8
0
  6
Continuous
 62
     7
370
    15
100
AcDbLine
 10
-125.8263559626031
 20
1.0807104408741
 30
0.0
 11
-115.8263552547979
 21
1.0807104408741
 31
0.0
  0
CIRCLE
  5
EBFB
330
A
100
AcDbEntity
  8
0
  6
Continuous
 62
     7
370
    15
100
AcDbCircle
 10
-122.1263553784776
 20
47.50000004470348
 30
0.0
 40
1.749999999999957
  0
ELLIPSE
  5
EBFC
330
A
100
AcDbEntity
  8
0
  6
Continuous
 62
     7
370
    15
100
AcDbEllipse
 10
-125.8263553784774
 20
54.50000004470348
 30
0.0
 11
1.500000000000007
 21
0.0
 31
0.0
210
0.0
220
0.0
230
1.0
 40
0.2795262145875565
 41
1.570796326794897
 42
3.141592653589793
  0
ELLIPSE
  5
EBFD
330
A
100
AcDbEntity
  8
0
  6
Continuous
 62
     7
370
    15
100
AcDbEllipse
 10
-125.8263553784774
 20
1.500000044703455
 30
0.0
 11
1.500000000000007
 21
0.0
 31
0.0
210
0.0
220
0.0
230
1.0
 40
0.2795262145875565
 41
3.141592653589793
 42
4.712388980384693
  0
LINE
  5
EBFE
330
A
100
AcDbEntity
  8
0
  6
Continuous
 62
     7
370
    15
100
AcDbLine
 10
-127.3263552771497
 20
54.50000055134296
 30
0.0
 11
-127.3263552771497
 21
1.499999314546585
 31
0.0
  0
LINE
  5
EBFF
330
A
100
AcDbEntity
  8
0
  6
Continuous
 62
     7
370
    15
100
AcDbLine
 10
-125.8263559626031
 20
55.00000156462193
 30
0.0
 11
-115.8263552547979
 21
55.00000156462193
 31
0.0
  0
LINE
  5
EC00
330
A
100
AcDbEntity
  8
0
  6
Continuous
 62
     7
370
    15
100
AcDbLine
 10
-125.8263559626031
 20
55.99999986588955
 30
0.0
 11
-115.8263552547979
 21
55.99999986588955
 31
0.0
  0
LINE
  5
EC01
330
A
100
AcDbEntity
  8
0
  6
Continuous
 62
     7
370
    15
100
AcDbLine
 10
-115.8263552547979
 20
55.99999986588955
 30
0.0
 11
-115.8263552547979
 21
55.00000156462193
 31
0.0
  0
LINE
  5
EC02
330
A
100
AcDbEntity
  8
0
  6
Continuous
 62
     7
370
    15
100
AcDbLine
 10
-115.8263552547979
 20
0.0
 30
0.0
 11
-125.8263559626031
 21
0.0
 31
0.0
  0
LINE
  5
EC03
330
A
100
AcDbEntity
  8
0
  6
Continuous
 62
     7
370
    15
100
AcDbLine
 10
-115.8263552547979
 20
0.0
 30
0.0
 11
-115.8263552547979
 21
1.000000163912773
 31
0.0
  0
LINE
  5
EC04
330
A
100
AcDbEntity
  8
0
  6
Continuous
 62
     7
370
    15
100
AcDbLine
 10
-115.8263552547979
 20
1.000000163912773
 30
0.0
 11
-125.8263559626031
 21
1.000000163912773
 31
0.0
  0
ARC
  5
EC05
330
A
100
AcDbEntity
  8
0
  6
Continuous
 62
     7
370
    15
100
AcDbCircle
 10
-125.8263553784774
 20
1.500000044703455
 30
0.0
 40
0.5
100
AcDbArc
 50
235.4310105710945
 51
270.0
  0
ARC
  5
EC06
330
A
100
AcDbEntity
  8
0
  6
Continuous
 62
     7
370
    15
100
AcDbCircle
 10
-125.8263553784774
 20
1.500000044703455
 30
0.0
 40
1.5
100
AcDbArc
 50
180.0
 51
270.0
  0
ARC
  5
EC07
330
A
100
AcDbEntity
  8
0
  6
Continuous
 62
     7
370
    15
100
AcDbCircle
 10
-125.8263553784774
 20
54.50000004470348
 30
0.0
 40
0.5
100
AcDbArc
 50
90.0
 51
124.5689894287158
  0
ARC
  5
EC08
330
A
100
AcDbEntity
  8
0
  6
Continuous
 62
     7
370
    15
100
AcDbCircle
 10
-125.8263553784774
 20
54.50000004470348
 30
0.0
 40
1.5
100
AcDbArc
 50
90.0
 51
180.0
  0
LINE
  5
EC09
330
A
100
AcDbEntity
  8
0
  6
Continuous
 62
     7
370
    15
100
AcDbLine
 10
-101.4263555021572
 20
1.0807104408741
 30
0.0
 11
-91.42635479435205
 21
1.0807104408741
 31
0.0
  0
LINE
  5
EC0A
330
A
100
AcDbEntity
  8
0
  6
Continuous
 62
     7
370
    15
100
AcDbLine
 10
-101.4263555021572
 20
1.0807104408741
 30
0.0
 11
-101.4263555021572
 21
54.91928942501545
 31
0.0
  0
LINE
  5
EC0B
330
A
100
AcDbEntity
  8
0
  6
Continuous
 62
     7
370
    15
100
AcDbLine
 10
-91.42635479435205
 20
54.91928942501545
 30
0.0
 11
-101.4263555021572
 21
54.91928942501545
 31
0.0
  0
CIRCLE
  5
EC0C
330
A
100
AcDbEntity
  8
0
  6
Continuous
 62
     7
370
    15
100
AcDbCircle
 10
-95.12635537847757
 20
47.50000004470348
 30
0.0
 40
1.749999999999986
  0
CIRCLE
  5
EC0D
330
A
100
AcDbEntity
  8
0
  6
Continuous
 62
     7
370
    15
100
AcDbCircle
 10
-95.12635537847757
 20
12.50000004470348
 30
0.0
 40
1.749999999999986
  0
ELLIPSE
  5
EC0E
330
A
100
AcDbEntity
  8
0
  6
Continuous
 62
     7
370
    15
100
AcDbEllipse
 10
-91.42635537847752
 20
54.50000004470348
 30
0.0
 11
1.5
 21
0.0
 31
0.0
210
0.0
220
0.0
230
1.0
 40
0.2795262145875578
 41
0.0
 42
1.570796326794897
  0
LINE
  5
EC0F
330
A
100
AcDbEntity
  8
0
  6
Continuous
 62
     7
370
    15
100
AcDbLine
 10
-89.92635547980547
 20
1.499999314546585
 30
0.0
 11
-89.92635547980547
 21
54.50000055134296
 31
0.0
  0
ELLIPSE
  5
EC10
330
A
100
AcDbEntity
  8
0
  6
Continuous
 62
     7
370
    15
100
AcDbEllipse
 10
-91.42635537847752
 20
1.500000044703455
 30
0.0
 11
1.5
 21
0.0
 31
0.0
210
0.0
220
0.0
230
1.0
 40
0.2795262145875578
 41
4.712388980384693
 42
6.283185307179586
  0
ARC
  5
EC11
330
A
100
AcDbEntity
  8
0
  6
Continuous
 62
     7
370
    15
100
AcDbCircle
 10
-91.42635537847752
 20
54.50000004470348
 30
0.0
 40
0.5
100
AcDbArc
 50
55.43101057080991
 51
90.0
  0
ARC
  5
EC12
330
A
100
AcDbEntity
  8
0
  6
Continuous
 62
     7
370
    15
100
AcDbCircle
 10
-91.42635537847752
 20
54.50000004470348
 30
0.0
 40
1.5
100
AcDbArc
 50
0.0
 51
90.0
  0
LINE
  5
EC13
330
A
100
AcDbEntity
  8
0
  6
Continuous
 62
     7
370
    15
100
AcDbLine
 10
-101.4263555021572
 20
55.99999986588955
 30
0.0
 11
-101.4263555021572
 21
55.00000156462193
 31
0.0
  0
LINE
  5
EC14
330
A
100
AcDbEntity
  8
0
  6
Continuous
 62
     7
370
    15
100
AcDbLine
 10
-101.4263555021572
 20
55.99999986588955
 30
0.0
 11
-91.42635479435205
 21
55.99999986588955
 31
0.0
  0
LINE
  5
EC15
330
A
100
AcDbEntity
  8
0
  6
Continuous
 62
     7
370
    15
100
AcDbLine
 10
-101.4263555021572
 20
55.00000156462193
 30
0.0
 11
-91.42635479435205
 21
55.00000156462193
 31
0.0
  0
ARC
  5
EC16
330
A
100
AcDbEntity
  8
0
  6
Continuous
 62
     7
370
    15
100
AcDbCircle
 10
-91.42635537847752
 20
1.500000044703455
 30
0.0
 40
1.5
100
AcDbArc
 50
270.0
 51
0.0
  0
ARC
  5
EC17
330
A
100
AcDbEntity
  8
0
  6
Continuous
 62
     7
370
    15
100
AcDbCircle
 10
-91.42635537847752
 20
1.500000044703455
 30
0.0
 40
0.5
100
AcDbArc
 50
270.0
 51
304.568989429032
  0
LINE
  5
EC18
330
A
100
AcDbEntity
  8
0
  6
Continuous
 62
     7
370
    15
100
AcDbLine
 10
-101.4263555021572
 20
0.0
 30
0.0
 11
-101.4263555021572
 21
1.000000163912773
 31
0.0
  0
LINE
  5
EC19
330
A
100
AcDbEntity
  8
0
  6
Continuous
 62
     7
370
    15
100
AcDbLine
 10
-91.42635479435205
 20
1.000000163912773
 30
0.0
 11
-101.4263555021572
 21
1.000000163912773
 31
0.0
  0
LINE
  5
EC1A
330
A
100
AcDbEntity
  8
0
  6
Continuous
 62
     7
370
    15
100
AcDbLine
 10
-91.42635479435205
 20
0.0
 30
0.0
 11
-101.4263555021572
 21
0.0
 31
0.0
  0
LINE
  5
EC1B
330
A
100
AcDbEntity
  8
0
  6
Continuous
 62
     7
370
    15
100
AcDbLine
 10
-112.3763552946585
 20
40.9999992698431
 30
0.0
 11
-114.8763554716098
 21
40.9999992698431
 31
0.0
  0
LINE
  5
EC1C
330
A
100
AcDbEntity
  8
0
  6
Continuous
 62
     7
370
    15
100
AcDbLine
 10
-112.3763552946585
 20
36.50000039488077
 30
0.0
 11
-114.8763554716098
 21
36.50000039488077
 31
0.0
  0
LINE
  5
EC1D
330
A
100
AcDbEntity
  8
0
  6
Continuous
 62
     7
370
    15
100
AcDbLine
 10
-114.8763554716098
 20
26.5000001527369
 30
0.0
 11
-112.3763552946585
 21
26.5000001527369
 31
0.0
  0
LINE
  5
EC1E
330
A
100
AcDbEntity
  8
0
  6
Continuous
 62
     7
370
    15
100
AcDbLine
 10
-115.8263552547979
 20
1.499999314546585
 30
0.0
 11
-101.4263555021572
 21
1.499999314546585
 31
0.0
  0
LINE
  5
EC1F
330
A
100
AcDbEntity
  8
0
  6
Continuous
 62
     8
370
     0
100
AcDbLine
 10
-103.3763554492581
 20
51.00000090897083
 30
0.0
 11
-102.3763552853453
 21
51.00000090897083
 31
0.0
  0
LINE
  5
EC20
330
A
100
AcDbEntity
  8
0
  6
Continuous
 62
     8
370
     0
100
AcDbLine
 10
-115.8263552547979
 20
49.4999997317791
 30
0.0
 11
-114.8763554716098
 21
49.4999997317791
 31
0.0
  0
LINE
  5
EC21
330
A
100
AcDbEntity
  8
0
  6
Continuous
 62
     8
370
     0
100
AcDbLine
 10
-115.8263552547979
 20
3.499999642372131
 30
0.0
 11
-114.8763554716098
 21
3.499999642372131
 31
0.0
  0
LINE
  5
EC22
330
A
100
AcDbEntity
  8
0
  6
Continuous
 62
     8
370
     0
100
AcDbLine
 10
-102.3763552853453
 20
49.4999997317791
 30
0.0
 11
-101.4263555021572
 21
49.4999997317791
 31
0.0
  0
LINE
  5
EC23
330
A
100
AcDbEntity
  8
0
  6
Continuous
 62
     8
370
     0
100
AcDbLine
 10
-102.3763552853453
 20
3.499999642372131
 30
0.0
 11
-101.4263555021572
 21
3.499999642372131
 31
0.0
  0
LINE
  5
EC24
330
A
100
AcDbEntity
  8
0
  6
Continuous
 62
     8
370
     0
100
AcDbLine
 10
-125.8263559626031
 20
1.0807104408741
 30
0.0
 11
-125.8263559626031
 21
54.91928942501545
 31
0.0
  0
LINE
  5
EC25
330
A
100
AcDbEntity
  8
0
  6
Continuous
 62
     8
370
     0
100
AcDbLine
 10
-125.8263559626031
 20
55.99999986588955
 30
0.0
 11
-125.8263559626031
 21
55.00000156462193
 31
0.0
  0
LINE
  5
EC26
330
A
100
AcDbEntity
  8
0
  6
Continuous
 62
     8
370
     0
100
AcDbLine
 10
-125.8263559626031
 20
0.0
 30
0.0
 11
-125.8263559626031
 21
1.000000163912773
 31
0.0
  0
LINE
  5
EC27
330
A
100
AcDbEntity
  8
0
  6
Continuous
 62
     8
370
     0
100
AcDbLine
 10
-91.42635479435205
 20
54.91928942501545
 30
0.0
 11
-91.42635479435205
 21
1.0807104408741
 31
0.0
  0
LINE
  5
EC28
330
A
100
AcDbEntity
  8
0
  6
Continuous
 62
     8
370
     0
100
AcDbLine
 10
-91.42635479435205
 20
55.99999986588955
 30
0.0
 11
-91.42635479435205
 21
55.00000156462193
 31
0.0
  0
LINE
  5
EC29
330
A
100
AcDbEntity
  8
0
  6
Continuous
 62
     8
370
     0
100
AcDbLine
 10
-91.42635479435205
 20
0.0
 30
0.0
 11
-91.42635479435205
 21
1.000000163912773
 31
0.0
  0
TEXT
  5
EC2B
330
A
100
AcDbEntity
  8
0
  6
Continuous
 62
     7
370
     0
100
AcDbText
 10
127.6714723167964
 20
109.0249500248945
 30
0.0
 40
10.0
  1
100E25
100
AcDbText
  0
LINE
  5
ECF4
330
A
100
AcDbEntity
  8
0
  6
ByBlock
 62
     4
100
AcDbLine
 10
75.18764255380749
 20
42.00000003417278
 30
0.0
 11
-57.32276198531886
 21
41.99999943375587
 31
0.0
  0
LINE
  5
EE34
330
A
100
AcDbEntity
  8
0
  6
CENTER
 62
     1
100
AcDbLine
 10
-0.3239868074655528
 20
-25.09268161259307
 30
0.0
 11
-0.3239868074655528
 21
6.41492764603926
 31
0.0
  0
LINE
  5
EE35
330
A
100
AcDbEntity
  8
0
  6
Continuous
 62
     7
370
    15
100
AcDbLine
 10
348.4880412428081
 20
0.0
 30
0.0
 11
348.4880412428081
 21
-17.24999956786633
 31
0.0
  0
LINE
  5
EE36
330
A
100
AcDbEntity
  8
0
  6
Continuous
 62
     7
370
    15
100
AcDbLine
 10
360.4880394844711
 20
-17.24999956786633
 30
0.0
 11
360.4880394844711
 21
0.0
 31
0.0
  0
LINE
  5
EE37
330
A
100
AcDbEntity
  8
0
  6
Continuous
 62
     7
370
    15
100
AcDbLine
 10
348.4880412428081
 20
-17.24999956786633
 30
0.0
 11
349.4880395440758
 21
-18.25000159442425
 31
0.0
  0
LINE
  5
EE38
330
A
100
AcDbEntity
  8
0
  6
Continuous
 62
     7
370
    15
100
AcDbLine
 10
359.4880411832035
 20
-18.25000159442425
 30
0.0
 11
360.4880394844711
 21
-17.24999956786633
 31
0.0
  0
LINE
  5
EE39
330
A
100
AcDbEntity
  8
0
  6
Continuous
 62
     7
370
    15
100
AcDbLine
 10
298.3120271711052
 20
48.90000075101852
 30
0.0
 11
297.8870271945746
 21
48.90000075101852
 31
0.0
  0
LINE
  5
EE3A
330
A
100
AcDbEntity
  8
0
  6
Continuous
 62
     7
370
    15
100
AcDbLine
 10
297.8870271945746
 20
46.09999991953373
 30
0.0
 11
298.3120271711052
 21
46.09999991953373
 31
0.0
  0
LINE
  5
EE3B
330
A
100
AcDbEntity
  8
0
  6
Continuous
 62
     7
370
    15
100
AcDbLine
 10
297.8870271945746
 20
48.90000075101852
 30
0.0
 11
297.8120270891488
 21
48.75000007450581
 31
0.0
  0
LINE
  5
EE3C
330
A
100
AcDbEntity
  8
0
  6
Continuous
 62
     7
370
    15
100
AcDbLine
 10
297.8120270891488
 20
46.25000059604645
 30
0.0
 11
297.8870271945746
 21
46.09999991953373
 31
0.0
  0
LINE
  5
EE3D
330
A
100
AcDbEntity
  8
0
  6
Continuous
 62
     7
370
    15
100
AcDbLine
 10
298.3120271711052
 20
13.89999967068434
 30
0.0
 11
297.8870271945746
 21
13.89999967068434
 31
0.0
  0
LINE
  5
EE3E
330
A
100
AcDbEntity
  8
0
  6
Continuous
 62
     7
370
    15
100
AcDbLine
 10
297.8870271945746
 20
11.09999977052212
 30
0.0
 11
298.3120271711052
 21
11.09999977052212
 31
0.0
  0
LINE
  5
EE3F
330
A
100
AcDbEntity
  8
0
  6
Continuous
 62
     7
370
    15
100
AcDbLine
 10
297.8870271945746
 20
13.89999967068434
 30
0.0
 11
297.8120270891488
 21
13.74999992549419
 31
0.0
  0
LINE
  5
EE40
330
A
100
AcDbEntity
  8
0
  6
Continuous
 62
     7
370
    15
100
AcDbLine
 10
297.8120270891488
 20
11.25000044703484
 30
0.0
 11
297.8870271945746
 21
11.09999977052212
 31
0.0
  0
LINE
  5
EE41
330
A
100
AcDbEntity
  8
0
  6
Continuous
 62
     7
370
    15
100
AcDbLine
 10
464.8120337406547
 20
11.09999977052212
 30
0.0
 11
465.2370297590644
 21
11.09999977052212
 31
0.0
  0
LINE
  5
EE42
330
A
100
AcDbEntity
  8
0
  6
Continuous
 62
     7
370
    15
100
AcDbLine
 10
465.2370297590644
 20
13.89999967068434
 30
0.0
 11
464.8120337406547
 21
13.89999967068434
 31
0.0
  0
LINE
  5
EE43
330
A
100
AcDbEntity
  8
0
  6
Continuous
 62
     7
370
    15
100
AcDbLine
 10
465.2370297590644
 20
11.09999977052212
 30
0.0
 11
465.312027303353
 21
11.25000044703484
 31
0.0
  0
LINE
  5
EE44
330
A
100
AcDbEntity
  8
0
  6
Continuous
 62
     7
370
    15
100
AcDbLine
 10
465.312027303353
 20
13.74999992549419
 30
0.0
 11
465.2370297590644
 21
13.89999967068434
 31
0.0
  0
LINE
  5
EE45
330
A
100
AcDbEntity
  8
0
  6
Continuous
 62
     7
370
    15
100
AcDbLine
 10
465.2370297590644
 20
46.09999991953373
 30
0.0
 11
465.312027303353
 21
46.25000059604645
 31
0.0
  0
LINE
  5
EE46
330
A
100
AcDbEntity
  8
0
  6
Continuous
 62
     7
370
    15
100
AcDbLine
 10
465.312027303353
 20
48.75000007450581
 30
0.0
 11
465.2370297590644
 21
48.90000075101852
 31
0.0
  0
LINE
  5
EE47
330
A
100
AcDbEntity
  8
0
  6
Continuous
 62
     7
370
    15
100
AcDbLine
 10
464.8120337406547
 20
46.09999991953373
 30
0.0
 11
465.2370297590644
 21
46.09999991953373
 31
0.0
  0
LINE
  5
EE48
330
A
100
AcDbEntity
  8
0
  6
Continuous
 62
     7
370
    15
100
AcDbLine
 10
465.2370297590644
 20
48.90000075101852
 30
0.0
 11
464.8120337406547
 21
48.90000075101852
 31
0.0
  0
LINE
  5
EE49
330
A
100
AcDbEntity
  8
0
  6
Continuous
 62
     7
370
    15
100
AcDbLine
 10
359.7056093125046
 20
-17.24999956786633
 30
0.0
 11
360.4880394844711
 21
-17.24999956786633
 31
0.0
  0
LINE
  5
EE4A
330
A
100
AcDbEntity
  8
0
  6
Continuous
 62
     7
370
    15
100
AcDbLine
 10
348.4880412428081
 20
-17.24999956786633
 30
0.0
 11
359.7056093125046
 21
-17.24999956786633
 31
0.0
  0
LINE
  5
EE4B
330
A
100
AcDbEntity
  8
0
  6
Continuous
 62
     7
370
    15
100
AcDbLine
 10
358.8360147981346
 20
-18.25000159442425
 30
0.0
 11
349.4880395440758
 21
-18.25000159442425
 31
0.0
  0
LINE
  5
EE4C
330
A
100
AcDbEntity
  8
0
  6
Continuous
 62
     7
370
    15
100
AcDbLine
 10
359.4880411832035
 20
-18.25000159442425
 30
0.0
 11
358.8360147981346
 21
-18.25000159442425
 31
0.0
  0
LINE
  5
EE4D
330
A
100
AcDbEntity
  8
0
  6
Continuous
 62
     7
370
    15
100
AcDbLine
 10
297.8870271945746
 20
46.33868671953678
 30
0.0
 11
297.8870271945746
 21
46.09999991953373
 31
0.0
  0
LINE
  5
EE4E
330
A
100
AcDbEntity
  8
0
  6
Continuous
 62
     7
370
    15
100
AcDbLine
 10
297.8870271945746
 20
48.90000075101852
 30
0.0
 11
297.8870271945746
 21
46.33868671953678
 31
0.0
  0
LINE
  5
EE4F
330
A
100
AcDbEntity
  8
0
  6
Continuous
 62
     7
370
    15
100
AcDbLine
 10
297.8120270891488
 20
46.46311327815056
 30
0.0
 11
297.8120270891488
 21
46.25000059604645
 31
0.0
  0
LINE
  5
EE50
330
A
100
AcDbEntity
  8
0
  6
Continuous
 62
     7
370
    15
100
AcDbLine
 10
297.8120270891488
 20
48.75000007450581
 30
0.0
 11
297.8120270891488
 21
46.46311327815056
 31
0.0
  0
LINE
  5
EE51
330
A
100
AcDbEntity
  8
0
  6
Continuous
 62
     7
370
    15
100
AcDbLine
 10
297.8870271945746
 20
11.33868657052517
 30
0.0
 11
297.8870271945746
 21
11.09999977052212
 31
0.0
  0
LINE
  5
EE52
330
A
100
AcDbEntity
  8
0
  6
Continuous
 62
     7
370
    15
100
AcDbLine
 10
297.8870271945746
 20
13.89999967068434
 30
0.0
 11
297.8870271945746
 21
11.33868657052517
 31
0.0
  0
LINE
  5
EE53
330
A
100
AcDbEntity
  8
0
  6
Continuous
 62
     7
370
    15
100
AcDbLine
 10
297.8120270891488
 20
11.46311312913895
 30
0.0
 11
297.8120270891488
 21
11.25000044703484
 31
0.0
  0
LINE
  5
EE54
330
A
100
AcDbEntity
  8
0
  6
Continuous
 62
     7
370
    15
100
AcDbLine
 10
297.8120270891488
 20
13.74999992549419
 30
0.0
 11
297.8120270891488
 21
11.46311312913895
 31
0.0
  0
LINE
  5
EE55
330
A
100
AcDbEntity
  8
0
  6
Continuous
 62
     7
370
    15
100
AcDbLine
 10
465.2370297590644
 20
11.33391167968512
 30
0.0
 11
465.2370297590644
 21
13.89999967068434
 31
0.0
  0
LINE
  5
EE56
330
A
100
AcDbEntity
  8
0
  6
Continuous
 62
     7
370
    15
100
AcDbLine
 10
465.2370297590644
 20
11.09999977052212
 30
0.0
 11
465.2370297590644
 21
11.33391167968512
 31
0.0
  0
LINE
  5
EE57
330
A
100
AcDbEntity
  8
0
  6
Continuous
 62
     7
370
    15
100
AcDbLine
 10
465.312027303353
 20
11.45885046571493
 30
0.0
 11
465.312027303353
 21
13.74999992549419
 31
0.0
  0
LINE
  5
EE58
330
A
100
AcDbEntity
  8
0
  6
Continuous
 62
     7
370
    15
100
AcDbLine
 10
465.312027303353
 20
11.25000044703484
 30
0.0
 11
465.312027303353
 21
11.45885046571493
 31
0.0
  0
LINE
  5
EE59
330
A
100
AcDbEntity
  8
0
  6
Continuous
 62
     7
370
    15
100
AcDbLine
 10
465.312027303353
 20
47.52223938703537
 30
0.0
 11
465.312027303353
 21
48.75000007450581
 31
0.0
  0
LINE
  5
EE5A
330
A
100
AcDbEntity
  8
0
  6
Continuous
 62
     7
370
    15
100
AcDbLine
 10
465.312027303353
 20
46.25000059604645
 30
0.0
 11
465.312027303353
 21
47.52223938703537
 31
0.0
  0
LINE
  5
EE5B
330
A
100
AcDbEntity
  8
0
  6
Continuous
 62
     7
370
    15
100
AcDbLine
 10
465.2370297590644
 20
47.52490855753422
 30
0.0
 11
465.2370297590644
 21
48.90000075101852
 31
0.0
  0
LINE
  5
EE5C
330
A
100
AcDbEntity
  8
0
  6
Continuous
 62
     7
370
    15
100
AcDbLine
 10
465.2370297590644
 20
46.09999991953373
 30
0.0
 11
465.2370297590644
 21
47.52490855753422
 31
0.0
  0
LWPOLYLINE
  5
EE5D
330
A
100
AcDbEntity
  8
0
  6
Continuous
 62
     7
370
    15
100
AcDbPolyline
 90
       10
 70
   128
 43
0.0
 10
464.8120337406547
 20
1.0807104408741
 10
464.7892349640281
 20
1.08708068728447
 10
464.7215687910468
 20
1.105997711420059
 10
464.6110617796332
 20
1.136884093284607
 10
464.4610964933784
 20
1.178806647658348
 10
464.2762028852851
 20
1.230485737323761
 10
464.0620284954459
 20
1.290354877710342
 10
463.8250553289802
 20
1.356594264507294
 10
463.5724955479056
 20
1.427190378308296
 10
463.3120232502372
 20
1.499999314546585
  0
LWPOLYLINE
  5
EE5E
330
A
100
AcDbEntity
  8
0
  6
Continuous
 62
     7
370
    15
100
AcDbPolyline
 90
        9
 70
   128
 43
0.0
 10
464.8120337406547
 20
54.91928942501545
 10
464.7831999937446
 20
54.91123162209988
 10
464.6978461424262
 20
54.88737113773823
 10
464.559235541001
 20
54.84862811863422
 10
464.3726879040153
 20
54.79648150503635
 10
464.1453855911643
 20
54.73294295370579
 10
463.8860457817466
 20
54.66045625507832
 10
463.6046671549232
 20
54.58180047571659
 10
463.3120232502372
 20
54.50000055134296
  0
LINE
  5
EE5F
330
A
100
AcDbEntity
  8
0
  6
Continuous
 62
     7
370
    15
100
AcDbLine
 10
464.8120337406547
 20
1.0807104408741
 30
0.0
 11
464.8120337406547
 21
54.91928942501545
 31
0.0
  0
LWPOLYLINE
  5
EE60
330
A
100
AcDbEntity
  8
0
  6
Continuous
 62
     7
370
    15
100
AcDbPolyline
 90
        9
 70
   128
 43
0.0
 10
463.8120317140967
 20
54.91928942501545
 10
463.8024204651267
 20
54.91123162209988
 10
463.7739741484077
 20
54.88737113773823
 10
463.7277656475455
 20
54.84862811863422
 10
463.6655831018836
 20
54.79648150503635
 10
463.5898106972129
 20
54.73294295370579
 10
463.5033690611274
 20
54.66045625507832
 10
463.4095662514121
 20
54.58180047571659
 10
463.3120232502372
 20
54.50000055134296
  0
LINE
  5
EE61
330
A
100
AcDbEntity
  8
0
  6
Continuous
 62
     7
370
    15
100
AcDbLine
 10
464.8120337406547
 20
54.91928942501545
 30
0.0
 11
463.8120317140967
 21
54.91928942501545
 31
0.0
  0
LWPOLYLINE
  5
EE62
330
A
100
AcDbEntity
  8
0
  6
Continuous
 62
     7
370
    15
100
AcDbPolyline
 90
       10
 70
   128
 43
0.0
 10
299.8120271841437
 20
54.50000055134296
 10
299.7392183570448
 20
54.76047284901142
 10
299.6686217848585
 20
55.01302890479565
 10
299.6023825290288
 20
55.24999834597111
 10
299.5425131994673
 20
55.46418018639088
 10
299.4908329165448
 20
55.64906634390354
 10
299.4489119919856
 20
55.79903908073902
 10
299.4180240967219
 20
55.909538641572
 10
299.399107800182
 20
55.97721226513386
 10
299.3927378739138
 20
55.99999986588955
  0
LINE
  5
EE63
330
A
100
AcDbEntity
  8
0
  6
Continuous
 62
     7
370
    15
100
AcDbLine
 10
463.7313121239097
 20
55.99999986588955
 30
0.0
 11
299.3927378739138
 21
55.99999986588955
 31
0.0
  0
LWPOLYLINE
  5
EE64
330
A
100
AcDbEntity
  8
0
  6
Continuous
 62
     7
370
    15
100
AcDbPolyline
 90
       10
 70
   128
 43
0.0
 10
463.3120232502372
 20
54.50000055134296
 10
463.3848303238303
 20
54.76047284901142
 10
463.4554320255668
 20
55.01302890479565
 10
463.5216676870734
 20
55.24999834597111
 10
463.5815405527503
 20
55.46418018639088
 10
463.6332177797706
 20
55.64906634390354
 10
463.6751496473701
 20
55.79903908073902
 10
463.7060248533637
 20
55.909538641572
 10
463.7249493280799
 20
55.97721226513386
 10
463.7313121239097
 20
55.99999986588955
  0
LWPOLYLINE
  5
EE65
330
A
100
AcDbEntity
  8
0
  6
Continuous
 62
     7
370
    15
100
AcDbPolyline
 90
       10
 70
   128
 43
0.0
 10
463.3120232502372
 20
54.50000055134296
 10
463.3848303238303
 20
54.58682589232922
 10
463.4554320255668
 20
54.67101000249386
 10
463.5216676870734
 20
54.75000105798244
 10
463.5815405527503
 20
54.82139252126217
 10
463.6332177797706
 20
54.88302372395992
 10
463.6751496473701
 20
54.93301339447498
 10
463.7060248533637
 20
54.96984533965588
 10
463.7249493280799
 20
54.99240569770336
 10
463.7313121239097
 20
55.00000156462193
  0
LINE
  5
EE66
330
A
100
AcDbEntity
  8
0
  6
Continuous
 62
     7
370
    15
100
AcDbLine
 10
463.7313121239097
 20
55.99999986588955
 30
0.0
 11
463.7313121239097
 21
55.00000156462193
 31
0.0
  0
LWPOLYLINE
  5
EE67
330
A
100
AcDbEntity
  8
0
  6
Continuous
 62
     7
370
    15
100
AcDbPolyline
 90
       10
 70
   128
 43
0.0
 10
299.3927378739138
 20
0.0
 10
299.399107800182
 20
0.0227876007556915
 10
299.4180240967219
 20
0.0904612243175507
 10
299.4489119919856
 20
0.2009626477956772
 10
299.4908329165448
 20
0.3509335219860077
 10
299.5425131994673
 20
0.5358178168535233
 10
299.6023825290288
 20
0.7499996572732925
 10
299.6686217848585
 20
0.9869690984487534
 10
299.7392183570448
 20
1.239527016878128
 10
299.8120271841437
 20
1.499999314546585
  0
LWPOLYLINE
  5
EE68
330
A
100
AcDbEntity
  8
0
  6
Continuous
 62
     7
370
    15
100
AcDbPolyline
 90
        9
 70
   128
 43
0.0
 10
463.3120232502372
 20
1.499999314546585
 10
463.3938306251914
 20
1.207364723086357
 10
463.4724789539725
 20
0.9259749203920364
 10
463.5449731031806
 20
0.666644424200058
 10
463.6085116545112
 20
0.4393402487039566
 10
463.6606508175284
 20
0.2527963370084763
 10
463.6993938366325
 20
0.1141801476478577
 10
463.723265496865
 20
0.0288225710391998
 10
463.7313121239097
 20
0.0
  0
LINE
  5
EE69
330
A
100
AcDbEntity
  8
0
  6
Continuous
 62
     7
370
    15
100
AcDbLine
 10
299.3927378739138
 20
0.0
 30
0.0
 11
463.7313121239097
 21
0.0
 31
0.0
  0
LWPOLYLINE
  5
EE6A
330
A
100
AcDbEntity
  8
0
  6
Continuous
 62
     7
370
    15
100
AcDbPolyline
 90
        9
 70
   128
 43
0.0
 10
463.8120317140967
 20
1.0807104408741
 10
463.8024204651267
 20
1.088766381144524
 10
463.7739741484077
 20
1.112626865506172
 10
463.7277656475455
 20
1.151373609900475
 10
463.6655831018836
 20
1.203518360853195
 10
463.5898106972129
 20
1.267055049538612
 10
463.5033690611274
 20
1.339545473456383
 10
463.4095662514121
 20
1.418201252818108
 10
463.3120232502372
 20
1.499999314546585
  0
LINE
  5
EE6B
330
A
100
AcDbEntity
  8
0
  6
Continuous
 62
     7
370
    15
100
AcDbLine
 10
464.8120337406547
 20
1.0807104408741
 30
0.0
 11
463.8120317140967
 21
1.0807104408741
 31
0.0
  0
LWPOLYLINE
  5
EE6C
330
A
100
AcDbEntity
  8
0
  6
Continuous
 62
     7
370
    15
100
AcDbPolyline
 90
        9
 70
   128
 43
0.0
 10
463.3120232502372
 20
1.499999314546585
 10
463.3938306251914
 20
1.402454450726509
 10
463.4724789539725
 20
1.308659091591835
 10
463.5449731031806
 20
1.222215592861176
 10
463.6085116545112
 20
1.146446913480759
 10
463.6606508175284
 20
1.084264367818832
 10
463.6993938366325
 20
1.038059592247009
 10
463.723265496865
 20
1.009607687592506
 10
463.7313121239097
 20
1.000000163912773
  0
LINE
  5
EE6D
330
A
100
AcDbEntity
  8
0
  6
Continuous
 62
     7
370
    15
100
AcDbLine
 10
463.7313121239097
 20
0.0
 30
0.0
 11
463.7313121239097
 21
1.000000163912773
 31
0.0
  0
LWPOLYLINE
  5
EE6E
330
A
100
AcDbEntity
  8
0
  6
Continuous
 62
     7
370
    15
100
AcDbPolyline
 90
       10
 70
   128
 43
0.0
 10
299.8120271841437
 20
54.50000055134296
 10
299.7392183570448
 20
54.58682589232922
 10
299.6686217848585
 20
54.67101000249386
 10
299.6023825290288
 20
54.75000105798244
 10
299.5425131994673
 20
54.82139252126217
 10
299.4908329165448
 20
54.88302372395992
 10
299.4489119919856
 20
54.93301339447498
 10
299.4180240967219
 20
54.96984533965588
 10
299.399107800182
 20
54.99240569770336
 10
299.3927378739138
 20
55.00000156462193
  0
LINE
  5
EE6F
330
A
100
AcDbEntity
  8
0
  6
Continuous
 62
     7
370
    15
100
AcDbLine
 10
299.3927378739138
 20
55.99999986588955
 30
0.0
 11
299.3927378739138
 21
55.00000156462193
 31
0.0
  0
LWPOLYLINE
  5
EE70
330
A
100
AcDbEntity
  8
0
  6
Continuous
 62
     7
370
    15
100
AcDbPolyline
 90
        9
 70
   128
 43
0.0
 10
298.3120271711052
 20
54.91928942501545
 10
298.3408492764831
 20
54.91123162209988
 10
298.4262079008297
 20
54.88737113773823
 10
298.5648228096218
 20
54.84862811863422
 10
298.7513670705632
 20
54.79648150503635
 10
298.9786718281359
 20
54.73294295370579
 10
299.2380020332896
 20
54.66045625507832
 10
299.5193916904648
 20
54.58180047571659
 10
299.8120271841437
 20
54.50000055134296
  0
LWPOLYLINE
  5
EE71
330
A
100
AcDbEntity
  8
0
  6
Continuous
 62
     7
370
    15
100
AcDbPolyline
 90
        9
 70
   128
 43
0.0
 10
299.8120271841437
 20
1.499999314546585
 10
299.5193916904648
 20
1.418201252818108
 10
299.2380020332896
 20
1.339545473456383
 10
298.9786718281359
 20
1.267055049538612
 10
298.7513670705632
 20
1.203518360853195
 10
298.5648228096218
 20
1.151373609900475
 10
298.4262079008297
 20
1.112626865506172
 10
298.3408492764831
 20
1.088766381144524
 10
298.3120271711052
 20
1.0807104408741
  0
LINE
  5
EE72
330
A
100
AcDbEntity
  8
0
  6
Continuous
 62
     7
370
    15
100
AcDbLine
 10
298.3120271711052
 20
54.91928942501545
 30
0.0
 11
298.3120271711052
 21
1.0807104408741
 31
0.0
  0
LWPOLYLINE
  5
EE73
330
A
100
AcDbEntity
  8
0
  6
Continuous
 62
     7
370
    15
100
AcDbPolyline
 90
       10
 70
   128
 43
0.0
 10
299.312027160395
 20
54.91928942501545
 10
299.3196233183519
 20
54.91291917860508
 10
299.3421808824316
 20
54.89400215446949
 10
299.3790144865309
 20
54.86311577260494
 10
299.4290049719532
 20
54.82119508087635
 10
299.4906333806832
 20
54.76951412856579
 10
299.5620271722694
 20
54.70964498817921
 10
299.6410171072605
 20
54.64340560138226
 10
299.7252030946222
 20
54.5728076249361
 10
299.8120271841437
 20
54.50000055134296
  0
LINE
  5
EE74
330
A
100
AcDbEntity
  8
0
  6
Continuous
 62
     7
370
    15
100
AcDbLine
 10
298.3120271711052
 20
54.91928942501545
 30
0.0
 11
299.312027160395
 21
54.91928942501545
 31
0.0
  0
LWPOLYLINE
  5
EE75
330
A
100
AcDbEntity
  8
0
  6
Continuous
 62
     7
370
    15
100
AcDbPolyline
 90
        9
 70
   128
 43
0.0
 10
299.8120271841437
 20
1.499999314546585
 10
299.7144820220094
 20
1.418201252818108
 10
299.6206854623417
 20
1.339545473456383
 10
299.5342420654745
 20
1.267055049538612
 10
299.4584737935477
 20
1.203518360853195
 10
299.3962923829351
 20
1.151373609900475
 10
299.3500874036365
 20
1.112626865506172
 10
299.3216345676594
 20
1.088766381144524
 10
299.312027160395
 20
1.0807104408741
  0
LINE
  5
EE76
330
A
100
AcDbEntity
  8
0
  6
Continuous
 62
     7
370
    15
100
AcDbLine
 10
298.3120271711052
 20
1.0807104408741
 30
0.0
 11
299.312027160395
 21
1.0807104408741
 31
0.0
  0
LWPOLYLINE
  5
EE77
330
A
100
AcDbEntity
  8
0
  6
Continuous
 62
     7
370
    15
100
AcDbPolyline
 90
        9
 70
   128
 43
0.0
 10
299.3927378739138
 20
1.000000163912773
 10
299.4007943962608
 20
1.009607687592506
 10
299.4246543567535
 20
1.038059592247009
 10
299.4634008683172
 20
1.084264367818832
 10
299.5155448625703
 20
1.146446913480759
 10
299.5790825116821
 20
1.222215592861176
 10
299.6515721061407
 20
1.308659091591835
 10
299.7302278927784
 20
1.402454450726509
 10
299.8120271841437
 20
1.499999314546585
  0
LINE
  5
EE78
330
A
100
AcDbEntity
  8
0
  6
Continuous
 62
     7
370
    15
100
AcDbLine
 10
299.3927378739138
 20
0.0
 30
0.0
 11
299.3927378739138
 21
1.000000163912773
 31
0.0
  0
LINE
  5
EE79
330
A
100
AcDbEntity
  8
0
  6
Continuous
 62
     8
370
     0
100
AcDbLine
 10
463.3120232502372
 20
54.50000055134296
 30
0.0
 11
463.3120232502372
 21
1.499999314546585
 31
0.0
  0
LINE
  5
EE7A
330
A
100
AcDbEntity
  8
0
  6
Continuous
 62
     8
370
     0
100
AcDbLine
 10
463.3120232502372
 20
1.499999314546585
 30
0.0
 11
299.8120271841437
 21
1.499999314546585
 31
0.0
  0
LINE
  5
EE7B
330
A
100
AcDbEntity
  8
0
  6
Continuous
 62
     8
370
     0
100
AcDbLine
 10
299.8120271841437
 20
1.499999314546585
 30
0.0
 11
299.8120271841437
 21
54.50000055134296
 31
0.0
  0
LINE
  5
EE7C
330
A
100
AcDbEntity
  8
0
  6
Continuous
 62
     8
370
     0
100
AcDbLine
 10
299.8120271841437
 20
54.50000055134296
 30
0.0
 11
463.3120232502372
 21
54.50000055134296
 31
0.0
  0
LINE
  5
EE7D
330
A
100
AcDbEntity
  8
0
  6
Continuous
 62
     4
370
     0
100
AcDbLine
 10
493.4625445511715
 20
-0.9999999552973975
 30
0.0
 11
456.3120271841451
 21
-0.9999999552973975
 31
0.0
  0
LINE
  5
EE7E
330
A
100
AcDbEntity
  8
0
  6
Continuous
 62
     4
370
     0
100
AcDbLine
 10
456.3120271841451
 20
-0.9999999552973975
 30
0.0
 11
456.3120271841451
 21
38.00000004470351
 31
0.0
  0
ARC
  5
EE7F
330
A
100
AcDbEntity
  8
0
  6
Continuous
 62
     4
370
     0
100
AcDbCircle
 10
446.3120271841451
 20
38.00000004470351
 30
0.0
 40
10.0
100
AcDbArc
 50
0.0
 51
90.0
  0
ARC
  5
EE80
330
A
100
AcDbEntity
  8
0
  6
Continuous
 62
     4
370
     0
100
AcDbCircle
 10
442.8120271841451
 20
38.00000004470351
 30
0.0
 40
10.0
100
AcDbArc
 50
90.0
 51
145.1500954209561
  0
LINE
  5
EE84
330
A
100
AcDbEntity
  8
0
  6
Continuous
 62
     4
370
     0
100
AcDbLine
 10
431.3229018910687
 20
42.00000004470301
 30
0.0
 11
317.8011524772212
 21
42.00000004470326
 31
0.0
  0
ARC
  5
EE86
330
A
100
AcDbEntity
  8
0
  6
Continuous
 62
     4
370
     0
100
AcDbCircle
 10
306.3120271841451
 20
42.00000004470328
 30
0.0
 40
6.000000000000014
100
AcDbArc
 50
34.84990457904631
 51
180.0000000000108
  0
LINE
  5
EE87
330
A
100
AcDbEntity
  8
0
  6
Continuous
 62
     4
370
     0
100
AcDbLine
 10
300.3120271841451
 20
42.00000004470328
 30
0.0
 11
300.3120271841451
 21
-0.9999999552973975
 31
0.0
  0
LINE
  5
EE8A
330
A
100
AcDbEntity
  8
0
  6
Continuous
 62
     4
370
     0
100
AcDbLine
 10
264.5572844185485
 20
-0.9999999552973975
 30
0.0
 11
264.5572844185485
 21
84.47352918986819
 31
0.0
  0
TEXT
  5
EE8C
330
A
100
AcDbEntity
  8
0
  6
Continuous
 62
     7
370
     0
100
AcDbText
 10
309.1710181416063
 20
24.5071726990916
 30
0.0
 40
8.0
  1
Tacca applicazione Pivottante
100
AcDbText
  0
TEXT
  5
EF56
330
A
100
AcDbEntity
  8
0
  6
Continuous
 62
     7
370
     0
100
AcDbText
 10
-45.31536079248474
 20
24.5071726990916
 30
0.0
 40
8.0
  1
Tacca applicazione Standard
100
AcDbText
  0
LINE
  5
F061
330
A
100
AcDbEntity
  8
0
  6
CENTER
 62
     1
100
AcDbLine
 10
354.1620271711052
 20
-25.09268161259307
 30
0.0
 11
354.1620271711052
 21
6.41492764603926
 31
0.0
  0
LINE
  5
F064
330
A
100
AcDbEntity
  8
0
  6
Continuous
 62
     4
370
     0
100
AcDbLine
 10
300.3120271841451
 20
-0.9999999552973975
 30
0.0
 11
264.5572844185485
 21
-0.9999999552973975
 31
0.0
  0
LINE
  5
F096
330
A
100
AcDbEntity
  8
0
  6
CENTER
 62
     1
100
AcDbLine
 10
-122.1263553784776
 20
42.85000004470346
 30
0.0
 11
-122.1263553784776
 21
52.15000004470348
 31
0.0
  0
LINE
  5
F097
330
A
100
AcDbEntity
  8
0
  6
CENTER
 62
     1
100
AcDbLine
 10
-126.7763553784776
 20
47.50000004470348
 30
0.0
 11
-117.4763553784776
 21
47.50000004470348
 31
0.0
  0
LINE
  5
F098
330
A
100
AcDbEntity
  8
0
  6
CENTER
 62
     1
100
AcDbLine
 10
-95.12635537847757
 20
42.85000004470346
 30
0.0
 11
-95.12635537847757
 21
52.15000004470348
 31
0.0
  0
LINE
  5
F099
330
A
100
AcDbEntity
  8
0
  6
CENTER
 62
     1
100
AcDbLine
 10
-99.77635537847755
 20
47.50000004470348
 30
0.0
 11
-90.47635537847754
 21
47.50000004470348
 31
0.0
  0
LINE
  5
F09A
330
A
100
AcDbEntity
  8
0
  6
CENTER
 62
     1
100
AcDbLine
 10
-99.77635537847758
 20
12.50000004470348
 30
0.0
 11
-90.47635537847756
 21
12.50000004470348
 31
0.0
  0
LINE
  5
F09B
330
A
100
AcDbEntity
  8
0
  6
CENTER
 62
     1
100
AcDbLine
 10
-95.1263553784776
 20
7.850000044703464
 30
0.0
 11
-95.1263553784776
 21
17.15000004470348
 31
0.0
  0
LINE
  5
F09C
330
A
100
AcDbEntity
  8
0
  6
CENTER
 62
     1
100
AcDbLine
 10
-126.7763553784775
 20
12.50000004470348
 30
0.0
 11
-117.4763553784775
 21
12.50000004470348
 31
0.0
  0
LINE
  5
F09D
330
A
100
AcDbEntity
  8
0
  6
CENTER
 62
     1
100
AcDbLine
 10
-122.1263553784776
 20
7.850000044703478
 30
0.0
 11
-122.1263553784776
 21
17.15000004470349
 31
0.0
  0
LINE
  5
F09E
330
A
100
AcDbEntity
  8
0
  6
CENTER
 62
     1
100
AcDbLine
 10
156.9846752474589
 20
42.85000004470346
 30
0.0
 11
156.9846752474589
 21
52.15000004470348
 31
0.0
  0
LINE
  5
F09F
330
A
100
AcDbEntity
  8
0
  6
CENTER
 62
     1
100
AcDbLine
 10
152.3346752474589
 20
47.50000004470348
 30
0.0
 11
161.6346752474589
 21
47.50000004470348
 31
0.0
  0
LINE
  5
F0A0
330
A
100
AcDbEntity
  8
0
  6
CENTER
 62
     1
100
AcDbLine
 10
183.9846752474589
 20
42.85000004470346
 30
0.0
 11
183.9846752474589
 21
52.15000004470348
 31
0.0
  0
LINE
  5
F0A1
330
A
100
AcDbEntity
  8
0
  6
CENTER
 62
     1
100
AcDbLine
 10
179.3346752474589
 20
47.50000004470348
 30
0.0
 11
188.6346752474589
 21
47.50000004470348
 31
0.0
  0
LINE
  5
F0A2
330
A
100
AcDbEntity
  8
0
  6
CENTER
 62
     1
100
AcDbLine
 10
179.3346752474589
 20
12.50000004470348
 30
0.0
 11
188.6346752474589
 21
12.50000004470348
 31
0.0
  0
LINE
  5
F0A3
330
A
100
AcDbEntity
  8
0
  6
CENTER
 62
     1
100
AcDbLine
 10
183.9846752474589
 20
7.850000044703464
 30
0.0
 11
183.9846752474589
 21
17.15000004470348
 31
0.0
  0
LINE
  5
F0A4
330
A
100
AcDbEntity
  8
0
  6
CENTER
 62
     1
100
AcDbLine
 10
152.3346752474589
 20
12.50000004470348
 30
0.0
 11
161.6346752474589
 21
12.50000004470348
 31
0.0
  0
LINE
  5
F0A5
330
A
100
AcDbEntity
  8
0
  6
CENTER
 62
     1
100
AcDbLine
 10
156.9846752474589
 20
7.850000044703478
 30
0.0
 11
156.9846752474589
 21
17.15000004470349
 31
0.0
  0
LINE
  5
F0A6
330
A
100
AcDbEntity
  8
0
  6
CENTER
 62
     1
100
AcDbLine
 10
-0.3239868074655528
 20
91.91850215046614
 30
0.0
 11
-0.3239868074655528
 21
132.9585021504662
 31
0.0
  0
LINE
  5
F0A7
330
A
100
AcDbEntity
  8
0
  6
CENTER
 62
     1
100
AcDbLine
 10
-20.84398680746582
 20
112.4385021504662
 30
0.0
 11
20.19601319253421
 21
112.4385021504662
 31
0.0
  0
LINE
  5
F3F9
330
A
100
AcDbEntity
  8
0
  6
ByBlock
 62
     4
100
AcDbLine
 10
-57.32276198531908
 20
41.9999994337559
 30
0.0
 11
-57.32276198531908
 21
75.32110703198092
 31
0.0
  0
ARC
  5
F3FA
330
A
100
AcDbEntity
  8
0
  6
ByBlock
 62
     4
100
AcDbCircle
 10
86.67676783609176
 20
38.0000000447034
 30
0.0
 40
10.0
100
AcDbArc
 50
90.0
 51
145.1500954734693
  0
LINE
  5
F3FB
330
A
100
AcDbEntity
  8
0
  6
ByBlock
 62
     4
100
AcDbLine
 10
90.99235143313831
 20
47.99498380538458
 30
0.0
 11
86.62581902442486
 21
48.00000004470354
 31
0.0
  0
ARC
  5
F3FC
330
A
100
AcDbEntity
  8
0
  6
ByBlock
 62
     4
100
AcDbCircle
 10
90.67676783609178
 20
38.00000004470351
 30
0.0
 40
10.0
100
AcDbArc
 50
0.0
 51
90.0
  0
LINE
  5
F3FD
330
A
100
AcDbEntity
  8
0
  6
ByBlock
 62
     4
100
AcDbLine
 10
100.6767678360918
 20
-0.9999999552975112
 30
0.0
 11
100.6767678360918
 21
38.0000000447034
 31
0.0
  0
LINE
  5
F3FE
330
A
100
AcDbEntity
  8
0
  6
ByBlock
 62
     4
100
AcDbLine
 10
121.924808455174
 20
-0.9999999552974259
 30
0.0
 11
100.6767678360918
 21
-0.9999999552974259
 31
0.0
  0
LINE
  5
F440
330
A
100
AcDbEntity
  8
0
  6
ByBlock
 62
     0
100
AcDbLine
 10
-60.32276198531908
 20
-26.51855802953549
 30
0.0
 11
-60.32276198531908
 21
85.60471791576498
 31
0.0
  0
LINE
  5
F463
330
A
100
AcDbEntity
  8
0
  6
Continuous
 62
     4
370
     0
100
AcDbLine
 10
442.8120271841451
 20
48.00000004470351
 30
0.0
 11
446.3120271841451
 21
48.00000004470351
 31
0.0
  0
LINE
  5
F464
330
A
100
AcDbEntity
  8
0
  6
Continuous
 62
     4
370
     0
100
AcDbLine
 10
-57.32276198531908
 20
75.32110703198092
 30
0.0
 11
-36.30789688750284
 21
66.9123271154468
 31
0.0
  0
LINE
  5
F465
330
A
100
AcDbEntity
  8
0
  6
Continuous
 62
     4
370
     0
100
AcDbLine
 10
-36.30789688750284
 20
66.9123271154468
 30
0.0
 11
-16.41179172484379
 21
74.78031597720205
 31
0.0
  0
LINE
  5
F466
330
A
100
AcDbEntity
  8
0
  6
Continuous
 62
     4
370
     0
100
AcDbLine
 10
-16.41179172484379
 20
74.78031597720205
 30
0.0
 11
9.055222883359761
 21
71.8622205533454
 31
0.0
  0
LINE
  5
F467
330
A
100
AcDbEntity
  8
0
  6
Continuous
 62
     4
370
     0
100
AcDbLine
 10
9.055222883359761
 20
71.8622205533454
 30
0.0
 11
26.56379542649969
 21
77.16784859672113
 31
0.0
  0
LINE
  5
F468
330
A
100
AcDbEntity
  8
0
  6
Continuous
 62
     4
370
     0
100
AcDbLine
 10
26.56379542649969
 20
77.16784859672113
 30
0.0
 11
46.9904633934963
 21
73.18862756418932
 31
0.0
  0
LINE
  5
F469
330
A
100
AcDbEntity
  8
0
  6
Continuous
 62
     4
370
     0
100
AcDbLine
 10
46.9904633934963
 20
73.18862756418932
 30
0.0
 11
64.76431733880503
 21
80.08594402057778
 31
0.0
  0
LINE
  5
F46A
330
A
100
AcDbEntity
  8
0
  6
Continuous
 62
     4
370
     0
100
AcDbLine
 10
64.76431733880503
 20
80.08594402057778
 30
0.0
 11
93.67999017520279
 21
70.8915481479786
 31
0.0
  0
LINE
  5
F46B
330
A
100
AcDbEntity
  8
0
  6
Continuous
 62
     4
370
     0
100
AcDbLine
 10
93.67999017520279
 20
70.8915481479786
 30
0.0
 11
120.2081303920815
 21
78.8499902130422
 31
0.0
  0
LINE
  5
F46C
330
A
100
AcDbEntity
  8
0
  6
Continuous
 62
     4
370
     0
100
AcDbLine
 10
120.2081303920815
 20
78.8499902130422
 30
0.0
 11
131.3499492831705
 21
61.60669907207105
 31
0.0
  0
LINE
  5
F46D
330
A
100
AcDbEntity
  8
0
  6
Continuous
 62
     4
370
     0
100
AcDbLine
 10
131.3499492831705
 20
61.60669907207105
 30
0.0
 11
124.4526328267821
 21
39.58834269206173
 31
0.0
  0
LINE
  5
F46E
330
A
100
AcDbEntity
  8
0
  6
Continuous
 62
     4
370
     0
100
AcDbLine
 10
124.4526328267821
 20
39.58834269206173
 30
0.0
 11
133.4722005005208
 21
18.10054911638998
 31
0.0
  0
LINE
  5
F46F
330
A
100
AcDbEntity
  8
0
  6
Continuous
 62
     4
370
     0
100
AcDbLine
 10
133.4722005005208
 20
18.10054911638998
 30
0.0
 11
128.4318538593139
 21
5.632323214457003
 31
0.0
  0
LINE
  5
F470
330
A
100
AcDbEntity
  8
0
  6
Continuous
 62
     4
370
     0
100
AcDbLine
 10
128.4318538593139
 20
5.632323214457003
 30
0.0
 11
121.924808455174
 21
-0.9999999552974259
 31
0.0
  0
LINE
  5
F48D
330
A
100
AcDbEntity
  8
0
  6
Continuous
 62
     4
370
     0
100
AcDbLine
 10
465.2177262712003
 20
75.8107937899013
 30
0.0
 11
491.7458664880791
 21
83.7692358549649
 31
0.0
  0
LINE
  5
F48E
330
A
100
AcDbEntity
  8
0
  6
Continuous
 62
     4
370
     0
100
AcDbLine
 10
491.7458664880791
 20
83.7692358549649
 30
0.0
 11
502.887685379168
 21
61.60669907207108
 31
0.0
  0
LINE
  5
F48F
330
A
100
AcDbEntity
  8
0
  6
Continuous
 62
     4
370
     0
100
AcDbLine
 10
502.887685379168
 20
61.60669907207108
 30
0.0
 11
495.9903689227796
 21
39.58834269206176
 31
0.0
  0
LINE
  5
F490
330
A
100
AcDbEntity
  8
0
  6
Continuous
 62
     4
370
     0
100
AcDbLine
 10
495.9903689227796
 20
39.58834269206176
 30
0.0
 11
505.0099365965183
 21
18.10054911639001
 31
0.0
  0
LINE
  5
F491
330
A
100
AcDbEntity
  8
0
  6
Continuous
 62
     4
370
     0
100
AcDbLine
 10
505.0099365965183
 20
18.10054911639001
 30
0.0
 11
499.9695899553113
 21
5.632323214457031
 31
0.0
  0
LINE
  5
F492
330
A
100
AcDbEntity
  8
0
  6
Continuous
 62
     4
370
     0
100
AcDbLine
 10
499.9695899553113
 20
5.632323214457031
 30
0.0
 11
493.4625445511715
 21
-0.9999999552973975
 31
0.0
  0
LINE
  5
F493
330
A
100
AcDbEntity
  8
0
  6
Continuous
 62
     4
370
     0
100
AcDbLine
 10
314.2149741106784
 20
76.88214764901774
 30
0.0
 11
335.2298392084947
 21
71.8315727573695
 31
0.0
  0
LINE
  5
F494
330
A
100
AcDbEntity
  8
0
  6
Continuous
 62
     4
370
     0
100
AcDbLine
 10
335.2298392084947
 20
71.8315727573695
 30
0.0
 11
355.1259443711537
 21
76.34135659423887
 31
0.0
  0
LINE
  5
F495
330
A
100
AcDbEntity
  8
0
  6
Continuous
 62
     4
370
     0
100
AcDbLine
 10
355.1259443711537
 20
76.34135659423887
 30
0.0
 11
380.5929589793573
 21
73.42326117038222
 31
0.0
  0
LINE
  5
F496
330
A
100
AcDbEntity
  8
0
  6
Continuous
 62
     4
370
     0
100
AcDbLine
 10
380.5929589793573
 20
73.42326117038222
 30
0.0
 11
398.1015315224972
 21
78.72888921375795
 31
0.0
  0
LINE
  5
F497
330
A
100
AcDbEntity
  8
0
  6
Continuous
 62
     4
370
     0
100
AcDbLine
 10
398.1015315224972
 20
78.72888921375795
 30
0.0
 11
418.5281994894938
 21
74.74966818122614
 31
0.0
  0
LINE
  5
F498
330
A
100
AcDbEntity
  8
0
  6
Continuous
 62
     4
370
     0
100
AcDbLine
 10
418.5281994894938
 20
74.74966818122614
 30
0.0
 11
436.3020534348025
 21
81.64698463761461
 31
0.0
  0
LINE
  5
F499
330
A
100
AcDbEntity
  8
0
  6
Continuous
 62
     4
370
     0
100
AcDbLine
 10
436.3020534348025
 20
81.64698463761461
 30
0.0
 11
465.2177262712003
 21
75.8107937899013
 31
0.0
  0
LINE
  5
F49C
330
A
100
AcDbEntity
  8
0
  6
Continuous
 62
     4
370
     0
100
AcDbLine
 10
314.2149741106784
 20
76.88214764901774
 30
0.0
 11
287.5104502247352
 21
71.5089286196126
 31
0.0
  0
LINE
  5
F49D
330
A
100
AcDbEntity
  8
0
  6
Continuous
 62
     4
370
     0
100
AcDbLine
 10
287.5104502247352
 20
71.5089286196126
 30
0.0
 11
264.5572844185485
 21
84.47352918986819
 31
0.0
  0
ARC
  5
F53C
330
A
100
AcDbEntity
  8
0
  6
ByBlock
 62
     4
100
AcDbCircle
 10
75.18764253568312
 20
46.00000003417279
 30
0.0
 40
4.0
100
AcDbArc
 50
270.0000002596125
 51
325.1500954734693
  0
ARC
  5
F55F
330
A
100
AcDbEntity
  8
0
  6
Continuous
 62
     4
370
     0
100
AcDbCircle
 10
431.3229018910687
 20
46.00000004470301
 30
0.0
 40
4.0
100
AcDbArc
 50
269.9999999999998
 51
325.1500954209559
  0
ARC
  5
F560
330
A
100
AcDbEntity
  8
0
  6
Continuous
 62
     4
370
     0
100
AcDbCircle
 10
317.8011524772213
 20
50.00000004470321
 30
0.0
 40
8.0
100
AcDbArc
 50
214.8499045790462
 51
269.9999999999998
  0
ENDSEC
  0
SECTION
  2
OBJECTS
  0
DICTIONARY
  5
19
330
0
100
AcDbDictionary
281
     1
  3
ACAD_GROUP
350
1A
  3
ACAD_IMAGE_VARS
350
BFFD
  3
ACAD_LAYOUT
350
1E
  3
ACAD_MLINESTYLE
350
1B
  3
ACAD_PLOTSETTINGS
350
22
  3
ACAD_PLOTSTYLENAME
350
1F
  3
ACAD_SCALELIST
350
582C
  3
ACAD_WIPEOUT_VARS
350
23
  3
AcDbVariableDictionary
350
AB91
  3
APPDATA
350
BFFC
  3
ASE_INDEX_DICTIONARY
350
BB66
  3
DWGPROPS
350
F58A
  0
DICTIONARY
  5
5858
330
14
100
AcDbDictionary
280
     1
281
     1
  3
ADSK_XREC_LAYER_RECONCILED
360
5859
  0
DICTIONARY
  5
5864
330
A
100
AcDbDictionary
280
     1
281
     1
  3
ACAD_SORTENTS
360
5865
  0
DICTIONARY
  5
1A
102
{ACAD_REACTORS
330
19
102
}
330
19
100
AcDbDictionary
281
     1
  0
RASTERVARIABLES
  5
BFFD
102
{ACAD_REACTORS
330
19
102
}
330
19
100
AcDbRasterVariables
 90
        0
 70
     1
 71
     1
 72
     0
  0
DICTIONARY
  5
1E
102
{ACAD_REACTORS
330
19
102
}
330
19
100
AcDbDictionary
281
     1
  3
Layout1
350
21
  3
Model
350
20
  0
DICTIONARY
  5
1B
102
{ACAD_REACTORS
330
19
102
}
330
19
100
AcDbDictionary
281
     1
  3
Standard
350
1C
  0
DICTIONARY
  5
22
102
{ACAD_REACTORS
330
19
102
}
330
19
100
AcDbDictionary
281
     1
  0
ACDBDICTIONARYWDFLT
  5
1F
102
{ACAD_REACTORS
330
19
102
}
330
19
100
AcDbDictionary
281
     1
  3
Normal
350
1D
100
AcDbDictionaryWithDefault
340
1D
  0
DICTIONARY
  5
582C
102
{ACAD_REACTORS
330
19
102
}
330
19
100
AcDbDictionary
281
     1
  3
A0
350
582D
  3
A1
350
582E
  3
A2
350
582F
  3
A3
350
5830
  3
A4
350
5831
  3
A5
350
5832
  3
A6
350
5833
  3
A7
350
5834
  3
A8
350
5835
  3
A9
350
5836
  3
B0
350
5837
  3
B1
350
5838
  3
B2
350
5839
  3
B3
350
583A
  3
B4
350
583B
  3
B5
350
583C
  3
B6
350
583D
  3
B7
350
583E
  3
B8
350
583F
  3
B9
350
5840
  3
C0
350
5841
  3
C1
350
5842
  3
C2
350
5843
  3
C3
350
5844
  3
C4
350
5845
  3
C5
350
5846
  3
C6
350
5847
  3
C7
350
5848
  3
C8
350
5849
  3
C9
350
584A
  3
D0
350
584B
  3
D1
350
584C
  3
D2
350
584D
  0
WIPEOUTVARIABLES
  5
23
330
19
100
AcDbWipeoutVariables
 70
     1
  0
DICTIONARY
  5
AB91
102
{ACAD_REACTORS
330
19
102
}
330
19
100
AcDbDictionary
281
     1
  3
DIMASSOC
350
B616
  3
INDEXCTL
350
B615
  3
SORTENTS
350
B614
  0
DICTIONARY
  5
BFFC
102
{ACAD_REACTORS
330
19
102
}
330
19
100
AcDbDictionary
281
     1
  0
DICTIONARY
  5
BB66
102
{ACAD_REACTORS
330
19
102
}
330
19
100
AcDbDictionary
281
     1
  3
ASEBlockHierarchyIndexRecord
350
BB67
1001
DCO15
1040
1685073386.331
  0
XRECORD
  5
F58A
102
{ACAD_REACTORS
330
19
102
}
330
19
100
AcDbXrecord
280
     1
  1
DWGPROPS COOKIE
  2

  3

  4

  6

  7

  8
emilio
  9

300
=
301
=
302
=
303
=
304
=
305
=
306
=
307
=
308
=
309
=
 40
0.0
 41
2455301.719027778
 42
2456832.310986806
  1

 90
        0
  0
XRECORD
  5
5859
102
{ACAD_REACTORS
330
5858
102
}
330
5858
100
AcDbXrecord
280
     1
290
     1
  0
SORTENTSTABLE
  5
5865
102
{ACAD_REACTORS
330
5864
102
}
330
5864
100
AcDbSortentsTable
330
A
331
0
  5
BAEE
  0
LAYOUT
  5
21
102
{ACAD_REACTORS
330
1E
102
}
330
1E
100
AcDbPlotSettings
  1

  2

  4

  6

 40
0.0
 41
0.0
 42
0.0
 43
0.0
 44
0.0
 45
0.0
 46
0.0
 47
0.0
 48
0.0
 49
0.0
140
0.0
141
0.0
142
1.0
143
1.0
 70
     0
 72
     0
 73
     0
 74
     0
  7

 75
     0
147
1.0
148
0.0
149
0.0
100
AcDbLayout
  1
Layout1
 70
     0
 71
     1
 10
0.0
 20
0.0
 11
12.0
 21
9.0
 12
0.0
 22
0.0
 32
0.0
 14
1.000000000000000E+20
 24
1.000000000000000E+20
 34
1.000000000000000E+20
 15
-1.000000000000000E+20
 25
-1.000000000000000E+20
 35
-1.000000000000000E+20
146
0.0
 13
0.0
 23
0.0
 33
0.0
 16
1.0
 26
0.0
 36
0.0
 17
0.0
 27
1.0
 37
0.0
 76
     0
330
B
  0
LAYOUT
  5
20
102
{ACAD_REACTORS
330
1E
102
}
330
1E
100
AcDbPlotSettings
  1

  2

  4

  6

 40
0.0
 41
0.0
 42
0.0
 43
0.0
 44
0.0
 45
0.0
 46
0.0
 47
0.0
 48
0.0
 49
0.0
140
0.0
141
0.0
142
1.0
143
1.0
 70
  1024
 72
     0
 73
     0
 74
     0
  7

 75
     0
147
1.0
148
0.0
149
0.0
100
AcDbLayout
  1
Model
 70
     0
 71
     0
 10
0.0
 20
0.0
 11
0.0
 21
0.0
 12
0.0
 22
0.0
 32
0.0
 14
-165.6772139012987
 24
-194.9912073110455
 34
0.0
 15
505.0099365965183
 25
132.9585021504662
 35
0.0
146
0.0
 13
0.0
 23
0.0
 33
0.0
 16
0.0
 26
0.0
 36
0.0
 17
0.0
 27
0.0
 37
0.0
 76
     0
330
A
331
15
  0
MLINESTYLE
  5
1C
102
{ACAD_REACTORS
330
1B
102
}
330
1B
100
AcDbMlineStyle
  2
STANDARD
 70
     0
  3

 62
     0
 51
90.0
 52
90.0
 71
     2
 49
0.5
 62
   256
  6
BYLAYER
 49
-0.5
 62
   256
  6
BYLAYER
  0
ACDBPLACEHOLDER
  5
1D
102
{ACAD_REACTORS
330
1F
102
}
330
1F
  0
SCALE
  5
582D
102
{ACAD_REACTORS
330
582C
102
}
330
582C
100
AcDbScale
 70
     0
300
1:1
140
1.0
141
1.0
290
     1
  0
SCALE
  5
582E
102
{ACAD_REACTORS
330
582C
102
}
330
582C
100
AcDbScale
 70
     0
300
1:2
140
1.0
141
2.0
290
     0
  0
SCALE
  5
582F
102
{ACAD_REACTORS
330
582C
102
}
330
582C
100
AcDbScale
 70
     0
300
1:4
140
1.0
141
4.0
290
     0
  0
SCALE
  5
5830
102
{ACAD_REACTORS
330
582C
102
}
330
582C
100
AcDbScale
 70
     0
300
1:5
140
1.0
141
5.0
290
     0
  0
SCALE
  5
5831
102
{ACAD_REACTORS
330
582C
102
}
330
582C
100
AcDbScale
 70
     0
300
1:8
140
1.0
141
8.0
290
     0
  0
SCALE
  5
5832
102
{ACAD_REACTORS
330
582C
102
}
330
582C
100
AcDbScale
 70
     0
300
1:10
140
1.0
141
10.0
290
     0
  0
SCALE
  5
5833
102
{ACAD_REACTORS
330
582C
102
}
330
582C
100
AcDbScale
 70
     0
300
1:16
140
1.0
141
16.0
290
     0
  0
SCALE
  5
5834
102
{ACAD_REACTORS
330
582C
102
}
330
582C
100
AcDbScale
 70
     0
300
1:20
140
1.0
141
20.0
290
     0
  0
SCALE
  5
5835
102
{ACAD_REACTORS
330
582C
102
}
330
582C
100
AcDbScale
 70
     0
300
1:30
140
1.0
141
30.0
290
     0
  0
SCALE
  5
5836
102
{ACAD_REACTORS
330
582C
102
}
330
582C
100
AcDbScale
 70
     0
300
1:40
140
1.0
141
40.0
290
     0
  0
SCALE
  5
5837
102
{ACAD_REACTORS
330
582C
102
}
330
582C
100
AcDbScale
 70
     0
300
1:50
140
1.0
141
50.0
290
     0
  0
SCALE
  5
5838
102
{ACAD_REACTORS
330
582C
102
}
330
582C
100
AcDbScale
 70
     0
300
1:100
140
1.0
141
100.0
290
     0
  0
SCALE
  5
5839
102
{ACAD_REACTORS
330
582C
102
}
330
582C
100
AcDbScale
 70
     0
300
2:1
140
2.0
141
1.0
290
     0
  0
SCALE
  5
583A
102
{ACAD_REACTORS
330
582C
102
}
330
582C
100
AcDbScale
 70
     0
300
4:1
140
4.0
141
1.0
290
     0
  0
SCALE
  5
583B
102
{ACAD_REACTORS
330
582C
102
}
330
582C
100
AcDbScale
 70
     0
300
8:1
140
8.0
141
1.0
290
     0
  0
SCALE
  5
583C
102
{ACAD_REACTORS
330
582C
102
}
330
582C
100
AcDbScale
 70
     0
300
10:1
140
10.0
141
1.0
290
     0
  0
SCALE
  5
583D
102
{ACAD_REACTORS
330
582C
102
}
330
582C
100
AcDbScale
 70
     0
300
100:1
140
100.0
141
1.0
290
     0
  0
SCALE
  5
583E
102
{ACAD_REACTORS
330
582C
102
}
330
582C
100
AcDbScale
 70
     0
300
1/128" = 1'-0"
140
0.0078125
141
12.0
290
     0
  0
SCALE
  5
583F
102
{ACAD_REACTORS
330
582C
102
}
330
582C
100
AcDbScale
 70
     0
300
1/64" = 1'-0"
140
0.015625
141
12.0
290
     0
  0
SCALE
  5
5840
102
{ACAD_REACTORS
330
582C
102
}
330
582C
100
AcDbScale
 70
     0
300
1/32" = 1'-0"
140
0.03125
141
12.0
290
     0
  0
SCALE
  5
5841
102
{ACAD_REACTORS
330
582C
102
}
330
582C
100
AcDbScale
 70
     0
300
1/16" = 1'-0"
140
0.0625
141
12.0
290
     0
  0
SCALE
  5
5842
102
{ACAD_REACTORS
330
582C
102
}
330
582C
100
AcDbScale
 70
     0
300
3/32" = 1'-0"
140
0.09375
141
12.0
290
     0
  0
SCALE
  5
5843
102
{ACAD_REACTORS
330
582C
102
}
330
582C
100
AcDbScale
 70
     0
300
1/8" = 1'-0"
140
0.125
141
12.0
290
     0
  0
SCALE
  5
5844
102
{ACAD_REACTORS
330
582C
102
}
330
582C
100
AcDbScale
 70
     0
300
3/16" = 1'-0"
140
0.1875
141
12.0
290
     0
  0
SCALE
  5
5845
102
{ACAD_REACTORS
330
582C
102
}
330
582C
100
AcDbScale
 70
     0
300
1/4" = 1'-0"
140
0.25
141
12.0
290
     0
  0
SCALE
  5
5846
102
{ACAD_REACTORS
330
582C
102
}
330
582C
100
AcDbScale
 70
     0
300
3/8" = 1'-0"
140
0.375
141
12.0
290
     0
  0
SCALE
  5
5847
102
{ACAD_REACTORS
330
582C
102
}
330
582C
100
AcDbScale
 70
     0
300
1/2" = 1'-0"
140
0.5
141
12.0
290
     0
  0
SCALE
  5
5848
102
{ACAD_REACTORS
330
582C
102
}
330
582C
100
AcDbScale
 70
     0
300
3/4" = 1'-0"
140
0.75
141
12.0
290
     0
  0
SCALE
  5
5849
102
{ACAD_REACTORS
330
582C
102
}
330
582C
100
AcDbScale
 70
     0
300
1" = 1'-0"
140
1.0
141
12.0
290
     0
  0
SCALE
  5
584A
102
{ACAD_REACTORS
330
582C
102
}
330
582C
100
AcDbScale
 70
     0
300
1-1/2" = 1'-0"
140
1.5
141
12.0
290
     0
  0
SCALE
  5
584B
102
{ACAD_REACTORS
330
582C
102
}
330
582C
100
AcDbScale
 70
     0
300
3" = 1'-0"
140
3.0
141
12.0
290
     0
  0
SCALE
  5
584C
102
{ACAD_REACTORS
330
582C
102
}
330
582C
100
AcDbScale
 70
     0
300
6" = 1'-0"
140
6.0
141
12.0
290
     0
  0
SCALE
  5
584D
102
{ACAD_REACTORS
330
582C
102
}
330
582C
100
AcDbScale
 70
     0
300
1'-0" = 1'-0"
140
12.0
141
12.0
290
     0
  0
DICTIONARYVAR
  5
B616
102
{ACAD_REACTORS
330
AB91
102
}
330
AB91
100
DictionaryVariables
280
     0
  1
1
  0
DICTIONARYVAR
  5
B615
102
{ACAD_REACTORS
330
AB91
102
}
330
AB91
100
DictionaryVariables
280
     0
  1
0
  0
DICTIONARYVAR
  5
B614
102
{ACAD_REACTORS
330
AB91
102
}
330
AB91
100
DictionaryVariables
280
     0
  1
127
  0
XRECORD
  5
BB67
102
{ACAD_REACTORS
330
BB66
102
}
330
BB66
100
AcDbXrecord
280
     1
  0
ENDSEC
  0
EOF
