  0
SECTION
  2
HEADER
  9
$ACADVER
  1
AC1015
  9
$ACADMAINTVER
 70
    20
  9
$DWGCODEPAGE
  3
ANSI_1252
  9
$INSBASE
 10
0.0
 20
0.0
 30
0.0
  9
$EXTMIN
 10
-111.9258526846133
 20
-161.2962309574314
 30
-0.0000000000000022
  9
$EXTMAX
 10
103.770716814884
 20
80.38572140868746
 30
0.0000000000000436
  9
$LIMMIN
 10
-20.0
 20
-575.8499999999997
  9
$LIMMAX
 10
1785.35
 20
579.8499999999997
  9
$ORTHOMODE
 70
     0
  9
$REGENMODE
 70
     1
  9
$FILLMODE
 70
     1
  9
$QTEXTMODE
 70
     0
  9
$MIRRTEXT
 70
     1
  9
$LTSCALE
 40
10.0
  9
$ATTMODE
 70
     1
  9
$TEXTSIZE
 40
0.0
  9
$TRACEWID
 40
0.05
  9
$TEXTSTYLE
  7
Standard
  9
$CLAYER
  8
0
  9
$CELTYPE
  6
Continuous
  9
$CECOLOR
 62
   256
  9
$CELTSCALE
 40
1.0
  9
$DISPSILH
 70
     0
  9
$DIMSCALE
 40
1.0
  9
$DIMASZ
 40
1.25
  9
$DIMEXO
 40
0.0
  9
$DIMDLI
 40
0.38
  9
$DIMRND
 40
0.0
  9
$DIMDLE
 40
0.0
  9
$DIMEXE
 40
0.75
  9
$DIMTP
 40
0.0
  9
$DIMTM
 40
0.0
  9
$DIMTXT
 40
2.5
  9
$DIMCEN
 40
0.09
  9
$DIMTSZ
 40
0.0
  9
$DIMTOL
 70
     0
  9
$DIMLIM
 70
     0
  9
$DIMTIH
 70
     0
  9
$DIMTOH
 70
     0
  9
$DIMSE1
 70
     0
  9
$DIMSE2
 70
     0
  9
$DIMTAD
 70
     1
  9
$DIMZIN
 70
     0
  9
$DIMBLK
  1

  9
$DIMASO
 70
     1
  9
$DIMSHO
 70
     1
  9
$DIMPOST
  1

  9
$DIMAPOST
  1

  9
$DIMALT
 70
     0
  9
$DIMALTD
 70
     2
  9
$DIMALTF
 40
25.4
  9
$DIMLFAC
 40
1.0
  9
$DIMTOFL
 70
     0
  9
$DIMTVP
 40
0.0
  9
$DIMTIX
 70
     0
  9
$DIMSOXD
 70
     0
  9
$DIMSAH
 70
     0
  9
$DIMBLK1
  1

  9
$DIMBLK2
  1

  9
$DIMSTYLE
  2
Standard
  9
$DIMCLRD
 70
     7
  9
$DIMCLRE
 70
     7
  9
$DIMCLRT
 70
     7
  9
$DIMTFAC
 40
0.8
  9
$DIMGAP
 40
1.25
  9
$DIMJUST
 70
     0
  9
$DIMSD1
 70
     0
  9
$DIMSD2
 70
     0
  9
$DIMTOLJ
 70
     1
  9
$DIMTZIN
 70
     0
  9
$DIMALTZ
 70
     0
  9
$DIMALTTZ
 70
     0
  9
$DIMUPT
 70
     0
  9
$DIMDEC
 70
     2
  9
$DIMTDEC
 70
     4
  9
$DIMALTU
 70
     2
  9
$DIMALTTD
 70
     2
  9
$DIMTXSTY
  7
Standard
  9
$DIMAUNIT
 70
     0
  9
$DIMADEC
 70
     0
  9
$DIMALTRND
 40
0.0
  9
$DIMAZIN
 70
     0
  9
$DIMDSEP
 70
     0
  9
$DIMATFIT
 70
     3
  9
$DIMFRAC
 70
     0
  9
$DIMLDRBLK
  1

  9
$DIMLUNIT
 70
     2
  9
$DIMLWD
 70
     0
  9
$DIMLWE
 70
     0
  9
$DIMTMOVE
 70
     0
  9
$LUNITS
 70
     2
  9
$LUPREC
 70
     4
  9
$SKETCHINC
 40
0.1
  9
$FILLETRAD
 40
0.0
  9
$AUNITS
 70
     0
  9
$AUPREC
 70
     0
  9
$MENU
  1
acad
  9
$ELEVATION
 40
0.0
  9
$PELEVATION
 40
0.0
  9
$THICKNESS
 40
0.0
  9
$LIMCHECK
 70
     0
  9
$CHAMFERA
 40
0.0
  9
$CHAMFERB
 40
0.0
  9
$CHAMFERC
 40
0.0
  9
$CHAMFERD
 40
0.0
  9
$SKPOLY
 70
     0
  9
$TDCREATE
 40
2455301.802361111
  9
$TDUCREATE
 40
2455301.719027778
  9
$TDUPDATE
 40
2455306.360225058
  9
$TDUUPDATE
 40
2455306.276891725
  9
$TDINDWG
 40
0.1652496296
  9
$TDUSRTIMER
 40
0.1652492708
  9
$USRTIMER
 70
     1
  9
$ANGBASE
 50
0.0
  9
$ANGDIR
 70
     0
  9
$PDMODE
 70
     0
  9
$PDSIZE
 40
0.0
  9
$PLINEWID
 40
0.0
  9
$SPLFRAME
 70
     0
  9
$SPLINETYPE
 70
     6
  9
$SPLINESEGS
 70
     8
  9
$HANDSEED
  5
B807
  9
$SURFTAB1
 70
     6
  9
$SURFTAB2
 70
     6
  9
$SURFTYPE
 70
     6
  9
$SURFU
 70
     6
  9
$SURFV
 70
     6
  9
$UCSBASE
  2

  9
$UCSNAME
  2

  9
$UCSORG
 10
0.0
 20
0.0
 30
0.0
  9
$UCSXDIR
 10
1.0
 20
0.0
 30
0.0
  9
$UCSYDIR
 10
0.0
 20
1.0
 30
0.0
  9
$UCSORTHOREF
  2

  9
$UCSORTHOVIEW
 70
     0
  9
$UCSORGTOP
 10
0.0
 20
0.0
 30
0.0
  9
$UCSORGBOTTOM
 10
0.0
 20
0.0
 30
0.0
  9
$UCSORGLEFT
 10
0.0
 20
0.0
 30
0.0
  9
$UCSORGRIGHT
 10
0.0
 20
0.0
 30
0.0
  9
$UCSORGFRONT
 10
0.0
 20
0.0
 30
0.0
  9
$UCSORGBACK
 10
0.0
 20
0.0
 30
0.0
  9
$PUCSBASE
  2

  9
$PUCSNAME
  2

  9
$PUCSORG
 10
0.0
 20
0.0
 30
0.0
  9
$PUCSXDIR
 10
1.0
 20
0.0
 30
0.0
  9
$PUCSYDIR
 10
0.0
 20
1.0
 30
0.0
  9
$PUCSORTHOREF
  2

  9
$PUCSORTHOVIEW
 70
     0
  9
$PUCSORGTOP
 10
0.0
 20
0.0
 30
0.0
  9
$PUCSORGBOTTOM
 10
0.0
 20
0.0
 30
0.0
  9
$PUCSORGLEFT
 10
0.0
 20
0.0
 30
0.0
  9
$PUCSORGRIGHT
 10
0.0
 20
0.0
 30
0.0
  9
$PUCSORGFRONT
 10
0.0
 20
0.0
 30
0.0
  9
$PUCSORGBACK
 10
0.0
 20
0.0
 30
0.0
  9
$USERI1
 70
     0
  9
$USERI2
 70
     0
  9
$USERI3
 70
     0
  9
$USERI4
 70
     0
  9
$USERI5
 70
     0
  9
$USERR1
 40
0.0
  9
$USERR2
 40
0.0
  9
$USERR3
 40
0.0
  9
$USERR4
 40
0.0
  9
$USERR5
 40
0.0
  9
$WORLDVIEW
 70
     1
  9
$SHADEDGE
 70
     3
  9
$SHADEDIF
 70
    70
  9
$TILEMODE
 70
     1
  9
$MAXACTVP
 70
    16
  9
$PINSBASE
 10
0.0
 20
0.0
 30
0.0
  9
$PLIMCHECK
 70
     0
  9
$PEXTMIN
 10
1.000000000000000E+20
 20
1.000000000000000E+20
 30
1.000000000000000E+20
  9
$PEXTMAX
 10
-1.000000000000000E+20
 20
-1.000000000000000E+20
 30
-1.000000000000000E+20
  9
$PLIMMIN
 10
0.0
 20
0.0
  9
$PLIMMAX
 10
12.0
 20
9.0
  9
$UNITMODE
 70
     0
  9
$VISRETAIN
 70
     0
  9
$PLINEGEN
 70
     1
  9
$PSLTSCALE
 70
     0
  9
$TREEDEPTH
 70
  3020
  9
$CMLSTYLE
  2
Standard
  9
$CMLJUST
 70
     0
  9
$CMLSCALE
 40
1.0
  9
$PROXYGRAPHICS
 70
     0
  9
$MEASUREMENT
 70
     1
  9
$CELWEIGHT
370
     0
  9
$ENDCAPS
280
     0
  9
$JOINSTYLE
280
     0
  9
$LWDISPLAY
290
     0
  9
$INSUNITS
 70
     0
  9
$HYPERLINKBASE
  1

  9
$STYLESHEET
  1

  9
$XEDIT
290
     1
  9
$CEPSNTYPE
380
     0
  9
$PSTYLEMODE
290
     1
  9
$FINGERPRINTGUID
  2

  9
$VERSIONGUID
  2
{BDFD4699-F3CA-4A56-B75E-066478E9A842}
  9
$EXTNAMES
290
     1
  9
$PSVPSCALE
 40
0.0
  9
$OLESTARTUP
290
     0
  0
ENDSEC
  0
SECTION
  2
CLASSES
  0
CLASS
  1
IMAGE
  2
AcDbRasterImage
  3
ISM
 90
    34943
280
     0
281
     1
  0
CLASS
  1
DICTIONARYVAR
  2
AcDbDictionaryVar
  3
ObjectDBX Classes
 90
        0
280
     0
281
     0
  0
CLASS
  1
RASTERVARIABLES
  2
AcDbRasterVariables
  3
ISM
 90
    32768
280
     0
281
     0
  0
CLASS
  1
IMAGEDEF
  2
AcDbRasterImageDef
  3
ISM
 90
    32768
280
     0
281
     0
  0
CLASS
  1
IMAGEDEF_REACTOR
  2
AcDbRasterImageDefReactor
  3
ISM
 90
    32769
280
     0
281
     0
  0
CLASS
  1
IDBUFFER
  2
AcDbIdBuffer
  3
ObjectDBX Classes
 90
    32768
280
     0
281
     0
  0
CLASS
  1
SPATIAL_FILTER
  2
AcDbSpatialFilter
  3
ObjectDBX Classes
 90
    32768
280
     0
281
     0
  0
CLASS
  1
SORTENTSTABLE
  2
AcDbSortentsTable
  3
ObjectDBX Classes
 90
        0
280
     0
281
     0
  0
CLASS
  1
LAYER_INDEX
  2
AcDbLayerIndex
  3
ObjectDBX Classes
 90
    32768
280
     0
281
     0
  0
CLASS
  1
SPATIAL_INDEX
  2
AcDbSpatialIndex
  3
ObjectDBX Classes
 90
    32768
280
     0
281
     0
  0
CLASS
  1
OBJECT_PTR
  2
CAseDLPNTableRecord
  3
ASE-LPNTableRecord
 90
    32769
280
     0
281
     0
  0
CLASS
  1
LAYOUT
  2
AcDbLayout
  3
ObjectDBX Classes
 90
        0
280
     0
281
     0
  0
CLASS
  1
PLOTSETTINGS
  2
AcDbPlotSettings
  3
ObjectDBX Classes
 90
    32768
280
     0
281
     0
  0
CLASS
  1
ACDBDICTIONARYWDFLT
  2
AcDbDictionaryWithDefault
  3
ObjectDBX Classes
 90
        0
280
     0
281
     0
  0
CLASS
  1
ACDBPLACEHOLDER
  2
AcDbPlaceHolder
  3
ObjectDBX Classes
 90
        0
280
     0
281
     0
  0
CLASS
  1
VBA_PROJECT
  2
AcDbVbaProject
  3
acad
 90
    32768
280
     0
281
     0
  0
CLASS
  1
WIPEOUT
  2
AcDbWipeout
  3
"WipeOut|Product Desc: Object Enabler for WipeOut entity                        |Company: Autodesk, Inc.                        |WEB Address: www.autodesk.com"
 90
    34943
280
     0
281
     1
  0
CLASS
  1
WIPEOUTVARIABLES
  2
AcDbWipeoutVariables
  3
"WipeOut|Product Desc:     WipeOut Dbx Application|Company:          Autodesk, Inc.|WEB Address:      www.autodesk.com"
 90
        0
280
     0
281
     0
  0
CLASS
  1
RTEXT
  2
RText
  3
RText|AutoCAD Express Tool|expresstools@autodesk.com
 90
    35839
280
     0
281
     1
  0
CLASS
  1
ARCALIGNEDTEXT
  2
AcDbArcAlignedText
  3
ATEXT|AutoCAD Express Tool|expresstools@autodesk.com
 90
    32768
280
     0
281
     1
  0
CLASS
  1
MATERIAL
  2
AcDbMaterial
  3
ObjectDBX Classes
 90
     1153
280
     0
281
     0
  0
CLASS
  1
VISUALSTYLE
  2
AcDbVisualStyle
  3
ObjectDBX Classes
 90
     4095
280
     0
281
     0
  0
CLASS
  1
TABLESTYLE
  2
AcDbTableStyle
  3
ObjectDBX Classes
 90
     4095
280
     0
281
     0
  0
CLASS
  1
SCALE
  2
AcDbScale
  3
ObjectDBX Classes
 90
     1153
280
     0
281
     0
  0
CLASS
  1
MLEADERSTYLE
  2
AcDbMLeaderStyle
  3
ACDB_MLEADERSTYLE_CLASS
 90
     4095
280
     0
281
     0
  0
CLASS
  1
CELLSTYLEMAP
  2
AcDbCellStyleMap
  3
ObjectDBX Classes
 90
     1152
280
     0
281
     0
  0
ENDSEC
  0
SECTION
  2
TABLES
  0
TABLE
  2
VPORT
  5
7
330
0
100
AcDbSymbolTable
 70
     1
  0
VPORT
  5
15
330
7
100
AcDbSymbolTableRecord
100
AcDbViewportTableRecord
  2
*ACTIVE
 70
     0
 10
0.0
 20
0.0
 11
1.0
 21
1.0
 12
-3.476928501447247
 22
-39.18699494743569
 13
0.0
 23
0.0
 14
1.0
 24
1.0
 15
0.0
 25
0.0
 16
0.0
 26
0.0
 36
1.0
 17
0.0
 27
0.0
 37
0.0
 40
273.4419462694232
 41
1.611330698287219
 42
50.0
 43
0.0
 44
0.0
 50
0.0
 51
0.0
 71
     0
 72
   100
 73
     1
 74
     1
 75
     0
 76
     0
 77
     0
 78
     0
281
     0
 65
     0
110
0.0
120
0.0
130
0.0
111
1.0
121
0.0
131
0.0
112
0.0
122
1.0
132
0.0
 79
     0
146
0.0
  0
ENDTAB
  0
TABLE
  2
LTYPE
  5
4
330
0
100
AcDbSymbolTable
 70
     3
  0
LTYPE
  5
11
330
4
100
AcDbSymbolTableRecord
100
AcDbLinetypeTableRecord
  2
ByBlock
 70
     0
  3

 72
    65
 73
     0
 40
0.0
  0
LTYPE
  5
12
330
4
100
AcDbSymbolTableRecord
100
AcDbLinetypeTableRecord
  2
ByLayer
 70
     0
  3

 72
    65
 73
     0
 40
0.0
  0
LTYPE
  5
13
330
4
100
AcDbSymbolTableRecord
100
AcDbLinetypeTableRecord
  2
Continuous
 70
     0
  3
Solid line
 72
    65
 73
     0
 40
0.0
  0
LTYPE
  5
108
330
4
100
AcDbSymbolTableRecord
100
AcDbLinetypeTableRecord
  2
CENTER
 70
     0
  3
____ _ ____ _ ____ _ ____ _ ____ _ ____ _ ____
 72
    65
 73
     4
 40
2.0
 49
1.25
 74
     0
 49
-0.25
 74
     0
 49
0.25
 74
     0
 49
-0.25
 74
     0
  0
ENDTAB
  0
TABLE
  2
LAYER
  5
2
330
0
100
AcDbSymbolTable
 70
     1
  0
LAYER
  5
14
102
{ACAD_XDICTIONARY
360
5858
102
}
330
2
100
AcDbSymbolTableRecord
100
AcDbLayerTableRecord
  2
0
 70
     0
 62
     7
  6
Continuous
370
    -3
390
1D
  0
ENDTAB
  0
TABLE
  2
STYLE
  5
3
330
0
100
AcDbSymbolTable
 70
     1
  0
STYLE
  5
17
330
3
100
AcDbSymbolTableRecord
100
AcDbTextStyleTableRecord
  2
Standard
 70
     0
 40
0.0
 41
1.0
 50
0.0
 71
     0
 42
0.0
  3
I011000D.TTF
  4

1001
ACAD
1000
IsonormD
1071
        0
  0
ENDTAB
  0
TABLE
  2
VIEW
  5
5
330
0
100
AcDbSymbolTable
 70
     0
  0
ENDTAB
  0
TABLE
  2
UCS
  5
6
330
0
100
AcDbSymbolTable
 70
     0
  0
ENDTAB
  0
TABLE
  2
APPID
  5
8
330
0
100
AcDbSymbolTable
 70
     5
  0
APPID
  5
16
330
8
100
AcDbSymbolTableRecord
100
AcDbRegAppTableRecord
  2
ACAD
 70
     0
  0
APPID
  5
26
330
8
100
AcDbSymbolTableRecord
100
AcDbRegAppTableRecord
  2
TopSolid'Draft
 70
     0
  0
APPID
  5
5850
330
8
100
AcDbSymbolTableRecord
100
AcDbRegAppTableRecord
  2
ACAD_MLEADERVER
 70
     0
  0
APPID
  5
5856
330
8
100
AcDbSymbolTableRecord
100
AcDbRegAppTableRecord
  2
DCO15
 70
     0
  0
APPID
  5
B62D
330
8
100
AcDbSymbolTableRecord
100
AcDbRegAppTableRecord
  2
ACAD_EXEMPT_FROM_CAD_STANDARDS
 70
     0
  0
ENDTAB
  0
TABLE
  2
DIMSTYLE
  5
9
330
0
100
AcDbSymbolTable
 70
     2
100
AcDbDimStyleTable
 71
     1
340
18
  0
DIMSTYLE
105
18
330
9
100
AcDbSymbolTableRecord
100
AcDbDimStyleTableRecord
  2
Standard
 70
     0
 41
1.25
 42
0.0
 44
0.75
 73
     0
 74
     0
 77
     1
140
2.5
146
0.8
147
1.25
176
     7
177
     7
178
     7
271
     2
340
17
  0
ENDTAB
  0
TABLE
  2
BLOCK_RECORD
  5
1
330
0
100
AcDbSymbolTable
 70
     1
  0
BLOCK_RECORD
  5
A
102
{ACAD_XDICTIONARY
360
5864
102
}
330
1
100
AcDbSymbolTableRecord
100
AcDbBlockTableRecord
  2
*MODEL_SPACE
340
20
  0
BLOCK_RECORD
  5
B
330
1
100
AcDbSymbolTableRecord
100
AcDbBlockTableRecord
  2
*PAPER_SPACE
340
21
  0
ENDTAB
  0
ENDSEC
  0
SECTION
  2
BLOCKS
  0
BLOCK
  5
D
330
A
100
AcDbEntity
  8
0
100
AcDbBlockBegin
  2
*MODEL_SPACE
 70
     0
 10
0.0
 20
0.0
 30
0.0
  3
*MODEL_SPACE
  1

  0
ENDBLK
  5
E
330
A
100
AcDbEntity
  8
0
100
AcDbBlockEnd
  0
BLOCK
  5
F
330
B
100
AcDbEntity
 67
     1
  8
0
100
AcDbBlockBegin
  2
*PAPER_SPACE
 70
     0
 10
0.0
 20
0.0
 30
0.0
  3
*PAPER_SPACE
  1

  0
ENDBLK
  5
10
330
B
100
AcDbEntity
 67
     1
  8
0
100
AcDbBlockEnd
  0
ENDSEC
  0
SECTION
  2
ENTITIES
  0
LINE
  5
2699
330
A
100
AcDbEntity
  8
0
  6
CENTER
 62
     1
100
AcDbLine
 10
-8.199993688508584
 20
-50.00000017491929
 30
0.0
 11
8.200006311491392
 21
-50.00000017491929
 31
0.0
  0
LINE
  5
269A
330
A
100
AcDbEntity
  8
0
  6
CENTER
 62
     1
100
AcDbLine
 10
0.0000063114915747
 20
-58.20000017491928
 30
0.0
 11
0.0000063114915747
 21
-41.80000017491927
 31
0.0
  0
LINE
  5
269B
330
A
100
AcDbEntity
  8
0
  6
CENTER
 62
     1
100
AcDbLine
 10
-8.0
 20
-0.0000000000001563
 30
0.0
 11
8.0
 21
-0.0000000000001563
 31
0.0
  0
LINE
  5
269C
330
A
100
AcDbEntity
  8
0
  6
CENTER
 62
     1
100
AcDbLine
 10
0.0
 20
-7.999999999999957
 30
0.0
 11
0.0
 21
7.999999999999957
 31
0.0
  0
LINE
  5
269D
330
A
100
AcDbEntity
  8
0
  6
CENTER
 62
     1
100
AcDbLine
 10
-28.9994545078888
 20
-21.60000017491855
 30
0.0
 11
-28.99945450881069
 21
-6.600000174918548
 31
0.0
  0
LINE
  5
269E
330
A
100
AcDbEntity
  8
0
  6
CENTER
 62
     1
100
AcDbLine
 10
-21.49945714573573
 20
-49.75000017491929
 30
0.0
 11
-21.49945714573573
 21
-2.000000174919364
 31
0.0
  0
LINE
  5
26A0
330
A
100
AcDbEntity
  8
0
  6
CENTER
 62
     1
100
AcDbLine
 10
0.0001009879155163
 20
63.19095299467936
 30
0.0
 11
-0.0001704179056787
 21
58.89095300324463
 31
0.0
  0
LINE
  5
26A1
330
A
100
AcDbEntity
  8
0
  6
CENTER
 62
     1
100
AcDbLine
 10
-0.0002619384730451
 20
57.44095300613283
 30
0.0
 11
0.0000820526257712
 21
62.89095299527706
 31
0.0
  0
LINE
  5
26A2
330
A
100
AcDbEntity
  8
0
  6
CENTER
 62
     1
100
AcDbLine
 10
-29.00173216885639
 20
58.94230751738864
 30
0.0
 11
-29.00173216885639
 21
63.44230751738864
 31
0.0
  0
LINE
  5
26A3
330
A
100
AcDbEntity
  8
0
  6
CENTER
 62
     1
100
AcDbLine
 10
-25.24945714573573
 20
70.19231009278086
 30
0.0
 11
-17.74945714573573
 21
70.19231009278086
 31
0.0
  0
LINE
  5
26A4
330
A
100
AcDbEntity
  8
0
  6
CENTER
 62
     1
100
AcDbLine
 10
-21.49945714573573
 20
66.44231009278086
 30
0.0
 11
-21.49945714573573
 21
73.94231009278086
 31
0.0
  0
LINE
  5
26A5
330
A
100
AcDbEntity
  8
0
  6
CENTER
 62
     1
100
AcDbLine
 10
-90.94151108779863
 20
-13.80000017581444
 30
0.0
 11
-95.44151108779885
 21
-13.80000017552645
 31
0.0
  0
LINE
  5
26A6
330
A
100
AcDbEntity
  8
0
  6
CENTER
 62
     1
100
AcDbLine
 10
-93.19151108779886
 20
-25.00000017491851
 30
0.0
 11
-79.19151108779885
 21
-25.00000017491851
 31
0.0
  0
LINE
  5
26A7
330
A
100
AcDbEntity
  8
0
  6
CENTER
 62
     1
100
AcDbLine
 10
-86.19151108779886
 20
-32.00000017491854
 30
0.0
 11
-86.19151108779886
 21
-18.00000017491854
 31
0.0
  0
LINE
  5
26A8
330
A
100
AcDbEntity
  8
0
  6
CENTER
 62
     1
100
AcDbLine
 10
-84.69151108779863
 20
-55.00000017491849
 30
0.0
 11
-70.69151108779863
 21
-55.00000017491849
 31
0.0
  0
LINE
  5
26A9
330
A
100
AcDbEntity
  8
0
  6
CENTER
 62
     1
100
AcDbLine
 10
-77.69151108779863
 20
-62.00000017491858
 30
0.0
 11
-77.69151108779863
 21
-48.0000001749185
 31
0.0
  0
LINE
  5
26AA
330
A
100
AcDbEntity
  8
0
  6
CENTER
 62
     1
100
AcDbLine
 10
-84.69151108779863
 20
4.999999825081459
 30
0.0
 11
-70.69151108779863
 21
4.999999825081459
 31
0.0
  0
LINE
  5
26AB
330
A
100
AcDbEntity
  8
0
  6
CENTER
 62
     1
100
AcDbLine
 10
-77.69151108779863
 20
-2.00000017491854
 30
0.0
 11
-77.69151108779863
 21
11.99999982508144
 31
0.0
  0
LINE
  5
26AC
330
A
100
AcDbEntity
  8
0
  6
CENTER
 62
     1
100
AcDbLine
 10
-95.19015656907333
 20
-50.00000017491929
 30
0.0
 11
-89.44015657255921
 21
-50.00000017491929
 31
0.0
  0
LINE
  5
26AD
330
A
100
AcDbEntity
  8
0
  6
CENTER
 62
     1
100
AcDbLine
 10
-95.19015656907333
 20
0.0000010426598465
 30
0.0
 11
-89.44015657255921
 21
0.0000010426598465
 31
0.0
  0
LINE
  5
26AE
330
A
100
AcDbEntity
  8
0
  6
CENTER
 62
     1
100
AcDbLine
 10
52.54310429681606
 20
-55.00000017491849
 30
0.0
 11
61.84310429681613
 21
-55.00000017491849
 31
0.0
  0
LINE
  5
26AF
330
A
100
AcDbEntity
  8
0
  6
CENTER
 62
     1
100
AcDbLine
 10
57.19310429681593
 20
-59.65000017491858
 30
0.0
 11
57.19310429681593
 21
-50.35000017491849
 31
0.0
  0
LINE
  5
26B0
330
A
100
AcDbEntity
  8
0
  6
CENTER
 62
     1
100
AcDbLine
 10
52.54310429681606
 20
4.999999825081459
 30
0.0
 11
61.84310429681613
 21
4.999999825081459
 31
0.0
  0
LINE
  5
26B1
330
A
100
AcDbEntity
  8
0
  6
CENTER
 62
     1
100
AcDbLine
 10
57.19310429681593
 20
0.3499998250814542
 30
0.0
 11
57.19310429681593
 21
9.649999825081451
 31
0.0
  0
LINE
  5
26B2
330
A
100
AcDbEntity
  8
0
  6
CENTER
 62
     1
100
AcDbLine
 10
61.04310429681607
 20
-25.00000017491851
 30
0.0
 11
70.34310429681614
 21
-25.00000017491851
 31
0.0
  0
LINE
  5
26B3
330
A
100
AcDbEntity
  8
0
  6
CENTER
 62
     1
100
AcDbLine
 10
65.69310429681593
 20
-29.65000017491856
 30
0.0
 11
65.69310429681593
 21
-20.35000017491851
 31
0.0
  0
LINE
  5
26B4
330
A
100
AcDbEntity
  8
0
  6
CENTER
 62
     1
100
AcDbLine
 10
0.0001009878433251
 20
-119.1909533445173
 30
0.0
 11
-0.0001704180117486
 21
-114.8909533530826
 31
0.0
  0
LINE
  5
26B5
330
A
100
AcDbEntity
  8
0
  6
CENTER
 62
     1
100
AcDbLine
 10
-0.0002619385910521
 20
-113.4409533559709
 30
0.0
 11
0.00008205255142
 21
-118.8909533451149
 31
0.0
  0
LINE
  5
26B6
330
A
100
AcDbEntity
  8
0
  6
CENTER
 62
     1
100
AcDbLine
 10
-29.00173216885639
 20
-114.9423078672266
 30
0.0
 11
-29.00173216885639
 21
-119.4423078672266
 31
0.0
  0
LINE
  5
26B7
330
A
100
AcDbEntity
  8
0
  6
CENTER
 62
     1
100
AcDbLine
 10
-25.99945714573574
 20
-126.1923104426188
 30
0.0
 11
-16.99945714573573
 21
-126.1923104426188
 31
0.0
  0
LINE
  5
26B8
330
A
100
AcDbEntity
  8
0
  6
CENTER
 62
     1
100
AcDbLine
 10
-21.49945714573573
 20
-130.6923104426188
 30
0.0
 11
-21.49945714573573
 21
-121.6923104426188
 31
0.0
  0
ELLIPSE
  5
872A
330
A
100
AcDbEntity
  8
0
  6
Continuous
 62
     7
370
     0
100
AcDbEllipse
 10
65.72215644911875
 20
-112.7589560889563
 30
0.0
 11
-2.399999999999957
 21
-0.0000000001444956
 31
0.0
210
0.0
220
0.0
230
1.0
 40
0.4082482904387767
 41
0.0000000000000058
 42
2.095483545389456
  0
ELLIPSE
  5
872B
330
A
100
AcDbEntity
  8
0
  6
Continuous
 62
     7
370
     0
100
AcDbEllipse
 10
65.72215644911875
 20
-112.7589560889563
 30
0.0
 11
-2.399999999999957
 21
-0.0000000001444956
 31
-0.0000000000000001
210
0.0
220
0.0000000000000001
230
1.0
 40
0.4082482904387765
 41
6.137740977247905
 42
6.283185307179584
  0
ELLIPSE
  5
872C
330
A
100
AcDbEntity
  8
0
  6
Continuous
 62
     9
370
     0
100
AcDbEllipse
 10
72.51980310071792
 20
-121.449487334705
 30
0.0
 11
8.000000000000008
 21
0.0
 31
0.0
210
0.0
220
0.0
230
1.0
 40
0.408248290463863
 41
4.550715842380323
 42
5.250743598634119
  0
ELLIPSE
  5
872D
330
A
100
AcDbEntity
  8
0
  6
Continuous
 62
     9
370
     0
100
AcDbEllipse
 10
71.36082089831711
 20
-124.3505434715431
 30
0.0
 11
0.0531494523434706
 21
0.7982325073032234
 31
0.0
210
0.0
220
0.0
230
1.0
 40
0.1469446055560193
 41
0.4254476572217622
 42
1.996243984016544
  0
ELLIPSE
  5
872E
330
A
100
AcDbEntity
  8
0
  6
Continuous
 62
     9
370
     0
100
AcDbEllipse
 10
72.51980310071792
 20
-127.8760986760989
 30
0.0
 11
-8.000000000000008
 21
0.0
 31
0.0
210
0.0
220
0.0
230
1.0
 40
0.408248290463863
 41
1.409123188790529
 42
2.106832332258826
  0
LINE
  5
872F
330
A
100
AcDbEntity
  8
0
  6
Continuous
 62
     9
370
     0
100
AcDbLine
 10
71.2320450980501
 20
-124.6728830423029
 30
0.0
 11
71.2320450980501
 21
-131.0994943836968
 31
0.0
  0
ELLIPSE
  5
8730
330
A
100
AcDbEntity
  8
0
  6
Continuous
 62
     9
370
     0
100
AcDbEllipse
 10
67.86878170751799
 20
-124.5167336567338
 30
0.0
 11
4.000000000000001
 21
0.0
 31
0.0
210
0.0
220
0.0
230
1.0
 40
0.408248290463863
 41
0.6295731955673224
 42
1.584724240020891
  0
ELLIPSE
  5
8731
330
A
100
AcDbEntity
  8
0
  6
Continuous
 62
     9
370
     0
100
AcDbEllipse
 10
67.80750087064678
 20
-122.7206154043613
 30
0.0
 11
-0.3999999999999559
 21
0.0
 31
0.0
210
0.0
220
0.0
230
1.0
 40
0.408248290463863
 41
1.081006441044914
 42
1.584724240020839
  0
ELLIPSE
  5
8732
330
A
100
AcDbEntity
  8
0
  6
Continuous
 62
     9
370
     0
100
AcDbEllipse
 10
71.42520879844983
 20
-123.459076942823
 30
0.0
 11
-0.3999999999999559
 21
0.0
 31
0.0
210
0.0
220
0.0
230
1.0
 40
0.4082482904638631
 41
0.6295731955676142
 42
1.409123188790998
  0
ELLIPSE
  5
8733
330
A
100
AcDbEntity
  8
0
  6
Continuous
 62
     9
370
     0
100
AcDbEllipse
 10
71.42520879844983
 20
-124.1893736861632
 30
0.0
 11
1.200000000000089
 21
0.0
 31
0.0
210
0.0
220
0.0
230
1.0
 40
0.4082482904638628
 41
3.771165849157198
 42
4.55071584238042
  0
ELLIPSE
  5
8734
330
A
100
AcDbEntity
  8
0
  6
Continuous
 62
     9
370
     0
100
AcDbEllipse
 10
71.10189724472888
 20
-124.2855242965187
 30
0.0
 11
0.3911087586532245
 21
0.6978781690988037
 31
-0.0000000000000001
210
0.0000000000000001
220
0.0000000000000001
230
1.0
 40
0.737854296146193
 41
0.6495751075010593
 42
2.220371434295925
  0
ELLIPSE
  5
8735
330
A
100
AcDbEntity
  8
0
  6
Continuous
 62
     9
370
     0
100
AcDbEllipse
 10
71.42520879844983
 20
-130.6159850275571
 30
0.0
 11
-1.199999999999865
 21
0.0
 31
0.0
210
0.0
220
0.0
230
1.0
 40
0.4082482904638633
 41
0.6295731955673869
 42
1.409123188790629
  0
LINE
  5
8736
330
A
100
AcDbEntity
  8
0
  6
Continuous
 62
     9
370
     0
100
AcDbLine
 10
70.455274137287
 20
-124.4778255172298
 30
0.0
 11
70.455274137287
 21
-130.9044368586237
 31
0.0
  0
ELLIPSE
  5
8737
330
A
100
AcDbEntity
  8
0
  6
Continuous
 62
     9
370
     0
100
AcDbEllipse
 10
67.86878170751799
 20
-125.2470304000741
 30
0.0
 11
-3.200000000000091
 21
0.0
 31
0.0000000000000002
210
0.0000000000000001
220
0.0
230
1.0
 40
0.4082482904638631
 41
3.771165849157118
 42
4.7263168936107
  0
ELLIPSE
  5
8738
330
A
100
AcDbEntity
  8
0
  6
Continuous
 62
     9
370
     0
100
AcDbEllipse
 10
67.81307185581806
 20
-123.61419562519
 30
0.0
 11
-0.0045490580253826
 21
0.7999870661898613
 31
0.0
210
0.0000000000000001
220
0.0
230
1.0
 40
0.0127139760215661
 41
4.291818495463133
 42
5.862614822258676
  0
ELLIPSE
  5
8739
330
A
100
AcDbEntity
  8
0
  6
Continuous
 62
     9
370
     0
100
AcDbEllipse
 10
67.86878170751799
 20
-131.673641741468
 30
0.0
 11
3.199999999999868
 21
0.0
 31
-0.0000000000000002
210
0.0000000000000001
220
0.0
230
1.0
 40
0.408248290463863
 41
0.6295731955673323
 42
1.584724240020908
  0
LINE
  5
873A
330
A
100
AcDbEntity
  8
0
  6
Continuous
 62
     9
370
     0
100
AcDbLine
 10
67.82421382615712
 20
-123.9407625801668
 30
0.0
 11
67.82421382615712
 21
-130.3673739215608
 31
0.0
  0
ELLIPSE
  5
873B
330
A
100
AcDbEntity
  8
0
  6
Continuous
 62
     9
370
     0
100
AcDbEllipse
 10
71.36082089831711
 20
-130.7771548129371
 30
0.0
 11
0.0531494523434706
 21
0.7982325073032374
 31
-0.0000000000000001
210
0.0
220
0.0000000000000001
230
1.0
 40
0.1469446055560209
 41
1.996243984016543
 42
3.141593686523282
  0
ELLIPSE
  5
873C
330
A
100
AcDbEntity
  8
0
  6
Continuous
 62
     9
370
     0
100
AcDbEllipse
 10
67.80750087064678
 20
-123.4509121477016
 30
0.0
 11
1.200000000000089
 21
0.0
 31
0.0
210
0.0
220
0.0
230
1.0
 40
0.4082482904638633
 41
3.946766900387548
 42
4.72631689361063
  0
ELLIPSE
  5
873D
330
A
100
AcDbEntity
  8
0
  6
Continuous
 62
     9
370
     0
100
AcDbEllipse
 10
67.53030662181959
 20
-123.5686430190544
 30
0.0
 11
0.292234885385989
 21
0.7447138858402978
 31
0.0
210
0.0000000000000001
220
0.0
230
1.0
 40
0.6326064287233927
 41
0.6487321427740424
 42
2.126016176938358
  0
ELLIPSE
  5
873E
330
A
100
AcDbEntity
  8
0
  6
Continuous
 62
     9
370
     0
100
AcDbEllipse
 10
72.51980310071792
 20
-121.449487334705
 30
0.0
 11
8.000000000000008
 21
0.0
 31
0.0
210
0.0
220
0.0
230
1.0
 40
0.408248290463863
 41
3.425707679248903
 42
3.946766900387473
  0
ELLIPSE
  5
873F
330
A
100
AcDbEntity
  8
0
  6
Continuous
 62
     9
370
     0
100
AcDbEllipse
 10
67.80750087064678
 20
-129.8775234890956
 30
0.0
 11
-1.199999999999865
 21
0.0
 31
0.0
210
0.0
220
0.0
230
1.0
 40
0.408248290463863
 41
0.8051742467977403
 42
1.584724240020839
  0
LINE
  5
8740
330
A
100
AcDbEntity
  8
0
  6
Continuous
 62
     9
370
     0
100
AcDbLine
 10
66.97591812416499
 20
-123.8041047617599
 30
0.0
 11
66.97591812416499
 21
-130.2307161031538
 31
0.0
  0
ELLIPSE
  5
8741
330
A
100
AcDbEntity
  8
0
  6
Continuous
 62
     9
370
     0
100
AcDbEllipse
 10
72.51980310071792
 20
-127.8760986760989
 30
0.0
 11
-8.000000000000008
 21
0.0
 31
0.0000000000000006
210
0.0000000000000001
220
0.0
230
1.0
 40
0.4082482904638626
 41
0.0000000000000001
 42
0.8051742467976833
  0
ELLIPSE
  5
8742
330
A
100
AcDbEntity
  8
0
  6
Continuous
 62
     9
370
     0
100
AcDbEllipse
 10
71.10189724472888
 20
-130.7121356379126
 30
0.0
 11
0.3911087586532247
 21
0.6978781690987896
 31
-0.0000000000000001
210
0.0000000000000001
220
0.0000000000000001
230
1.0
 40
0.7378542961461913
 41
2.220371434295915
 42
3.141598729419046
  0
ELLIPSE
  5
8743
330
A
100
AcDbEntity
  8
0
  6
Continuous
 62
     9
370
     0
100
AcDbEllipse
 10
67.81307185581806
 20
-130.040806966584
 30
0.0
 11
0.0045490580253826
 21
-0.7999870661898613
 31
0.0000000000000001
210
0.0000000000000001
220
0.0000000000000001
230
1.0
 40
0.0127139760215653
 41
0.0002581393102603
 42
1.150225841873208
  0
ELLIPSE
  5
8744
330
A
100
AcDbEntity
  8
0
  6
Continuous
 62
     9
370
     0
100
AcDbEllipse
 10
67.53030662181959
 20
-129.9952543604483
 30
0.0
 11
-0.2922348853859891
 21
-0.7447138858403674
 31
0.0
210
0.0
220
0.0
230
1.0
 40
0.6326064287233942
 41
5.267608830528411
 42
6.283186895473277
  0
LINE
  5
8745
330
A
100
AcDbEntity
  8
0
  6
Continuous
 62
     7
370
     0
100
AcDbLine
 10
70.37285324971799
 20
-94.72068221327019
 30
0.0
 11
97.20651573827206
 21
-100.1972163582979
 31
0.0
  0
ELLIPSE
  5
8746
330
A
100
AcDbEntity
  8
0
  6
Continuous
 62
     7
370
     0
100
AcDbEllipse
 10
97.20651573827206
 20
-103.4835517033282
 30
0.0
 11
-2.277055485269573
 21
2.788371983255224
 31
0.0000000000000001
210
0.0
220
0.0
230
1.0
 40
0.8165223469702727
 41
3.926927694366412
 42
5.497724021161292
  0
LINE
  5
8747
330
A
100
AcDbEntity
  8
0
  6
Continuous
 62
     7
370
     0
100
AcDbLine
 10
100.426555236898
 20
-104.1407358007315
 30
0.0
 11
100.426555236898
 21
-153.289706627517
 31
0.0
  0
ELLIPSE
  5
8748
330
A
100
AcDbEntity
  8
0
  6
Continuous
 62
     7
370
     0
100
AcDbEllipse
 10
97.20651573827206
 20
-152.6325225301137
 30
0.0
 11
-2.277055485269573
 21
2.788371983255197
 31
0.0000000000000001
210
0.0
220
0.0
230
1.0
 40
0.8165223469702722
 41
3.141592653589829
 42
3.926927694366399
  0
LINE
  5
8749
330
A
100
AcDbEntity
  8
0
  6
Continuous
 62
     9
370
     0
100
AcDbLine
 10
97.56424145065205
 20
-99.90508844262219
 30
0.0
 11
97.20651573827206
 21
-100.1972163582979
 31
0.0
  0
ELLIPSE
  5
874A
330
A
100
AcDbEntity
  8
0
  6
Continuous
 62
     7
370
     0
100
AcDbEllipse
 10
97.56424145065205
 20
-103.1914237876525
 30
0.0
 11
-2.277055485269795
 21
2.78837198325532
 31
0.0000000000000001
210
0.0
220
0.0
230
1.0
 40
0.8165223469702727
 41
3.926927694366378
 42
5.497724021161245
  0
LINE
  5
874B
330
A
100
AcDbEntity
  8
0
  6
Continuous
 62
     9
370
     0
100
AcDbLine
 10
100.7842809492781
 20
-103.8486078850557
 30
0.0
 11
100.426555236898
 21
-104.1407358007315
 31
0.0
  0
LINE
  5
874C
330
A
100
AcDbEntity
  8
0
  6
Continuous
 62
     9
370
     0
100
AcDbLine
 10
70.73057896209684
 20
-94.42855429759438
 30
0.0
 11
70.37285324971799
 21
-94.72068221327019
 31
0.0
  0
LINE
  5
874D
330
A
100
AcDbEntity
  8
0
  6
Continuous
 62
     7
370
     0
100
AcDbLine
 10
70.73057896209684
 20
-94.42855429759438
 30
0.0
 11
97.56424145065205
 21
-99.90508844262219
 31
0.0
  0
LINE
  5
874E
330
A
100
AcDbEntity
  8
0
  6
Continuous
 62
     9
370
     0
100
AcDbLine
 10
100.7842809492781
 20
-152.9975787118413
 30
0.0
 11
100.426555236898
 21
-153.289706627517
 31
0.0
  0
LINE
  5
874F
330
A
100
AcDbEntity
  8
0
  6
Continuous
 62
     7
370
     0
100
AcDbLine
 10
100.7842809492781
 20
-103.8486078850557
 30
0.0
 11
100.7842809492781
 21
-152.9975787118413
 31
0.0
  0
ELLIPSE
  5
8750
330
A
100
AcDbEntity
  8
0
  6
Continuous
 62
     7
370
     0
100
AcDbEllipse
 10
70.73057896209684
 20
-97.71488964262466
 30
0.0
 11
-2.277055485269795
 21
2.78837198325532
 31
0.0000000000000001
210
0.0
220
0.0
230
1.0
 40
0.8165223469702722
 41
5.497724021161245
 42
6.283185307179588
  0
ELLIPSE
  5
8751
330
A
100
AcDbEntity
  8
0
  6
Continuous
 62
     7
370
     0
100
AcDbEllipse
 10
70.37285324971799
 20
-98.00701755830047
 30
0.0
 11
-2.277055485269795
 21
2.78837198325532
 31
0.0
210
0.0000000000000001
220
0.0000000000000001
230
1.0
 40
0.8165223469702727
 41
5.497724021161245
 42
6.283185307179588
  0
ELLIPSE
  5
8752
330
A
100
AcDbEntity
  8
0
  6
Continuous
 62
     7
370
     0
100
AcDbEllipse
 10
97.56424145065205
 20
-152.3403946144379
 30
0.0
 11
-2.277055485269797
 21
2.788371983255308
 31
0.0000000000000001
210
0.0
220
0.0
230
1.0
 40
0.8165223469702722
 41
3.141592653589689
 42
3.926927694366351
  0
ELLIPSE
  5
8753
330
A
100
AcDbEntity
  8
0
  6
Continuous
 62
     7
370
     0
100
AcDbEllipse
 10
70.0151275373371
 20
-98.29914547397649
 30
0.0
 11
2.277055485269573
 21
-2.788371983255224
 31
0.0
210
0.0000000000000001
220
0.0
230
1.0
 40
0.8165223469702732
 41
2.356131367571622
 42
3.141592653589838
  0
LINE
  5
8754
330
A
100
AcDbEntity
  8
0
  6
Continuous
 62
     7
370
     0
100
AcDbLine
 10
96.84879002589083
 20
-100.4893442739735
 30
0.0
 11
70.0151275373371
 21
-95.01281012894628
 31
0.0
  0
ELLIPSE
  5
8755
330
A
100
AcDbEntity
  8
0
  6
Continuous
 62
     7
370
     0
100
AcDbEllipse
 10
96.84879002589083
 20
-103.7756796190036
 30
0.0
 11
2.277055485269796
 21
-2.788371983255335
 31
-0.0000000000000001
210
0.0
220
0.0
230
1.0
 40
0.8165223469702723
 41
0.7853350407765877
 42
2.356131367571455
  0
LINE
  5
8756
330
A
100
AcDbEntity
  8
0
  6
Continuous
 62
     7
370
     0
100
AcDbLine
 10
100.068829524519
 20
-153.5818345431917
 30
0.0
 11
100.068829524518
 21
-104.432863716407
 31
0.0
  0
ELLIPSE
  5
8757
330
A
100
AcDbEntity
  8
0
  6
Continuous
 62
     7
370
     0
100
AcDbEllipse
 10
96.84879002589173
 20
-152.9246504457884
 30
0.0
 11
2.277055485269794
 21
-2.788371983255314
 31
0.0
210
0.0000000000000001
220
0.0
230
1.0
 40
0.8165223469702731
 41
6.227628104911682
 42
6.283185307179588
  0
LINE
  5
8758
330
A
100
AcDbEntity
  8
0
  6
Continuous
 62
     9
370
     0
100
AcDbLine
 10
100.068829524518
 20
-104.432863716407
 30
0.0
 11
100.426555236898
 21
-104.1407358007313
 31
0.0
  0
LINE
  5
8759
330
A
100
AcDbEntity
  8
0
  6
Continuous
 62
     9
370
     0
100
AcDbLine
 10
100.426555236898
 20
-104.1407358007313
 30
0.0
 11
100.7842809492781
 21
-103.8486078850555
 31
0.0
  0
LINE
  5
875A
330
A
100
AcDbEntity
  8
0
  6
Continuous
 62
     9
370
     0
100
AcDbLine
 10
96.84879002589083
 20
-100.4893442739735
 30
0.0
 11
97.20651573827115
 21
-100.1972163582977
 31
0.0
  0
LINE
  5
875B
330
A
100
AcDbEntity
  8
0
  6
Continuous
 62
     9
370
     0
100
AcDbLine
 10
97.20651573827115
 20
-100.1972163582977
 30
0.0
 11
97.56424145065091
 21
-99.90508844262208
 31
0.0
  0
ELLIPSE
  5
875C
330
A
100
AcDbEntity
  8
0
  6
Continuous
 62
     7
370
     0
100
AcDbEllipse
 10
97.56424145065091
 20
-103.1914237876523
 30
0.0
 11
2.277055485269795
 21
-2.78837198325532
 31
-0.0000000000000001
210
0.0
220
0.0
230
1.0
 40
0.8165223469702727
 41
0.7853350407765932
 42
2.356131367571454
  0
LINE
  5
875D
330
A
100
AcDbEntity
  8
0
  6
Continuous
 62
     9
370
     0
100
AcDbLine
 10
70.0151275373371
 20
-95.01281012894628
 30
0.0
 11
70.37285324971697
 21
-94.72068221327058
 31
0.0
  0
LINE
  5
875E
330
A
100
AcDbEntity
  8
0
  6
Continuous
 62
     9
370
     0
100
AcDbLine
 10
70.37285324971697
 20
-94.72068221327058
 30
0.0
 11
70.73057896209684
 21
-94.42855429759489
 31
0.0
  0
LINE
  5
875F
330
A
100
AcDbEntity
  8
0
  6
Continuous
 62
     7
370
     0
100
AcDbLine
 10
97.56424145065091
 20
-99.90508844262208
 30
0.0
 11
70.73057896209684
 21
-94.42855429759489
 31
0.0
  0
LINE
  5
8760
330
A
100
AcDbEntity
  8
0
  6
Continuous
 62
     9
370
     0
100
AcDbLine
 10
100.068829524519
 20
-153.5818345431917
 30
0.0
 11
100.426555236898
 21
-153.289706627516
 31
0.0
  0
LINE
  5
8761
330
A
100
AcDbEntity
  8
0
  6
Continuous
 62
     9
370
     0
100
AcDbLine
 10
100.426555236898
 20
-153.289706627516
 30
0.0
 11
100.7842809492781
 21
-152.9975787118403
 31
0.0
  0
LINE
  5
8762
330
A
100
AcDbEntity
  8
0
  6
Continuous
 62
     7
370
     0
100
AcDbLine
 10
100.7842809492781
 20
-152.9975787118403
 30
0.0
 11
100.7842809492781
 21
-103.8486078850555
 31
0.0
  0
ELLIPSE
  5
8763
330
A
100
AcDbEntity
  8
0
  6
Continuous
 62
     7
370
     0
100
AcDbEllipse
 10
70.0151275373371
 20
-98.29914547397649
 30
0.0
 11
2.277055485269573
 21
-2.788371983255224
 31
-0.0000000000000001
210
0.0
220
0.0
230
1.0
 40
0.8165223469702727
 41
3.141592653589843
 42
3.310892080926323
  0
ELLIPSE
  5
8764
330
A
100
AcDbEntity
  8
0
  6
Continuous
 62
     7
370
     0
100
AcDbEllipse
 10
70.73057896209684
 20
-97.71488964262513
 30
0.0
 11
2.277055485269795
 21
-2.78837198325532
 31
0.0
210
0.0000000000000001
220
0.0
230
1.0
 40
0.8165223469702727
 41
2.356131367571454
 42
3.141592653589692
  0
ELLIPSE
  5
8765
330
A
100
AcDbEntity
  8
0
  6
Continuous
 62
     7
370
     0
100
AcDbEllipse
 10
96.84879002589173
 20
-152.9246504457884
 30
0.0
 11
2.277055485269794
 21
-2.788371983255314
 31
0.0
210
0.0000000000000001
220
0.0000000000000001
230
1.0
 40
0.8165223469702727
 41
0.0000000000000012
 42
0.7853350407765976
  0
ELLIPSE
  5
8766
330
A
100
AcDbEntity
  8
0
  6
Continuous
 62
     7
370
     0
100
AcDbEllipse
 10
97.56424145065205
 20
-152.340394614437
 30
0.0
 11
2.277055485269796
 21
-2.788371983255329
 31
-0.0000000000000001
210
0.0
220
0.0
230
1.0
 40
0.8165223469702723
 41
0.0000000000000013
 42
0.7853350407765949
  0
LINE
  5
8767
330
A
100
AcDbEntity
  8
0
  6
Continuous
 62
     9
370
     0
100
AcDbLine
 10
103.646340691917
 20
-102.1688516254183
 30
0.0
 11
102.215437842397
 21
-103.3373632881212
 31
0.0
  0
ELLIPSE
  5
8768
330
A
100
AcDbEntity
  8
0
  6
Continuous
 62
     7
370
     0
100
AcDbEllipse
 10
98.63761617725709
 20
-102.6071587354509
 30
0.0
 11
2.530061650299674
 21
-3.098191092505975
 31
-0.0000000000000001
210
0.0000000000000001
220
0.0
230
1.0
 40
0.8165223469702731
 41
0.7853350407765523
 42
2.356131367571483
  0
LINE
  5
8769
330
A
100
AcDbEntity
  8
0
  6
Continuous
 62
     9
370
     0
100
AcDbLine
 10
98.63761617725709
 20
-98.9556750187517
 30
0.0
 11
100.0685190267771
 21
-97.7871633560489
 31
0.0
  0
ELLIPSE
  5
876A
330
A
100
AcDbEntity
  8
0
  6
Continuous
 62
     7
370
     0
100
AcDbEllipse
 10
100.0685190267771
 20
-101.4386470727482
 30
0.0
 11
-2.530061650299675
 21
3.098191092505877
 31
0.0
210
0.0000000000000001
220
0.0000000000000001
230
1.0
 40
0.8165223469702731
 41
3.92692769436639
 42
5.497724021161324
  0
ELLIPSE
  5
876B
330
A
100
AcDbEntity
  8
0
  6
Continuous
 62
     7
370
     0
100
AcDbEllipse
 10
98.63761617725709
 20
-153.7279307692413
 30
0.0
 11
2.530061650299674
 21
-3.098191092505968
 31
0.0
210
0.0
220
0.0
230
1.0
 40
0.8165223469702727
 41
5.593446320463688
 42
6.283185307179542
  0
LINE
  5
876C
330
A
100
AcDbEntity
  8
0
  6
Continuous
 62
     7
370
     0
100
AcDbLine
 10
66.43722119099971
 20
-95.67006568667968
 30
0.0
 11
66.43722119099971
 21
-92.38383404472017
 31
0.0
  0
LINE
  5
876D
330
A
100
AcDbEntity
  8
0
  6
Continuous
 62
     7
370
     0
100
AcDbLine
 10
66.43722119099971
 20
-92.38383404472017
 30
0.0
 11
98.63761617725709
 21
-98.9556750187517
 31
0.0
  0
LINE
  5
876E
330
A
100
AcDbEntity
  8
0
  6
Continuous
 62
     7
370
     0
100
AcDbLine
 10
102.215437842397
 20
-103.3373632881212
 30
0.0
 11
102.215437842397
 21
-154.4581353219115
 31
0.0
  0
ELLIPSE
  5
876F
330
A
100
AcDbEntity
  8
0
  6
Continuous
 62
     7
370
     0
100
AcDbEllipse
 10
70.19393393939697
 20
-96.98460672755819
 30
0.0
 11
-2.024049320239694
 21
2.478552874004667
 31
0.0000000000000001
210
0.0000000000000001
220
0.0
230
1.0
 40
0.8165223469702729
 41
0.0
 42
0.5966825131770555
  0
ELLIPSE
  5
8770
330
A
100
AcDbEntity
  8
0
  6
Continuous
 62
     7
370
     0
100
AcDbEllipse
 10
98.4587250940001
 20
-153.5088463557728
 30
0.0
 11
-2.024049320239694
 21
2.478552874004654
 31
-0.0000000000000001
210
0.0000000000000001
220
0.0000000000000001
230
1.0
 40
0.8165223469702725
 41
3.141592653589837
 42
3.926927694366407
  0
LINE
  5
8771
330
A
100
AcDbEntity
  8
0
  6
Continuous
 62
     7
370
     0
100
AcDbLine
 10
101.3209824261118
 20
-154.0930099979089
 30
0.0
 11
101.3209824261118
 21
-103.3373863357885
 31
0.0
  0
ELLIPSE
  5
8772
330
A
100
AcDbEntity
  8
0
  6
Continuous
 62
     7
370
     0
100
AcDbEllipse
 10
98.45872509399965
 20
-102.7532226936525
 30
0.0
 11
-2.024049320239694
 21
2.478552874004667
 31
0.0
210
0.0000000000000001
220
0.0000000000000001
230
1.0
 40
0.8165223469702731
 41
3.926927694366415
 42
5.497724021161273
  0
LINE
  5
8773
330
A
100
AcDbEntity
  8
0
  6
Continuous
 62
     7
370
     0
100
AcDbLine
 10
98.4587250940001
 20
-99.83203572029307
 30
0.0
 11
70.19393393939697
 21
-94.06341975419868
 31
0.0
  0
ELLIPSE
  5
8774
330
A
100
AcDbEntity
  8
0
  6
Continuous
 62
     7
370
     0
100
AcDbEllipse
 10
98.63758795018998
 20
-153.3627823979349
 30
0.0
 11
2.024049320239694
 21
-2.47855287400468
 31
-0.0000000000000001
210
0.0000000000000001
220
0.0
230
1.0
 40
0.8165223469702731
 41
5.623240710406959
 42
6.238980922743526
  0
LINE
  5
8775
330
A
100
AcDbEntity
  8
0
  6
Continuous
 62
     7
370
     0
100
AcDbLine
 10
66.43722119099971
 20
-92.38383404472017
 30
0.0
 11
67.09866301370391
 21
-91.84368382817057
 31
0.0
  0
ELLIPSE
  5
8776
330
A
100
AcDbEntity
  8
0
  6
Continuous
 62
     7
370
     0
100
AcDbEllipse
 10
69.21021645741894
 20
-94.13647477860344
 30
0.0
 11
6.000000000000003
 21
0.0
 31
-0.0000000000000001
210
0.0
220
0.0
230
1.0
 40
0.4082482904636614
 41
1.366133377441336
 42
1.93042381256036
  0
LINE
  5
8777
330
A
100
AcDbEntity
  8
0
  6
Continuous
 62
     7
370
     0
100
AcDbLine
 10
70.42963938868297
 20
-91.73810701021368
 30
0.0
 11
100.0685190267771
 21
-97.7871633560489
 31
0.0
  0
LINE
  5
8778
330
A
100
AcDbEntity
  8
0
  6
Continuous
 62
     9
370
     0
100
AcDbLine
 10
102.215437842397
 20
-154.4581353219115
 30
0.0
 11
103.646340691917
 21
-153.2896236592086
 31
0.0
  0
LINE
  5
8779
330
A
100
AcDbEntity
  8
0
  6
Continuous
 62
     7
370
     0
100
AcDbLine
 10
103.646340691917
 20
-153.2896236592086
 30
0.0
 11
103.646340691917
 21
-102.1688516254183
 31
0.0
  0
ELLIPSE
  5
877A
330
A
100
AcDbEntity
  8
0
  6
Continuous
 62
     7
370
     0
100
AcDbEllipse
 10
70.19393393939697
 20
-96.98460672755819
 30
0.0
 11
-2.024049320239694
 21
2.478552874004667
 31
0.0
210
0.0000000000000001
220
0.0
230
1.0
 40
0.8165223469702731
 41
5.497724021161273
 42
6.283185307179584
  0
ELLIPSE
  5
877B
330
A
100
AcDbEntity
  8
0
  6
Continuous
 62
     7
370
     0
100
AcDbEllipse
 10
70.37279679558697
 20
-96.83854276972024
 30
0.0
 11
2.024049320239694
 21
-2.47855287400468
 31
0.0
210
0.0000000000000001
220
0.0000000000000001
230
1.0
 40
0.8165223469702731
 41
3.185797038363481
 42
3.716979496036771
  0
ELLIPSE
  5
877C
330
A
100
AcDbEntity
  8
0
  6
Continuous
 62
     7
370
     0
100
AcDbEllipse
 10
98.63761617725709
 20
-153.7279307692413
 30
0.0
 11
2.530061650299674
 21
-3.098191092505968
 31
-0.0000000000000003
210
0.0000000000000001
220
0.0
230
1.0
 40
0.8165223469702731
 41
6.283185307179541
 42
7.068520347956146
  0
ELLIPSE
  5
877D
330
A
100
AcDbEntity
  8
0
  6
Continuous
 62
     7
370
     0
100
AcDbEllipse
 10
100.0685190267771
 20
-152.5594191065384
 30
0.0
 11
-2.530061650299675
 21
3.098191092505877
 31
0.0000000000000001
210
0.0
220
0.0
230
1.0
 40
0.8165223469702734
 41
3.141592653589796
 42
3.92692769436639
  0
ELLIPSE
  5
877E
330
A
100
AcDbEntity
  8
0
  6
Continuous
 62
     7
370
     0
100
AcDbEllipse
 10
98.4587250940001
 20
-153.5088463557728
 30
0.0
 11
-2.024049320239694
 21
2.478552874004654
 31
0.0
210
0.0000000000000001
220
0.0
230
1.0
 40
0.8165223469702729
 41
2.544928474732673
 42
3.141592653589837
  0
LINE
  5
877F
330
A
100
AcDbEntity
  8
0
  6
Continuous
 62
     7
370
     0
100
AcDbLine
 10
64.34830227821203
 20
-155.1280210438931
 30
0.0
 11
64.34830227821203
 21
-138.7511165744886
 31
0.0
  0
LINE
  5
8780
330
A
100
AcDbEntity
  8
0
  6
Continuous
 62
     7
370
     0
100
AcDbLine
 10
75.33576828984895
 20
-140.9935697918132
 30
0.0
 11
64.34830227821203
 21
-138.7511165744886
 31
0.0
  0
ELLIPSE
  5
8781
330
A
100
AcDbEntity
  8
0
  6
Continuous
 62
     7
370
     0
100
AcDbEllipse
 10
75.33576828984895
 20
-139.5329763051328
 30
0.0
 11
-1.012024660119734
 21
1.239276437002279
 31
0.0000000000000001
210
0.0000000000000001
220
0.0
230
1.0
 40
0.8165223469702723
 41
3.141592653589888
 42
3.957060832761545
  0
ELLIPSE
  5
8782
330
A
100
AcDbEntity
  8
0
  6
Continuous
 62
     7
370
     0
100
AcDbEllipse
 10
445.0795672961608
 20
-203.6203325356297
 30
0.0
 11
260.5715764605417
 21
-319.0833460736568
 31
0.0
210
0.0000000000000001
220
0.0000000000000001
230
0.9999999999999998
 40
0.8165223469702723
 41
3.896794555971286
 42
3.957060832761488
  0
ELLIPSE
  5
8783
330
A
100
AcDbEntity
  8
0
  6
Continuous
 62
     7
370
     0
100
AcDbEllipse
 10
75.33576828984895
 20
-116.7842327500849
 30
0.0
 11
-1.012024660119734
 21
1.239276437002279
 31
0.0000000000000001
210
0.0000000000000001
220
0.0
230
1.0
 40
0.8165223469702731
 41
3.896794555971356
 42
5.497724021161321
  0
LINE
  5
8784
330
A
100
AcDbEntity
  8
0
  6
Continuous
 62
     7
370
     0
100
AcDbLine
 10
64.34830227821203
 20
-113.0811860460798
 30
0.0
 11
75.33576828984895
 21
-115.3236392634044
 31
0.0
  0
LINE
  5
8785
330
A
100
AcDbEntity
  8
0
  6
Continuous
 62
     7
370
     0
100
AcDbLine
 10
64.34830227821203
 20
-113.0811860460798
 30
0.0
 11
64.34830227821203
 21
-96.70428157667538
 31
0.0
  0
LINE
  5
8786
330
A
100
AcDbEntity
  8
0
  6
Continuous
 62
     7
370
     0
100
AcDbLine
 10
93.98718191632111
 20
-102.7533379225135
 30
0.0
 11
64.34830227821203
 21
-96.70428157667538
 31
0.0
  0
ELLIPSE
  5
8787
330
A
100
AcDbEntity
  8
0
  6
Continuous
 62
     7
370
     0
100
AcDbEllipse
 10
93.98718191632111
 20
-106.4048216392147
 30
0.0
 11
2.530061650299675
 21
-3.098191092505877
 31
0.0
210
0.0
220
0.0
230
1.0
 40
0.8165223469702727
 41
0.7853350407765971
 42
2.356131367571473
  0
LINE
  5
8788
330
A
100
AcDbEntity
  8
0
  6
Continuous
 62
     7
370
     0
100
AcDbLine
 10
97.56500358146286
 20
-107.1350261918852
 30
0.0
 11
97.56500358146286
 21
-158.2557982257007
 31
0.0
  0
ELLIPSE
  5
8789
330
A
100
AcDbEntity
  8
0
  6
Continuous
 62
     7
370
     0
100
AcDbEllipse
 10
93.98718191632111
 20
-157.5255936730302
 30
0.0
 11
2.530061650299675
 21
-3.098191092505863
 31
-0.0000000000000001
210
0.0000000000000001
220
0.0
230
1.0
 40
0.8165223469702731
 41
5.497724021161261
 42
6.28318530717958
  0
LINE
  5
878A
330
A
100
AcDbEntity
  8
0
  6
Continuous
 62
     7
370
     0
100
AcDbLine
 10
64.34830227821203
 20
-155.1280210438931
 30
0.0
 11
93.98718191632111
 21
-161.1770773897313
 31
0.0
  0
LINE
  5
878B
330
A
100
AcDbEntity
  8
0
  6
Continuous
 62
     9
370
     0
100
AcDbLine
 10
98.99590643098292
 20
-105.9665145291823
 30
0.0
 11
97.56500358146286
 21
-107.1350261918852
 31
0.0
  0
LINE
  5
878C
330
A
100
AcDbEntity
  8
0
  6
Continuous
 62
     9
370
     0
100
AcDbLine
 10
93.98718191632111
 20
-102.7533379225135
 30
0.0
 11
95.41808476584106
 21
-101.5848262598107
 31
0.0
  0
ELLIPSE
  5
878D
330
A
100
AcDbEntity
  8
0
  6
Continuous
 62
     7
370
     0
100
AcDbEllipse
 10
95.41808476584106
 20
-105.2363099765117
 30
0.0
 11
-2.530061650299675
 21
3.098191092505863
 31
0.0000000000000001
210
0.0000000000000001
220
0.0
230
1.0
 40
0.8165223469702731
 41
3.926927694366399
 42
5.497724021161261
  0
ELLIPSE
  5
878E
330
A
100
AcDbEntity
  8
0
  6
Continuous
 62
     7
370
     0
100
AcDbEllipse
 10
68.31590217645907
 20
-94.86679456776746
 30
0.0
 11
6.000000000000003
 21
0.0000000000000137
 31
-0.0000000000000003
210
0.0
220
0.0
230
1.0
 40
0.4082482904638657
 41
3.425592511898826
 42
3.989882947018473
  0
LINE
  5
878F
330
A
100
AcDbEntity
  8
0
  6
Continuous
 62
     7
370
     0
100
AcDbLine
 10
62.55624795686401
 20
-95.55313550232558
 30
0.0
 11
63.21768977956799
 21
-95.01298528577597
 31
0.0
  0
LINE
  5
8790
330
A
100
AcDbEntity
  8
0
  6
Continuous
 62
     7
370
     0
100
AcDbLine
 10
95.41808476584106
 20
-101.5848262598107
 30
0.0
 11
63.21768977956799
 21
-95.01298528577597
 31
0.0
  0
LINE
  5
8791
330
A
100
AcDbEntity
  8
0
  6
Continuous
 62
     7
370
     0
100
AcDbLine
 10
98.99590643098292
 20
-157.0872865629979
 30
0.0
 11
98.99590643098292
 21
-105.9665145291823
 31
0.0
  0
LINE
  5
8792
330
A
100
AcDbEntity
  8
0
  6
Continuous
 62
     9
370
     0
100
AcDbLine
 10
97.56500358146286
 20
-158.2557982257007
 30
0.0
 11
98.99590643098292
 21
-157.0872865629979
 31
0.0
  0
ELLIPSE
  5
8793
330
A
100
AcDbEntity
  8
0
  6
Continuous
 62
     7
370
     0
100
AcDbEllipse
 10
68.31590217645907
 20
-111.2436990371719
 30
0.0
 11
6.000000000000003
 21
0.0000000000000137
 31
-0.0000000000000003
210
0.0
220
0.0
230
1.0
 40
0.4082482904638657
 41
3.425592511898826
 42
3.989882947018477
  0
LINE
  5
8794
330
A
100
AcDbEntity
  8
0
  6
Continuous
 62
     7
370
     0
100
AcDbLine
 10
62.55624795686401
 20
-95.55313550232558
 30
0.0
 11
62.55624795686401
 21
-111.93003997173
 31
0.0
  0
ELLIPSE
  5
8795
330
A
100
AcDbEntity
  8
0
  6
Continuous
 62
     7
370
     0
100
AcDbEllipse
 10
93.98718191632111
 20
-157.5255936730302
 30
0.0
 11
2.530061650299675
 21
-3.098191092505863
 31
0.0
210
0.0000000000000001
220
0.0000000000000001
230
1.0
 40
0.8165223469702736
 41
6.283185307179584
 42
7.068520347956178
  0
ELLIPSE
  5
8796
330
A
100
AcDbEntity
  8
0
  6
Continuous
 62
     7
370
     0
100
AcDbEllipse
 10
95.41808476584106
 20
-156.3570820103273
 30
0.0
 11
-2.530061650299675
 21
3.098191092505877
 31
0.0
210
0.0000000000000001
220
0.0000000000000001
230
1.0
 40
0.8165223469702731
 41
3.141592653589843
 42
3.926927694366399
  0
ELLIPSE
  5
8797
330
A
100
AcDbEntity
  8
0
  6
Continuous
 62
     7
370
     0
100
AcDbEllipse
 10
75.33576828984895
 20
-139.5329763051328
 30
0.0
 11
-1.012024660119734
 21
1.239276437002279
 31
0.0000000000000001
210
0.0000000000000001
220
0.0
230
1.0
 40
0.8165223469702731
 41
2.356131367571529
 42
3.141592653589888
  0
LINE
  5
8798
330
A
100
AcDbEntity
  8
0
  6
Continuous
 62
     7
370
     0
100
AcDbLine
 10
76.76674537517886
 20
-139.8462848523443
 30
0.0
 11
76.00068405383206
 21
-140.4718700125392
 31
0.0
  0
LINE
  5
8799
330
A
100
AcDbEntity
  8
0
  6
Continuous
 62
     9
370
     0
100
AcDbLine
 10
75.33576828984895
 20
-140.9935697918132
 30
0.0
 11
76.76689694450101
 21
-139.8248737308961
 31
0.0
  0
ELLIPSE
  5
879A
330
A
100
AcDbEntity
  8
0
  6
Continuous
 62
     7
370
     0
100
AcDbEllipse
 10
75.97967457213304
 20
-139.0071460569164
 30
0.0
 11
1.012024660119958
 21
-1.239276437002417
 31
-0.0000000000000001
210
0.0
220
-0.0000000000000001
230
1.0
 40
0.816522346970277
 41
5.512404906888876
 42
5.959388935550237
  0
ELLIPSE
  5
879B
330
A
100
AcDbEntity
  8
0
  6
Continuous
 62
     7
370
     0
100
AcDbEllipse
 10
68.31590217645907
 20
-136.9136295655808
 30
0.0
 11
-6.000000000000003
 21
0.0
 31
0.0
210
0.0
220
0.0
230
1.0
 40
0.4082482904638632
 41
0.3793191437509988
 42
0.8482902934286864
  0
LINE
  5
879C
330
A
100
AcDbEntity
  8
0
  6
Continuous
 62
     7
370
     0
100
AcDbLine
 10
62.55624795686401
 20
-137.7826482525011
 30
0.0
 11
62.55624795686401
 21
-153.9768749695432
 31
0.0
  0
ELLIPSE
  5
879D
330
A
100
AcDbEntity
  8
0
  6
Continuous
 62
     7
370
     0
100
AcDbEllipse
 10
68.31590217645907
 20
-153.2905340349852
 30
0.0
 11
-6.000000000000003
 21
0.0
 31
0.0
210
0.0
220
0.0
230
1.0
 40
0.4082482904638632
 41
0.2839998583090355
 42
0.8482902934286807
  0
ELLIPSE
  5
879E
330
A
100
AcDbEntity
  8
0
  6
Continuous
 62
     7
370
     0
100
AcDbEllipse
 10
72.51980197928083
 20
-112.7954699131983
 30
0.0
 11
4.600000000000159
 21
0.0
 31
0.0
210
0.0
220
0.0
230
1.0
 40
0.4082482904639291
 41
3.873568228848745
 42
4.624040749200481
  0
LINE
  5
879F
330
A
100
AcDbEntity
  8
0
  6
Continuous
 62
     9
370
     0
100
AcDbLine
 10
67.03712351332104
 20
-130.8466131544462
 30
0.0
 11
67.03712351332104
 21
-138.6973031453536
 31
0.0
  0
LINE
  5
87A0
330
A
100
AcDbEntity
  8
0
  6
Continuous
 62
     7
370
     0
100
AcDbLine
 10
59.99782242671892
 20
-137.2604118280207
 30
0.0
 11
67.03712351332104
 21
-138.6973031453536
 31
0.0
  0
ELLIPSE
  5
87A1
330
A
100
AcDbEntity
  8
0
  6
Continuous
 62
     7
370
     0
100
AcDbEllipse
 10
59.99782242671892
 20
-137.9907085713609
 30
0.0
 11
-0.5059644256271147
 21
0.6196773353932679
 31
0.0
210
0.0000000000000001
220
0.0
230
1.0
 40
0.8164965809277259
 41
0.0000000000002371
 42
0.7853981633972748
  0
LINE
  5
87A2
330
A
100
AcDbEntity
  8
0
  6
Continuous
 62
     7
370
     0
100
AcDbLine
 10
59.2822806739191
 20
-154.4589001336829
 30
0.0
 11
59.2822806739191
 21
-137.8446492226929
 31
0.0
  0
LINE
  5
87A3
330
A
100
AcDbEntity
  8
0
  6
Continuous
 62
     7
370
     0
100
AcDbLine
 10
55.70457190991897
 20
-153.7286033903427
 30
0.0
 11
59.2822806739191
 21
-154.4589001336829
 31
0.0
  0
LINE
  5
87A4
330
A
100
AcDbEntity
  8
0
  6
Continuous
 62
     7
370
     0
100
AcDbLine
 10
55.70457190991897
 20
-95.30486392312498
 30
0.0
 11
55.70457190991897
 21
-153.7286033903427
 31
0.0
  0
LINE
  5
87A5
330
A
100
AcDbEntity
  8
0
  6
Continuous
 62
     7
370
     0
100
AcDbLine
 10
55.70457190991897
 20
-95.30486392312498
 30
0.0
 11
59.2822806739191
 21
-96.0351606664652
 31
0.0
  0
LINE
  5
87A6
330
A
100
AcDbEntity
  8
0
  6
Continuous
 62
     7
370
     0
100
AcDbLine
 10
59.2822806739191
 20
-96.0351606664652
 30
0.0
 11
59.2822806739191
 21
-112.6494115774552
 31
0.0
  0
ELLIPSE
  5
87A7
330
A
100
AcDbEntity
  8
0
  6
Continuous
 62
     7
370
     0
100
AcDbEllipse
 10
59.99782242671892
 20
-112.7954709261232
 30
0.0
 11
-0.5059644256271147
 21
0.6196773353932679
 31
0.0
210
0.0000000000000001
220
0.0
230
1.0
 40
0.8164965809277259
 41
0.7853981633972748
 42
2.356194490192243
  0
LINE
  5
87A8
330
A
100
AcDbEntity
  8
0
  6
Continuous
 62
     7
370
     0
100
AcDbLine
 10
59.99782242671892
 20
-113.5257676694635
 30
0.0
 11
67.03712351332104
 21
-114.9626589867964
 31
0.0
  0
LINE
  5
87A9
330
A
100
AcDbEntity
  8
0
  6
Continuous
 62
     9
370
     0
100
AcDbLine
 10
67.03712351332104
 20
-114.9626589867964
 30
0.0
 11
67.03712351332104
 21
-122.8133489777037
 31
0.0
  0
LINE
  5
87AA
330
A
100
AcDbEntity
  8
0
  6
Continuous
 62
     7
370
     0
100
AcDbLine
 10
67.03712351332104
 20
-122.8133489777037
 30
0.0
 11
61.71512263343903
 21
-121.7270000971742
 31
0.0
  0
LINE
  5
87AB
330
A
100
AcDbEntity
  8
0
  6
Continuous
 62
     7
370
     0
100
AcDbLine
 10
61.71512263343903
 20
-121.7270000971742
 30
0.0
 11
61.71512263343903
 21
-129.7602642739166
 31
0.0
  0
LINE
  5
87AC
330
A
100
AcDbEntity
  8
0
  6
Continuous
 62
     7
370
     0
100
AcDbLine
 10
61.71512263343903
 20
-129.7602642739166
 30
0.0
 11
67.03712351332104
 21
-130.8466131544462
 31
0.0
  0
LINE
  5
87AD
330
A
100
AcDbEntity
  8
0
  6
Continuous
 62
     7
370
     0
100
AcDbLine
 10
70.01540696591803
 20
-83.62011602968149
 30
0.0
 11
55.70457190991897
 21
-95.30486392312498
 31
0.0
  0
LINE
  5
87AE
330
A
100
AcDbEntity
  8
0
  6
Continuous
 62
     7
370
     0
100
AcDbLine
 10
72.193818034841
 20
-84.06478232708927
 30
0.0
 11
70.01540696591803
 21
-83.62011602968149
 31
0.0
  0
ELLIPSE
  5
87AF
330
A
100
AcDbEntity
  8
0
  6
Continuous
 62
     7
370
     0
100
AcDbEllipse
 10
71.83604715844206
 20
-84.35690102442546
 30
0.0
 11
-0.7999999999999119
 21
0.0
 31
0.0000000000000001
210
0.0000000000000001
220
0.0
230
1.0
 40
0.4082482904638626
 41
2.72336832401064
 42
3.141592653589792
  0
LINE
  5
87B0
330
A
100
AcDbEntity
  8
0
  6
Continuous
 62
     7
370
     0
100
AcDbLine
 10
66.03263402889798
 20
-90.49183224677758
 30
0.0
 11
72.56709639733799
 21
-84.48954529199168
 31
0.0
  0
ELLIPSE
  5
87B1
330
A
100
AcDbEntity
  8
0
  6
Continuous
 62
     7
370
     0
100
AcDbEllipse
 10
66.76368326779391
 20
-90.62447651434389
 30
0.0
 11
0.7999999999999119
 21
0.0
 31
0.0
210
0.0
220
0.0
230
1.0
 40
0.408248290463863
 41
2.723368324010528
 42
2.977126792383986
  0
LINE
  5
87B2
330
A
100
AcDbEntity
  8
0
  6
Continuous
 62
     7
370
     0
100
AcDbLine
 10
65.34193685740695
 20
-91.08747211105008
 30
0.0
 11
65.97447850925902
 21
-90.57100401501827
 31
0.0
  0
ELLIPSE
  5
87B3
330
A
100
AcDbEntity
  8
0
  6
Continuous
 62
     7
370
     0
100
AcDbEllipse
 10
68.94209433671801
 20
-94.72062652845286
 30
0.0
 11
9.600000000000052
 21
0.0
 31
0.0
210
0.0
220
0.0
230
1.0
 40
0.408248290463863
 41
3.141592653589792
 42
3.400679292402406
  0
LINE
  5
87B4
330
A
100
AcDbEntity
  8
0
  6
Continuous
 62
     7
370
     0
100
AcDbLine
 10
59.2822806739191
 20
-96.0351606664652
 30
0.0
 11
59.66250026563091
 21
-95.7247126698307
 31
0.0
  0
LINE
  5
87B5
330
A
100
AcDbEntity
  8
0
  6
Continuous
 62
     7
370
     0
100
AcDbLine
 10
59.66250026563091
 20
-95.7247126698307
 30
0.0
 11
59.66250026563091
 21
-112.3389635808208
 31
0.0
  0
LINE
  5
87B6
330
A
100
AcDbEntity
  8
0
  6
Continuous
 62
     9
370
     0
100
AcDbLine
 10
59.2822806739191
 20
-112.6494115774552
 30
0.0
 11
59.66250026563091
 21
-112.3389635808208
 31
0.0
  0
ELLIPSE
  5
87B7
330
A
100
AcDbEntity
  8
0
  6
Continuous
 62
     7
370
     0
100
AcDbEllipse
 10
73.23534485351775
 20
-112.9415302747914
 30
0.0
 11
-7.199999999999872
 21
0.0
 31
0.0
210
0.0
220
0.0
230
1.0
 40
0.408248290463863
 41
1.351914556140634
 42
1.969699849516264
  0
ELLIPSE
  5
87B8
330
A
100
AcDbEntity
  8
0
  6
Continuous
 62
     7
370
     0
100
AcDbEllipse
 10
71.93251559531313
 20
-115.3325773231212
 30
0.0
 11
-1.199999999999865
 21
0.0
 31
0.0
210
0.0
220
0.0
230
1.0
 40
0.408248290463863
 41
0.5693263248895386
 42
1.351914556140634
  0
ELLIPSE
  5
87B9
330
A
100
AcDbEntity
  8
0
  6
Continuous
 62
     7
370
     0
100
AcDbEllipse
 10
68.22655258391796
 20
-116.3008952941563
 30
0.0
 11
3.200000000000091
 21
0.0
 31
0.0
210
0.0
220
0.0
230
1.0
 40
0.4082482904638633
 41
0.5693263248894565
 42
1.719703456133381
  0
ELLIPSE
  5
87BA
330
A
100
AcDbEntity
  8
0
  6
Continuous
 62
     7
370
     0
100
AcDbEllipse
 10
67.57377982792082
 20
-114.5244809407923
 30
0.0
 11
-1.199999999999865
 21
0.0
 31
0.0
210
0.0
220
0.0
230
1.0
 40
0.4082482904638632
 41
1.107148717794147
 42
1.719703456133523
  0
LINE
  5
87BB
330
A
100
AcDbEntity
  8
0
  6
Continuous
 62
     9
370
     0
100
AcDbLine
 10
60.51664943173694
 20
-113.1021471937732
 30
0.0
 11
59.99782242671892
 21
-113.5257676694635
 31
0.0
  0
ELLIPSE
  5
87BC
330
A
100
AcDbEntity
  8
0
  6
Continuous
 62
     9
370
     0
100
AcDbEllipse
 10
68.94209433671801
 20
-112.0651741827831
 30
0.0
 11
-8.799999999999917
 21
0.0
 31
0.0
210
0.0
220
0.0
230
1.0
 40
0.4082482904638631
 41
5.524388456590688
 42
6.575994082847168
  0
LINE
  5
87BD
330
A
100
AcDbEntity
  8
0
  6
Continuous
 62
     9
370
     0
100
AcDbLine
 10
71.67194974367203
 20
-115.8107867327872
 30
0.0
 11
71.67194974367203
 21
-123.6614767236946
 31
0.0
  0
ELLIPSE
  5
87BE
330
A
100
AcDbEntity
  8
0
  6
Continuous
 62
     7
370
     0
100
AcDbEllipse
 10
73.23534485351775
 20
-120.7922202656987
 30
0.0
 11
7.200000000000094
 21
0.0
 31
0.0
210
0.0
220
0.0
230
1.0
 40
0.408248290463863
 41
4.493507209730431
 42
5.203680187872891
  0
ELLIPSE
  5
87BF
330
A
100
AcDbEntity
  8
0
  6
Continuous
 62
     7
370
     0
100
AcDbEllipse
 10
68.94209433671801
 20
-94.72062652845286
 30
0.0
 11
9.600000000000052
 21
0.0
 31
-0.0000000000000007
210
0.0000000000000001
220
0.0
230
1.0
 40
0.408248290463863
 41
1.955210796775553
 42
3.141592653589792
  0
ELLIPSE
  5
87C0
330
A
100
AcDbEntity
  8
0
  6
Continuous
 62
     9
370
     0
100
AcDbEllipse
 10
68.94209433671801
 20
-111.334877439443
 30
0.0
 11
9.600000000000052
 21
0.0
 31
-0.0000000000000007
210
0.0000000000000001
220
0.0
230
1.0
 40
0.408248290463863
 41
2.298547699866448
 42
2.882506014777174
  0
LINE
  5
87C1
330
A
100
AcDbEntity
  8
0
  6
Continuous
 62
     7
370
     0
100
AcDbLine
 10
65.34193685740695
 20
-91.08747211105008
 30
0.0
 11
65.34193685740695
 21
-95.44652698584087
 31
0.0
  0
LINE
  5
87C2
330
A
100
AcDbEntity
  8
0
  6
Continuous
 62
     9
370
     0
100
AcDbLine
 10
70.92179841038694
 20
-115.5966640424944
 30
0.0
 11
70.92179841038694
 21
-123.4473540334019
 31
0.0
  0
ELLIPSE
  5
87C3
330
A
100
AcDbEntity
  8
0
  6
Continuous
 62
     7
370
     0
100
AcDbEllipse
 10
71.93251559531313
 20
-123.1832673140287
 30
0.0
 11
1.200000000000089
 21
0.0
 31
0.0
210
0.0
220
0.0
230
1.0
 40
0.4082482904638633
 41
3.710918978479331
 42
4.493507209730426
  0
LINE
  5
87C4
330
A
100
AcDbEntity
  8
0
  6
Continuous
 62
     9
370
     0
100
AcDbLine
 10
67.75180876137494
 20
-115.0089575826188
 30
0.0
 11
67.75180876137494
 21
-122.8596475735262
 31
0.0
  0
ELLIPSE
  5
87C5
330
A
100
AcDbEntity
  8
0
  6
Continuous
 62
     7
370
     0
100
AcDbEllipse
 10
68.22655258391796
 20
-124.1515852850637
 30
0.0
 11
-3.199999999999868
 21
0.0
 31
0.0
210
0.0
220
0.0
230
1.0
 40
0.4082482904638628
 41
3.710918978479248
 42
4.861296109723173
  0
ELLIPSE
  5
87C6
330
A
100
AcDbEntity
  8
0
  6
Continuous
 62
     7
370
     0
100
AcDbEllipse
 10
67.57377982792082
 20
-122.3751709316996
 30
0.0
 11
1.200000000000089
 21
0.0
 31
0.0
210
0.0
220
0.0
230
1.0
 40
0.408248290463863
 41
4.248741371383927
 42
4.861296109723307
  0
ELLIPSE
  5
87C7
330
A
100
AcDbEntity
  8
0
  6
Continuous
 62
     7
370
     0
100
AcDbEllipse
 10
65.7221564491191
 20
-112.8685006004574
 30
0.0
 11
2.680000000000015
 21
0.0
 31
0.0
210
0.0
220
0.0
230
1.0
 40
0.408248290463863
 41
2.81201809995222
 42
3.605240262590631
  0
ELLIPSE
  5
87C8
330
A
100
AcDbEntity
  8
0
  6
Continuous
 62
     7
370
     0
100
AcDbEllipse
 10
65.7221564491191
 20
-112.8685006004574
 30
0.0
 11
2.680000000000015
 21
0.0
 31
0.0
210
0.0
220
0.0
230
1.0
 40
0.4082482904638633
 41
3.605240262590631
 42
5.404696691627063
  0
ELLIPSE
  5
87C9
330
A
100
AcDbEntity
  8
0
  6
Continuous
 62
     7
370
     0
100
AcDbEllipse
 10
65.72215644911875
 20
-113.0875896234594
 30
0.0
 11
-2.439999999999995
 21
0.0
 31
0.0
210
0.0
220
0.0
230
1.0
 40
0.4082482904638633
 41
6.101865532757706
 42
6.283185307179584
  0
ELLIPSE
  5
87CA
330
A
100
AcDbEntity
  8
0
  6
Continuous
 62
     7
370
     0
100
AcDbEllipse
 10
65.72215644911875
 20
-113.0875896234594
 30
0.0
 11
-2.439999999999995
 21
0.0
 31
0.0
210
0.0
220
0.0
230
1.0
 40
0.4082482904638633
 41
0.0
 42
0.3674503480291591
  0
LINE
  5
87CB
330
A
100
AcDbEntity
  8
0
  6
Continuous
 62
     7
370
     0
100
AcDbLine
 10
59.66250026563091
 20
-112.3389635808208
 30
0.0
 11
59.77822118732411
 21
-112.7113958856491
 31
0.0
  0
ELLIPSE
  5
87CC
330
A
100
AcDbEntity
  8
0
  6
Continuous
 62
     7
370
     0
100
AcDbEllipse
 10
73.23534485351775
 20
-128.8254844424412
 30
0.0
 11
-7.199999999999872
 21
0.0
 31
0.0
210
0.0
220
0.0
230
1.0
 40
0.408248290463863
 41
1.351914556140634
 42
2.058730017051102
  0
ELLIPSE
  5
87CD
330
A
100
AcDbEntity
  8
0
  6
Continuous
 62
     7
370
     0
100
AcDbEllipse
 10
71.93251559531313
 20
-131.2165314907711
 30
0.0
 11
-1.199999999999865
 21
0.0
 31
0.0000000000000001
210
0.0000000000000001
220
0.0
230
1.0
 40
0.408248290463863
 41
0.683520411871485
 42
1.351914556140634
  0
ELLIPSE
  5
87CE
330
A
100
AcDbEntity
  8
0
  6
Continuous
 62
     7
370
     0
100
AcDbEllipse
 10
68.22655258391785
 20
-132.1848494618061
 30
0.0
 11
3.200000000000091
 21
0.0
 31
0.0
210
0.0
220
0.0
230
1.0
 40
0.4082482904638633
 41
1.699868577502515
 42
1.719703456133381
  0
ELLIPSE
  5
87CF
330
A
100
AcDbEntity
  8
0
  6
Continuous
 62
     7
370
     0
100
AcDbEllipse
 10
68.22655258391785
 20
-132.1848494618061
 30
0.0
 11
3.200000000000091
 21
0.0
 31
0.0
210
0.0
220
0.0
230
1.0
 40
0.4082482904638631
 41
1.285676341391317
 42
1.699868577502515
  0
ELLIPSE
  5
87D0
330
A
100
AcDbEntity
  8
0
  6
Continuous
 62
     7
370
     0
100
AcDbEllipse
 10
67.57377982792082
 20
-130.4084351084421
 30
0.0
 11
-1.199999999999865
 21
0.0
 31
0.0
210
0.0
220
0.0
230
1.0
 40
0.4082482904638632
 41
1.107148717794157
 42
1.71970345613352
  0
LINE
  5
87D1
330
A
100
AcDbEntity
  8
0
  6
Continuous
 62
     7
370
     0
100
AcDbLine
 10
61.71512263343903
 20
-129.7602642739166
 30
0.0
 11
64.51980310071792
 21
-127.4702522617886
 31
0.0
  0
ELLIPSE
  5
87D2
330
A
100
AcDbEntity
  8
0
  6
Continuous
 62
     7
370
     0
100
AcDbEllipse
 10
73.23534485351775
 20
-136.6761744333486
 30
0.0
 11
-7.199999999999872
 21
0.0
 31
0.0
210
0.0
220
0.0
230
1.0
 40
0.408248290463863
 41
1.351914556140634
 42
2.080885433835808
  0
LINE
  5
87D3
330
A
100
AcDbEntity
  8
0
  6
Continuous
 62
     9
370
     0
100
AcDbLine
 10
71.67194974367203
 20
-131.6947409004371
 30
0.0
 11
71.67194974367203
 21
-139.5454308913445
 31
0.0
  0
ELLIPSE
  5
87F1
330
A
100
AcDbEntity
  8
0
  6
Continuous
 62
     7
370
     0
100
AcDbEllipse
 10
71.93251559531313
 20
-139.0672214816785
 30
0.0
 11
-1.199999999999865
 21
0.0
 31
0.0
210
0.0
220
0.0
230
1.0
 40
0.4082482904638632
 41
0.5693263248895386
 42
1.351914556140634
  0
LINE
  5
87F2
330
A
100
AcDbEntity
  8
0
  6
Continuous
 62
     9
370
     0
100
AcDbLine
 10
70.92179841038694
 20
-131.5021296624343
 30
0.0
 11
70.92179841038694
 21
-139.3313082010517
 31
0.0
  0
ELLIPSE
  5
87F3
330
A
100
AcDbEntity
  8
0
  6
Continuous
 62
     7
370
     0
100
AcDbEllipse
 10
68.22655258391796
 20
-140.0355394527136
 30
0.0
 11
3.200000000000091
 21
0.0
 31
0.0
210
0.0
220
0.0
230
1.0
 40
0.4082482904638633
 41
0.5693263248894565
 42
1.719703456133381
  0
LINE
  5
87F4
330
A
100
AcDbEntity
  8
0
  6
Continuous
 62
     9
370
     0
100
AcDbLine
 10
67.75180876137494
 20
-130.8929117502686
 30
0.0
 11
67.75180876137494
 21
-138.743601741176
 31
0.0
  0
ELLIPSE
  5
87F5
330
A
100
AcDbEntity
  8
0
  6
Continuous
 62
     7
370
     0
100
AcDbEllipse
 10
67.57377982792082
 20
-138.2591250993495
 30
0.0
 11
-1.199999999999865
 21
0.0
 31
0.0
210
0.0
220
0.0
230
1.0
 40
0.4082482904638632
 41
1.107148717794147
 42
1.719703456133523
  0
LINE
  5
87F6
330
A
100
AcDbEntity
  8
0
  6
Continuous
 62
     7
370
     0
100
AcDbLine
 10
65.97447850925902
 20
-95.57562363658687
 30
0.0
 11
65.97447850925902
 21
-90.57100401501827
 31
0.0
  0
LINE
  5
87F7
330
A
100
AcDbEntity
  8
0
  6
Continuous
 62
     9
370
     0
100
AcDbLine
 10
66.03263402889798
 20
-90.49183224677758
 30
0.0
 11
66.03263402889798
 21
-95.58749270921769
 31
0.0
  0
LINE
  5
87F8
330
A
100
AcDbEntity
  8
0
  6
Continuous
 62
     9
370
     0
100
AcDbLine
 10
72.56709639733799
 20
-84.48954529199168
 30
0.0
 11
72.56709639733799
 21
-92.17434475064218
 31
0.0
  0
ELLIPSE
  5
87F9
330
A
100
AcDbEntity
  8
0
  6
Continuous
 62
     7
370
     0
100
AcDbEllipse
 10
70.76347334384502
 20
-93.44924628891062
 30
0.0
 11
-0.7156375242909352
 21
-3.936273911043145
 31
0.0
210
0.0
220
0.0
230
1.0
 40
0.3709866613470835
 41
3.133609300136865
 42
4.318893316282328
  0
LINE
  5
87FA
330
A
100
AcDbEntity
  8
0
  6
Continuous
 62
     7
370
     0
100
AcDbLine
 10
59.72610019031799
 20
-137.2598338793853
 30
0.0
 11
59.66250026563091
 21
-137.5342012260584
 31
0.0
  0
ELLIPSE
  5
87FB
330
A
100
AcDbEntity
  8
0
  6
Continuous
 62
     7
370
     0
100
AcDbEllipse
 10
59.99782242671892
 20
-137.9907085713609
 30
0.0
 11
-0.5059644256271147
 21
0.6196773353932679
 31
0.0
210
0.0
220
0.0
230
1.0
 40
0.8164965809277267
 41
5.497787143782033
 42
6.283185307179824
  0
LINE
  5
87FC
330
A
100
AcDbEntity
  8
0
  6
Continuous
 62
     9
370
     0
100
AcDbLine
 10
59.66250026563091
 20
-137.5342012260584
 30
0.0
 11
59.2822806739191
 21
-137.8446492226929
 31
0.0
  0
LINE
  5
87FD
330
A
100
AcDbEntity
  8
0
  6
Continuous
 62
     7
370
     0
100
AcDbLine
 10
59.66250026563091
 20
-154.1484521370484
 30
0.0
 11
59.2822806739191
 21
-154.4589001336829
 31
0.0
  0
LINE
  5
87FE
330
A
100
AcDbEntity
  8
0
  6
Continuous
 62
     7
370
     0
100
AcDbLine
 10
59.66250026563091
 20
-154.1484521370484
 30
0.0
 11
59.66250026563091
 21
-137.5342012260584
 31
0.0
  0
ELLIPSE
  5
87FF
330
A
100
AcDbEntity
  8
0
  6
Continuous
 62
     7
370
     0
100
AcDbEllipse
 10
68.94209433671801
 20
-153.1443659956705
 30
0.0
 11
-9.599999999999829
 21
0.0
 31
0.0
210
0.0
220
0.0
230
1.0
 40
0.408248290463863
 41
5.440140353456239
 42
6.024098668366967
  0
ELLIPSE
  5
8800
330
A
100
AcDbEntity
  8
0
  6
Continuous
 62
     7
370
     0
100
AcDbEllipse
 10
70.76347334384502
 20
-93.44924628891062
 30
0.0
 11
-0.7156375242909352
 21
-3.936273911043145
 31
0.0
210
0.0
220
0.0
230
1.0
 40
0.3709866613470835
 41
1.977021551969059
 42
3.133609300136865
  0
ELLIPSE
  5
8801
330
A
100
AcDbEntity
  8
0
  6
Continuous
 62
     7
370
     0
100
AcDbEllipse
 10
70.04793159104451
 20
-93.30318694024255
 30
0.0
 11
-0.7999999999999119
 21
-3.919183588453111
 31
0.0
210
0.0000000000000001
220
0.0
230
1.0
 40
0.4082482904638633
 41
1.985000138515546
 42
2.929014041546071
  0
ELLIPSE
  5
8802
330
A
100
AcDbEntity
  8
0
  6
Continuous
 62
     7
370
     0
100
AcDbEllipse
 10
71.83604715844206
 20
-84.35690102442546
 30
0.0
 11
-0.7999999999999119
 21
0.0
 31
0.0
210
0.0
220
0.0
230
1.0
 40
0.408248290463863
 41
3.141592653589792
 42
4.248741371383851
  0
LINE
  5
8803
330
A
100
AcDbEntity
  8
0
  6
Continuous
 62
     7
370
     0
100
AcDbLine
 10
63.32215644911809
 20
-112.7589560891008
 30
0.0
 11
63.32215644914902
 21
-113.2672188713316
 31
0.0
  0
ARC
  5
8804
330
A
100
AcDbEntity
  8
0
  6
Continuous
 62
     7
370
     0
100
AcDbCircle
 10
72.52883339181392
 20
-114.562527461438
 30
0.0
 40
17.05663029655073
100
AcDbArc
 50
265.8944213700827
 51
283.9305204894686
  0
LINE
  5
8805
330
A
100
AcDbEntity
  8
0
  6
Continuous
 62
     7
370
     0
100
AcDbLine
 10
64.51980310071792
 20
-122.2995031002062
 30
0.0
 11
64.51980310071792
 21
-127.8760986760988
 31
0.0
  0
LINE
  5
8806
330
A
100
AcDbEntity
  8
0
  6
Continuous
 62
     7
370
     0
100
AcDbLine
 10
70.71078848607601
 20
-131.4100138070115
 30
0.0
 11
71.30767144597291
 21
-131.5753873202402
 31
0.0
  0
ARC
  5
8807
330
A
100
AcDbEntity
  8
0
  6
Continuous
 62
     7
370
     0
100
AcDbCircle
 10
68.06684884742901
 20
-137.2111923653229
 30
0.0
 40
6.375271717991611
100
AcDbArc
 50
65.49844408253467
 51
92.24042974811938
  0
LINE
  5
8808
330
A
100
AcDbEntity
  8
0
  6
Continuous
 62
     7
370
     0
100
AcDbLine
 10
67.23807173643308
 20
-130.7399682462886
 30
0.0
 11
67.8176209138428
 21
-130.8407940327739
 31
0.0
  0
LINE
  5
8809
330
A
100
AcDbEntity
  8
0
  6
Continuous
 62
     7
370
     0
100
AcDbLine
 10
64.51980310267413
 20
-127.8761871346346
 30
0.0
 11
64.51984273912001
 21
-127.8886904521293
 31
0.0
  0
ARC
  5
880A
330
A
100
AcDbEntity
  8
0
  6
Continuous
 62
     7
370
     0
100
AcDbCircle
 10
67.889123681971
 20
-127.3979630346998
 30
0.0
 40
3.404830020731433
100
AcDbArc
 50
188.2867201429094
 51
258.9763463364489
  0
LINE
  5
880B
330
A
100
AcDbEntity
  8
0
  6
Continuous
 62
     7
370
     0
100
AcDbLine
 10
68.45352347682797
 20
-94.92651765937008
 30
0.0
 11
68.09579776444775
 21
-95.21864557504578
 31
0.0
  0
LINE
  5
880C
330
A
100
AcDbEntity
  8
0
  6
Continuous
 62
     7
370
     0
100
AcDbLine
 10
99.48357122354117
 20
-155.4208945133683
 30
0.0
 11
99.84129693592104
 21
-155.1287665976926
 31
0.0
  0
LINE
  5
880D
330
A
100
AcDbEntity
  8
0
  6
Continuous
 62
     7
370
     0
100
AcDbLine
 10
68.45352347682797
 20
-94.92651765937049
 30
0.0
 11
68.095797764449
 21
-95.2186455750459
 31
0.0
  0
LINE
  5
880E
330
A
100
AcDbEntity
  8
0
  6
Continuous
 62
     7
370
     0
100
AcDbLine
 10
68.095797764449
 20
-95.2186455750459
 30
0.0
 11
67.73807205206799
 21
-95.51077349072187
 31
0.0
  0
LINE
  5
880F
330
A
100
AcDbEntity
  8
0
  6
Continuous
 62
     7
370
     0
100
AcDbLine
 10
99.12584551116118
 20
-155.7130224290431
 30
0.0
 11
99.48357122354117
 21
-155.4208945133677
 31
0.0
  0
LINE
  5
8810
330
A
100
AcDbEntity
  8
0
  6
Continuous
 62
     7
370
     0
100
AcDbLine
 10
99.48357122354117
 20
-155.4208945133677
 30
0.0
 11
99.84129693592104
 21
-155.1287665976916
 31
0.0
  0
LINE
  5
8811
330
A
100
AcDbEntity
  8
0
  6
Continuous
 62
     7
370
     0
100
AcDbLine
 10
101.167677827555
 20
-156.8261218617456
 30
0.0
 11
102.598580677075
 21
-155.6576101990428
 31
0.0
  0
LINE
  5
8812
330
A
100
AcDbEntity
  8
0
  6
Continuous
 62
     7
370
     0
100
AcDbLine
 10
96.517243566621
 20
-160.623784765536
 30
0.0
 11
97.94814641614095
 21
-159.4552731028332
 31
0.0
  0
LINE
  5
8813
330
A
100
AcDbEntity
  8
0
  6
Continuous
 62
     7
370
     0
100
AcDbLine
 10
72.63604715844213
 20
-92.18841704501018
 30
0.0
 11
72.63604715844213
 21
-84.35690102442537
 31
0.0
  0
LINE
  5
8814
330
A
100
AcDbEntity
  8
0
  6
Continuous
 62
     7
370
     0
100
AcDbLine
 10
-92.94151108792688
 20
-15.80000017568653
 30
0.0
 11
-92.94151108767085
 21
-11.80000017568636
 31
0.0
  0
LINE
  5
8815
330
A
100
AcDbEntity
  8
0
  6
Continuous
 62
     9
370
     0
100
AcDbLine
 10
-110.1909002196391
 20
-20.60000017491855
 30
0.0
 11
-111.739022400016
 21
-20.60000017491855
 31
0.0
  0
ELLIPSE
  5
8816
330
A
100
AcDbEntity
  8
0
  6
Continuous
 62
     9
370
     0
100
AcDbEllipse
 10
-110.7842712687943
 20
-20.6000001749186
 30
0.0
 11
0.0
 21
1.0
 31
0.0
210
0.0
220
0.0
230
1.0
 40
0.9547511312217196
 41
0.0
 42
1.570796326794896
  0
LINE
  5
8817
330
A
100
AcDbEntity
  8
0
  6
Continuous
 62
     7
370
     0
100
AcDbLine
 10
-110.7842712687943
 20
-19.60000017491855
 30
0.0
 11
-110.1908996190178
 21
-19.60000017491855
 31
0.0
  0
LINE
  5
8818
330
A
100
AcDbEntity
  8
0
  6
Continuous
 62
     9
370
     0
100
AcDbLine
 10
-111.739022400016
 20
-29.40000017491854
 30
0.0
 11
-110.1909002196391
 21
-29.40000017491854
 31
0.0
  0
LINE
  5
8819
330
A
100
AcDbEntity
  8
0
  6
Continuous
 62
     7
370
     0
100
AcDbLine
 10
-110.1908996190178
 20
-30.40000017491855
 30
0.0
 11
-110.7842712687943
 21
-30.40000017491855
 31
0.0
  0
ELLIPSE
  5
881A
330
A
100
AcDbEntity
  8
0
  6
Continuous
 62
     9
370
     0
100
AcDbEllipse
 10
-110.7842712687944
 20
-29.40000017491854
 30
0.0
 11
0.0
 21
1.0
 31
0.0
210
0.0
220
0.0
230
1.0
 40
0.9547511312217196
 41
1.570796326794896
 42
3.141592653589792
  0
LINE
  5
881B
330
A
100
AcDbEntity
  8
0
  6
Continuous
 62
     9
370
     0
100
AcDbLine
 10
-92.6439997755814
 20
-20.60000017491855
 30
0.0
 11
-93.18905209312777
 21
-20.60000017491855
 31
0.0
  0
ELLIPSE
  5
881C
330
A
100
AcDbEntity
  8
0
  6
Continuous
 62
     9
370
     0
100
AcDbEllipse
 10
-93.59875090680338
 20
-20.60000017491855
 30
0.0
 11
0.0
 21
-1.0
 31
0.0
210
0.0
220
0.0
230
1.0
 40
0.9547511312217196
 41
1.570796326794896
 42
2.69807899349055
  0
LINE
  5
881D
330
A
100
AcDbEntity
  8
0
  6
Continuous
 62
     9
370
     0
100
AcDbLine
 10
-92.6439997755814
 20
-20.60000017491855
 30
0.0
 11
-92.6439997755814
 21
-29.40000017491854
 31
0.0
  0
LINE
  5
881E
330
A
100
AcDbEntity
  8
0
  6
Continuous
 62
     9
370
     0
100
AcDbLine
 10
-93.18905209312777
 20
-29.40000017491854
 30
0.0
 11
-92.6439997755814
 21
-29.40000017491854
 31
0.0
  0
ELLIPSE
  5
881F
330
A
100
AcDbEntity
  8
0
  6
Continuous
 62
     9
370
     0
100
AcDbEllipse
 10
-93.59875090680338
 20
-29.4000001749186
 30
0.0
 11
0.0
 21
-1.0
 31
0.0
210
0.0
220
0.0
230
1.0
 40
0.9547511312217203
 41
0.4435136600992414
 42
1.570796326794896
  0
LINE
  5
8820
330
A
100
AcDbEntity
  8
0
  6
Continuous
 62
     9
370
     0
100
AcDbLine
 10
-111.739022400016
 20
-20.60000017491855
 30
0.0
 11
-111.739022400016
 21
-29.40000017491854
 31
0.0
  0
LINE
  5
8821
330
A
100
AcDbEntity
  8
0
  6
Continuous
 62
     7
370
     0
100
AcDbLine
 10
-110.8068957031834
 20
-19.60000017491855
 30
0.0
 11
-110.7842712687943
 21
-19.60000017491855
 31
0.0
  0
LINE
  5
8822
330
A
100
AcDbEntity
  8
0
  6
Continuous
 62
     9
370
     0
100
AcDbLine
 10
-111.739022400016
 20
-20.60000017491855
 30
0.0
 11
-111.8068957031834
 21
-20.60000017491855
 31
0.0
  0
LINE
  5
8823
330
A
100
AcDbEntity
  8
0
  6
Continuous
 62
     9
370
     0
100
AcDbLine
 10
-111.8068957031834
 20
-29.40000017491854
 30
0.0
 11
-111.739022400016
 21
-29.40000017491854
 31
0.0
  0
LINE
  5
8824
330
A
100
AcDbEntity
  8
0
  6
Continuous
 62
     9
370
     0
100
AcDbLine
 10
-92.5761264724141
 20
-20.60000017491855
 30
0.0
 11
-92.6439997755814
 21
-20.60000017491855
 31
0.0
  0
LINE
  5
8825
330
A
100
AcDbEntity
  8
0
  6
Continuous
 62
     9
370
     0
100
AcDbLine
 10
-92.6439997755814
 20
-29.40000017491854
 30
0.0
 11
-92.5761264724141
 21
-29.40000017491854
 31
0.0
  0
LINE
  5
8826
330
A
100
AcDbEntity
  8
0
  6
Continuous
 62
     7
370
     0
100
AcDbLine
 10
-110.7842712687943
 20
-30.40000017491855
 30
0.0
 11
-110.8068957031834
 21
-30.40000017491855
 31
0.0
  0
ELLIPSE
  5
8827
330
A
100
AcDbEntity
  8
0
  6
Continuous
 62
     7
370
     0
100
AcDbEllipse
 10
-92.8901565696707
 20
-50.00000017491927
 30
0.0
 11
0.0
 21
6.250000000000003
 31
0.0
210
0.0
220
0.0
230
1.0
 40
0.0000631176328295
 41
3.141592653588691
 42
6.283185307178483
  0
ELLIPSE
  5
8828
330
A
100
AcDbEntity
  8
0
  6
Continuous
 62
     9
370
     0
100
AcDbEllipse
 10
-91.44015657255897
 20
-50.00000017491932
 30
0.0
 11
0.0
 21
-5.412842109675047
 31
0.0
210
0.0
220
0.0
230
1.0
 40
0.0000631176328296
 41
0.0000364410477493
 42
3.14159265359049
  0
ELLIPSE
  5
8829
330
A
100
AcDbEntity
  8
0
  6
Continuous
 62
     7
370
     0
100
AcDbEllipse
 10
-91.19015657305727
 20
-50.00000017491932
 30
0.0
 11
0.0
 21
4.979829407782826
 31
0.0
210
0.0
220
0.0
230
1.0
 40
0.0000631176328295
 41
3.141592653589792
 42
6.283185307179584
  0
ELLIPSE
  5
882A
330
A
100
AcDbEntity
  8
0
  6
Continuous
 62
     7
370
     0
100
AcDbEllipse
 10
-92.8901565696707
 20
0.000001042659747
 30
0.0
 11
0.0
 21
6.249999999999976
 31
0.0
210
0.0
220
0.0
230
1.0
 40
0.0000631176407674
 41
3.141592653589792
 42
6.283185307179584
  0
ELLIPSE
  5
882B
330
A
100
AcDbEntity
  8
0
  6
Continuous
 62
     9
370
     0
100
AcDbEllipse
 10
-91.44015657255897
 20
0.000001042659747
 30
0.0
 11
0.0
 21
-5.412842109675073
 31
0.0
210
0.0
220
0.0
230
1.0
 40
0.0000631176407675
 41
0.0000364410440984
 42
3.141592653591412
  0
ELLIPSE
  5
882C
330
A
100
AcDbEntity
  8
0
  6
Continuous
 62
     7
370
     0
100
AcDbEllipse
 10
-91.19015657305727
 20
0.0000010426598465
 30
0.0
 11
0.0
 21
4.979829407782798
 31
0.0
210
0.0
220
0.0
230
1.0
 40
0.0000631176407674
 41
3.141592653591688
 42
6.283185307181479
  0
LINE
  5
882D
330
A
100
AcDbEntity
  8
0
  6
Continuous
 62
     7
370
     0
100
AcDbLine
 10
-97.69184503976795
 20
13.14999982509975
 30
0.0
 11
-97.68947812823933
 21
13.14999982509975
 31
0.0
  0
ELLIPSE
  5
882E
330
A
100
AcDbEntity
  8
0
  6
Continuous
 62
     7
370
     0
100
AcDbEllipse
 10
-97.68947812823945
 20
8.649999825100834
 30
0.0
 11
0.0
 21
4.500000000000001
 31
0.0
210
0.0
220
0.0
230
1.0
 40
0.0000631176407669
 41
4.712388980384688
 42
6.283185307179584
  0
LINE
  5
882F
330
A
100
AcDbEntity
  8
0
  6
Continuous
 62
     7
370
     0
100
AcDbLine
 10
-97.68919409885587
 20
8.649999825100763
 30
0.0
 11
-97.68919409885587
 21
-58.65000017488368
 31
0.0
  0
ELLIPSE
  5
8830
330
A
100
AcDbEntity
  8
0
  6
Continuous
 62
     7
370
     0
100
AcDbEllipse
 10
-97.68947812823945
 20
-58.65000017488371
 30
0.0
 11
0.0
 21
4.500000000000001
 31
0.0
210
0.0
220
0.0
230
1.0
 40
0.0000631176407669
 41
3.141592653589792
 42
4.712388980384683
  0
LINE
  5
8831
330
A
100
AcDbEntity
  8
0
  6
Continuous
 62
     7
370
     0
100
AcDbLine
 10
-97.68947812823933
 20
-63.15000017488267
 30
0.0
 11
-97.69184503976795
 21
-63.15000017488257
 31
0.0
  0
LINE
  5
8832
330
A
100
AcDbEntity
  8
0
  6
Continuous
 62
     9
370
     0
100
AcDbLine
 10
-97.18913098221094
 20
8.649999825100763
 30
0.0
 11
-97.68919409885587
 21
8.649999825100763
 31
0.0
  0
LINE
  5
8833
330
A
100
AcDbEntity
  8
0
  6
Continuous
 62
     9
370
     0
100
AcDbLine
 10
-97.18913098221094
 20
-58.65000017488368
 30
0.0
 11
-97.68919409885587
 21
-58.65000017488368
 31
0.0
  0
LINE
  5
8834
330
A
100
AcDbEntity
  8
0
  6
Continuous
 62
     7
370
     0
100
AcDbLine
 10
-97.18925045565242
 20
13.14999982509975
 30
0.0
 11
-97.68947812823933
 21
13.14999982509975
 31
0.0
  0
LINE
  5
8835
330
A
100
AcDbEntity
  8
0
  6
Continuous
 62
     7
370
     0
100
AcDbLine
 10
-97.18925045565242
 20
-63.15000017488267
 30
0.0
 11
-97.68947812823933
 21
-63.15000017488267
 31
0.0
  0
LINE
  5
8836
330
A
100
AcDbEntity
  8
0
  6
Continuous
 62
     7
370
     0
100
AcDbLine
 10
-98.69212906715961
 20
-55.5000001749193
 30
0.0
 11
-98.69212906715961
 21
-58.65000017488307
 31
0.0
  0
ELLIPSE
  5
8837
330
A
100
AcDbEntity
  8
0
  6
Continuous
 62
     7
370
     0
100
AcDbEllipse
 10
-98.69015664088545
 20
-50.25000017488476
 30
0.0
 11
0.0
 21
6.750000000000002
 31
0.0
210
0.0
220
0.0
230
1.0
 40
0.0000631176407669
 41
3.141592653589792
 42
4.71238898038471
  0
LINE
  5
8838
330
A
100
AcDbEntity
  8
0
  6
Continuous
 62
     7
370
     0
100
AcDbLine
 10
-98.68973059681048
 20
-50.00000017488467
 30
0.0
 11
-98.68973059681048
 21
-50.25000017488456
 31
0.0
  0
LINE
  5
8839
330
A
100
AcDbEntity
  8
0
  6
Continuous
 62
     7
370
     0
100
AcDbLine
 10
-98.68973059681048
 20
0.249999825102833
 30
0.0
 11
-98.68973059681048
 21
-50.00000017488467
 31
0.0
  0
ELLIPSE
  5
883A
330
A
100
AcDbEntity
  8
0
  6
Continuous
 62
     7
370
     0
100
AcDbEllipse
 10
-98.69015664088545
 20
0.2499998251027478
 30
0.0
 11
0.0
 21
6.750000000000002
 31
0.0
210
0.0
220
0.0
230
1.0
 40
0.0000631176407669
 41
0.0000000000000496
 42
0.6796738189191719
  0
LINE
  5
883B
330
A
100
AcDbEntity
  8
0
  6
Continuous
 62
     7
370
     0
100
AcDbLine
 10
-98.69212906715961
 20
8.649999825100152
 30
0.0
 11
-98.69212906715961
 21
5.499999825080635
 31
0.0
  0
ELLIPSE
  5
883C
330
A
100
AcDbEntity
  8
0
  6
Continuous
 62
     7
370
     0
100
AcDbEllipse
 10
-98.69184503777638
 20
8.649999825100238
 30
0.0
 11
0.0
 21
-4.500000000000001
 31
0.0
210
0.0
220
0.0
230
1.0
 40
0.000063117640767
 41
3.141592653589792
 42
4.712388980384701
  0
LINE
  5
883D
330
A
100
AcDbEntity
  8
0
  6
Continuous
 62
     7
370
     0
100
AcDbLine
 10
-98.68947812624719
 20
13.14999982509964
 30
0.0
 11
-98.69184503777615
 21
13.14999982509904
 31
0.0
  0
ELLIPSE
  5
883E
330
A
100
AcDbEntity
  8
0
  6
Continuous
 62
     7
370
     0
100
AcDbEllipse
 10
-98.68947812624719
 20
8.649999825100834
 30
0.0
 11
0.0
 21
-4.500000000000001
 31
0.0
210
0.0
220
0.0
230
1.0
 40
0.000063117640767
 41
1.570796326794908
 42
3.141592653589792
  0
LINE
  5
883F
330
A
100
AcDbEntity
  8
0
  6
Continuous
 62
     7
370
     0
100
AcDbLine
 10
-98.68919409686384
 20
-58.65000017488238
 30
0.0
 11
-98.68919409686384
 21
8.649999825100763
 31
0.0
  0
ELLIPSE
  5
8840
330
A
100
AcDbEntity
  8
0
  6
Continuous
 62
     7
370
     0
100
AcDbEllipse
 10
-98.68947812624719
 20
-58.65000017488252
 30
0.0
 11
0.0
 21
-4.500000000000001
 31
0.0
210
0.0
220
0.0
230
1.0
 40
0.000063117640767
 41
0.0000000000000247
 42
1.570796326794915
  0
LINE
  5
8841
330
A
100
AcDbEntity
  8
0
  6
Continuous
 62
     7
370
     0
100
AcDbLine
 10
-98.69184503777615
 20
-63.15000017488189
 30
0.0
 11
-98.68947812624719
 21
-63.15000017488138
 31
0.0
  0
ELLIPSE
  5
8842
330
A
100
AcDbEntity
  8
0
  6
Continuous
 62
     7
370
     0
100
AcDbEllipse
 10
-98.69184503777615
 20
-58.65000017488315
 30
0.0
 11
0.0
 21
-4.500000000000001
 31
0.0
210
0.0
220
0.0
230
1.0
 40
0.000063117640767
 41
4.712388980384706
 42
6.283185307179584
  0
LINE
  5
8843
330
A
100
AcDbEntity
  8
0
  6
Continuous
 62
     7
370
     0
100
AcDbLine
 10
-98.68947812624719
 20
-63.15000017488138
 30
0.0
 11
-97.68947812823933
 21
-63.15000017488138
 31
0.0
  0
LINE
  5
8844
330
A
100
AcDbEntity
  8
0
  6
Continuous
 62
     7
370
     0
100
AcDbLine
 10
-97.68947812823933
 20
-63.15000017488138
 30
0.0
 11
-97.18925045565242
 21
-63.15000017488138
 31
0.0
  0
LINE
  5
8845
330
A
100
AcDbEntity
  8
0
  6
Continuous
 62
     9
370
     0
100
AcDbLine
 10
-98.68919409686384
 20
-58.65000017488238
 30
0.0
 11
-97.68919409885587
 21
-58.65000017488238
 31
0.0
  0
LINE
  5
8846
330
A
100
AcDbEntity
  8
0
  6
Continuous
 62
     9
370
     0
100
AcDbLine
 10
-97.68919409885587
 20
-58.65000017488238
 30
0.0
 11
-97.18913098221094
 21
-58.65000017488238
 31
0.0
  0
LINE
  5
8847
330
A
100
AcDbEntity
  8
0
  6
Continuous
 62
     9
370
     0
100
AcDbLine
 10
-98.68919409686384
 20
8.649999825100763
 30
0.0
 11
-97.68919409885587
 21
8.649999825100763
 31
0.0
  0
LINE
  5
8848
330
A
100
AcDbEntity
  8
0
  6
Continuous
 62
     9
370
     0
100
AcDbLine
 10
-97.68919409885587
 20
8.649999825100763
 30
0.0
 11
-97.18913098221094
 21
8.649999825100763
 31
0.0
  0
LINE
  5
8849
330
A
100
AcDbEntity
  8
0
  6
Continuous
 62
     7
370
     0
100
AcDbLine
 10
-98.68947812624719
 20
13.14999982509964
 30
0.0
 11
-97.68947812823933
 21
13.14999982509964
 31
0.0
  0
LINE
  5
884A
330
A
100
AcDbEntity
  8
0
  6
Continuous
 62
     7
370
     0
100
AcDbLine
 10
-97.68947812823933
 20
13.14999982509964
 30
0.0
 11
-97.18925045565242
 21
13.14999982509964
 31
0.0
  0
ELLIPSE
  5
884B
330
A
100
AcDbEntity
  8
0
  6
Continuous
 62
     7
370
     0
100
AcDbEllipse
 10
-98.69015664088545
 20
-50.25000017488476
 30
0.0
 11
0.0
 21
6.750000000000002
 31
0.0
210
0.0
220
0.0
230
1.0
 40
0.0000631176407669
 41
2.461918834675916
 42
3.141592653589792
  0
ELLIPSE
  5
884C
330
A
100
AcDbEntity
  8
0
  6
Continuous
 62
     7
370
     0
100
AcDbEllipse
 10
-98.69015664088545
 20
0.2499998251027478
 30
0.0
 11
0.0
 21
6.750000000000002
 31
0.0
210
0.0
220
0.0
230
1.0
 40
0.0000631176407669
 41
4.712388980384703
 42
6.283185307179584
  0
LINE
  5
884D
330
A
100
AcDbEntity
  8
0
  6
Continuous
 62
     9
370
     0
100
AcDbLine
 10
-106.1890520672332
 20
8.649999825110441
 30
0.0
 11
-105.6891940829205
 21
8.649999825110441
 31
0.0
  0
LINE
  5
884E
330
A
100
AcDbEntity
  8
0
  6
Continuous
 62
     7
370
     0
100
AcDbLine
 10
-106.189122571174
 20
13.14999982511035
 30
0.0
 11
-105.6894781123039
 21
13.14999982511035
 31
0.0
  0
ELLIPSE
  5
884F
330
A
100
AcDbEntity
  8
0
  6
Continuous
 62
     7
370
     0
100
AcDbEllipse
 10
-105.6894781123038
 20
8.649999825110441
 30
0.0
 11
0.0
 21
-4.500000000000001
 31
0.0
210
0.0
220
0.0
230
1.0
 40
0.000063117640767
 41
1.570796326794896
 42
3.141592653589792
  0
LINE
  5
8850
330
A
100
AcDbEntity
  8
0
  6
Continuous
 62
     9
370
     0
100
AcDbLine
 10
-106.1890520672332
 20
-58.65000017488966
 30
0.0
 11
-105.6891940829205
 21
-58.65000017488966
 31
0.0
  0
LINE
  5
8851
330
A
100
AcDbEntity
  8
0
  6
Continuous
 62
     7
370
     0
100
AcDbLine
 10
-105.6891940829205
 20
-58.65000017488966
 30
0.0
 11
-105.6891940829205
 21
8.649999825110441
 31
0.0
  0
LINE
  5
8852
330
A
100
AcDbEntity
  8
0
  6
Continuous
 62
     7
370
     0
100
AcDbLine
 10
-106.189122571174
 20
-63.15000017488966
 30
0.0
 11
-105.6894781123039
 21
-63.15000017488966
 31
0.0
  0
ELLIPSE
  5
8853
330
A
100
AcDbEntity
  8
0
  6
Continuous
 62
     7
370
     0
100
AcDbEllipse
 10
-105.689478112304
 20
-58.65000017488963
 30
0.0
 11
0.0
 21
-4.500000000000001
 31
0.0
210
0.0
220
0.0
230
1.0
 40
0.0000631176407673
 41
0.0
 42
1.570796326794896
  0
LINE
  5
8854
330
A
100
AcDbEntity
  8
0
  6
Continuous
 62
     9
370
     0
100
AcDbLine
 10
-106.1890520672332
 20
8.649999825100763
 30
0.0
 11
-105.6891940829205
 21
8.649999825100763
 31
0.0
  0
LINE
  5
8855
330
A
100
AcDbEntity
  8
0
  6
Continuous
 62
     9
370
     0
100
AcDbLine
 10
-105.6891940829205
 20
8.649999825100763
 30
0.0
 11
-104.6891940849127
 21
8.649999825100763
 31
0.0
  0
LINE
  5
8856
330
A
100
AcDbEntity
  8
0
  6
Continuous
 62
     7
370
     0
100
AcDbLine
 10
-104.6891940849127
 20
-58.65000017488966
 30
0.0
 11
-104.6891940849127
 21
8.649999825100763
 31
0.0
  0
LINE
  5
8857
330
A
100
AcDbEntity
  8
0
  6
Continuous
 62
     7
370
     0
100
AcDbLine
 10
-106.1891225711742
 20
13.14999982510015
 30
0.0
 11
-105.6894781123046
 21
13.14999982510015
 31
0.0
  0
LINE
  5
8858
330
A
100
AcDbEntity
  8
0
  6
Continuous
 62
     7
370
     0
100
AcDbLine
 10
-105.6894781123046
 20
13.14999982510015
 30
0.0
 11
-104.6894781142961
 21
13.14999982510015
 31
0.0
  0
ELLIPSE
  5
8859
330
A
100
AcDbEntity
  8
0
  6
Continuous
 62
     7
370
     0
100
AcDbEllipse
 10
-104.6894781142961
 20
8.649999825100636
 30
0.0
 11
0.0
 21
-4.500000000000001
 31
0.0
210
0.0
220
0.0
230
1.0
 40
0.000063117640767
 41
1.570796326794896
 42
3.141592653589792
  0
LINE
  5
885A
330
A
100
AcDbEntity
  8
0
  6
Continuous
 62
     7
370
     0
100
AcDbLine
 10
-106.1891225711742
 20
-63.15000017488898
 30
0.0
 11
-105.6894781123046
 21
-63.15000017488898
 31
0.0
  0
LINE
  5
885B
330
A
100
AcDbEntity
  8
0
  6
Continuous
 62
     7
370
     0
100
AcDbLine
 10
-105.6894781123046
 20
-63.15000017488898
 30
0.0
 11
-104.6894781142961
 21
-63.15000017488898
 31
0.0
  0
LINE
  5
885C
330
A
100
AcDbEntity
  8
0
  6
Continuous
 62
     9
370
     0
100
AcDbLine
 10
-106.1890520672332
 20
-58.65000017488966
 30
0.0
 11
-105.6891940829209
 21
-58.65000017488966
 31
0.0
  0
LINE
  5
885D
330
A
100
AcDbEntity
  8
0
  6
Continuous
 62
     9
370
     0
100
AcDbLine
 10
-105.6891940829209
 20
-58.65000017488966
 30
0.0
 11
-104.6891940849127
 21
-58.65000017488966
 31
0.0
  0
ELLIPSE
  5
885E
330
A
100
AcDbEntity
  8
0
  6
Continuous
 62
     7
370
     0
100
AcDbEllipse
 10
-104.6894781142961
 20
-58.65000017488963
 30
0.0
 11
0.0
 21
-4.500000000000001
 31
0.0
210
0.0
220
0.0
230
1.0
 40
0.000063117640767
 41
0.0
 42
1.570796326794896
  0
ELLIPSE
  5
885F
330
A
100
AcDbEntity
  8
0
  6
Continuous
 62
     7
370
     0
100
AcDbEllipse
 10
-97.18936767336391
 20
-60.00000017491431
 30
0.0
 11
0.0
 21
-5.000000000000004
 31
0.0
210
0.0
220
0.0
230
1.0
 40
0.0000631176407675
 41
6.283185307179584
 42
7.853981633974482
  0
LINE
  5
8860
330
A
100
AcDbEntity
  8
0
  6
Continuous
 62
     7
370
     0
100
AcDbLine
 10
-97.18936767336391
 20
-65.00000017491188
 30
0.0
 11
-97.19220796719833
 21
-65.00000017491188
 31
0.0
  0
LINE
  5
8861
330
A
100
AcDbEntity
  8
0
  6
Continuous
 62
     7
370
     0
100
AcDbLine
 10
-97.19220796719833
 20
-65.00000017491188
 30
0.0
 11
-97.19220796719833
 21
-63.15000017488138
 31
0.0
  0
LINE
  5
8862
330
A
100
AcDbEntity
  8
0
  6
Continuous
 62
     7
370
     0
100
AcDbLine
 10
-97.19220796719833
 20
13.14999982509964
 30
0.0
 11
-97.19220796719833
 21
14.99999982504856
 31
0.0
  0
LINE
  5
8863
330
A
100
AcDbEntity
  8
0
  6
Continuous
 62
     7
370
     0
100
AcDbLine
 10
-97.19220796719833
 20
14.99999982504856
 30
0.0
 11
-97.18936767336391
 21
14.99999982504856
 31
0.0
  0
ELLIPSE
  5
8864
330
A
100
AcDbEntity
  8
0
  6
Continuous
 62
     7
370
     0
100
AcDbEllipse
 10
-97.18936767336391
 20
9.999999825051034
 30
0.0
 11
0.0
 21
-5.000000000000004
 31
0.0
210
0.0
220
0.0
230
1.0
 40
0.0000631176407673
 41
1.570796326794896
 42
3.141592653589792
  0
LINE
  5
8865
330
A
100
AcDbEntity
  8
0
  6
Continuous
 62
     7
370
     0
100
AcDbLine
 10
-97.18905208516003
 20
9.999999825051034
 30
0.0
 11
-97.18905208516003
 21
-60.00000017491439
 31
0.0
  0
ELLIPSE
  5
8866
330
A
100
AcDbEntity
  8
0
  6
Continuous
 62
     7
370
     0
100
AcDbEllipse
 10
-97.19187659958459
 20
9.749999825051148
 30
0.0
 11
0.0
 21
4.000000000000001
 31
0.0
210
0.0
220
0.0
230
1.0
 40
0.0000631176407674
 41
0.0000000000005834
 42
0.5548110329591746
  0
ELLIPSE
  5
8867
330
A
100
AcDbEntity
  8
0
  6
Continuous
 62
     7
370
     0
100
AcDbEllipse
 10
-97.19187659958459
 20
-59.75000017491455
 30
0.0
 11
0.0
 21
4.000000000000001
 31
0.0
210
0.0
220
0.0
230
1.0
 40
0.0000631176407674
 41
2.586781620620294
 42
3.141592653589792
  0
LINE
  5
8868
330
A
100
AcDbEntity
  8
0
  6
Continuous
 62
     7
370
     0
100
AcDbLine
 10
-97.19187659958448
 20
-63.75000017491248
 30
0.0
 11
-97.189383452774
 21
-63.75000017491259
 31
0.0
  0
ELLIPSE
  5
8869
330
A
100
AcDbEntity
  8
0
  6
Continuous
 62
     7
370
     0
100
AcDbEllipse
 10
-97.189383452774
 20
-59.75000017491455
 30
0.0
 11
0.0
 21
4.000000000000001
 31
0.0
210
0.0
220
0.0
230
1.0
 40
0.0000631176407674
 41
3.141592653589792
 42
4.712388980384688
  0
LINE
  5
886A
330
A
100
AcDbEntity
  8
0
  6
Continuous
 62
     7
370
     0
100
AcDbLine
 10
-97.18913098221094
 20
-59.75000017491449
 30
0.0
 11
-97.18913098221094
 21
9.749999825051148
 31
0.0
  0
ELLIPSE
  5
886B
330
A
100
AcDbEntity
  8
0
  6
Continuous
 62
     7
370
     0
100
AcDbEllipse
 10
-97.18938345277422
 20
9.749999825051148
 30
0.0
 11
0.0
 21
4.000000000000001
 31
0.0
210
0.0
220
0.0
230
1.0
 40
0.0000631176407674
 41
4.712388980384688
 42
6.283185307179584
  0
LINE
  5
886C
330
A
100
AcDbEntity
  8
0
  6
Continuous
 62
     7
370
     0
100
AcDbLine
 10
-97.189383452774
 20
13.74999982504916
 30
0.0
 11
-97.19187659958448
 21
13.74999982504916
 31
0.0
  0
LINE
  5
886D
330
A
100
AcDbEntity
  8
0
  6
Continuous
 62
     9
370
     0
100
AcDbLine
 10
-93.18905209312777
 20
9.999999825051034
 30
0.0
 11
-97.18905208516003
 21
9.999999825051034
 31
0.0
  0
LINE
  5
886E
330
A
100
AcDbEntity
  8
0
  6
Continuous
 62
     7
370
     0
100
AcDbLine
 10
-97.18936767336391
 20
14.99999982504856
 30
0.0
 11
-93.18936768133141
 21
14.99999982504856
 31
0.0
  0
ELLIPSE
  5
886F
330
A
100
AcDbEntity
  8
0
  6
Continuous
 62
     7
370
     0
100
AcDbEllipse
 10
-93.18936768133118
 20
9.999999825051034
 30
0.0
 11
0.0
 21
5.000000000000004
 31
0.0
210
0.0
220
0.0
230
1.0
 40
0.0000631176407674
 41
4.712388980384688
 42
6.283185307179584
  0
LINE
  5
8870
330
A
100
AcDbEntity
  8
0
  6
Continuous
 62
     9
370
     0
100
AcDbLine
 10
-97.18905208516003
 20
-60.00000017491439
 30
0.0
 11
-93.18905209312777
 21
-60.00000017491439
 31
0.0
  0
LINE
  5
8871
330
A
100
AcDbEntity
  8
0
  6
Continuous
 62
     7
370
     0
100
AcDbLine
 10
-93.18905209312777
 20
-60.00000017491439
 30
0.0
 11
-93.18905209312777
 21
9.999999825051034
 31
0.0
  0
ELLIPSE
  5
8872
330
A
100
AcDbEntity
  8
0
  6
Continuous
 62
     7
370
     0
100
AcDbEllipse
 10
-93.18936768133175
 20
-60.00000017491426
 30
0.0
 11
0.0
 21
5.000000000000004
 31
0.0
210
0.0
220
0.0
230
1.0
 40
0.0000631176407674
 41
3.141592653589792
 42
4.712388980384688
  0
LINE
  5
8873
330
A
100
AcDbEntity
  8
0
  6
Continuous
 62
     7
370
     0
100
AcDbLine
 10
-93.18936768133141
 20
-65.00000017491188
 30
0.0
 11
-97.18936767336391
 21
-65.00000017491188
 31
0.0
  0
LINE
  5
8874
330
A
100
AcDbEntity
  8
0
  6
Continuous
 62
     7
370
     0
100
AcDbLine
 10
-110.1919819982292
 20
-65.00000017491931
 30
0.0
 11
-110.1919819982292
 21
-42.57500017491928
 31
0.0
  0
LINE
  5
8875
330
A
100
AcDbEntity
  8
0
  6
Continuous
 62
     7
370
     0
100
AcDbLine
 10
-110.1910128290007
 20
-42.57500017491928
 30
0.0
 11
-110.1919819982292
 21
-42.57500017491928
 31
0.0
  0
ELLIPSE
  5
8876
330
A
100
AcDbEntity
  8
0
  6
Continuous
 62
     7
370
     0
100
AcDbEllipse
 10
-110.1910128290007
 20
-40.57500017491932
 30
0.0
 11
0.0
 21
2.0
 31
0.0
210
0.0
220
0.0
230
1.0
 40
0.0000631176407674
 41
3.141592653589848
 42
4.742522118791386
  0
ELLIPSE
  5
8877
330
A
100
AcDbEntity
  8
0
  6
Continuous
 62
     7
370
     0
100
AcDbEllipse
 10
-110.1583989112796
 20
-25.00000017491927
 30
0.0
 11
0.0
 21
-514.951041666664
 31
0.0
210
0.0
220
0.0
230
1.0
 40
0.0000631176407673
 41
4.682255841989579
 42
4.7425221187798
  0
ELLIPSE
  5
8878
330
A
100
AcDbEntity
  8
0
  6
Continuous
 62
     7
370
     0
100
AcDbEllipse
 10
-110.1910128290007
 20
-9.425000174919361
 30
0.0
 11
0.0
 21
2.0
 31
0.0
210
0.0
220
0.0
230
1.0
 40
0.0000631176407669
 41
4.682255841978203
 42
6.283185307179584
  0
LINE
  5
8879
330
A
100
AcDbEntity
  8
0
  6
Continuous
 62
     7
370
     0
100
AcDbLine
 10
-110.1919819982292
 20
-7.425000174919361
 30
0.0
 11
-110.1910128290007
 21
-7.425000174919361
 31
0.0
  0
LINE
  5
887A
330
A
100
AcDbEntity
  8
0
  6
Continuous
 62
     7
370
     0
100
AcDbLine
 10
-110.1919819982292
 20
-7.425000174919361
 30
0.0
 11
-110.1919819982292
 21
14.99999982508062
 31
0.0
  0
LINE
  5
887B
330
A
100
AcDbEntity
  8
0
  6
Continuous
 62
     7
370
     0
100
AcDbLine
 10
-110.1893676474694
 20
14.99999982508062
 30
0.0
 11
-110.1919819982292
 21
14.99999982508062
 31
0.0
  0
ELLIPSE
  5
887C
330
A
100
AcDbEntity
  8
0
  6
Continuous
 62
     7
370
     0
100
AcDbEllipse
 10
-110.1893676474694
 20
9.999999825080621
 30
0.0
 11
0.0
 21
-5.000000000000004
 31
0.0
210
0.0
220
0.0
230
1.0
 40
0.0000631176407668
 41
1.570796326794896
 42
3.141592653589792
  0
LINE
  5
887D
330
A
100
AcDbEntity
  8
0
  6
Continuous
 62
     7
370
     0
100
AcDbLine
 10
-110.1890520592654
 20
9.999999825080621
 30
0.0
 11
-110.1890520592654
 21
-60.00000017491938
 31
0.0
  0
ELLIPSE
  5
887E
330
A
100
AcDbEntity
  8
0
  6
Continuous
 62
     7
370
     0
100
AcDbEllipse
 10
-110.1893676474694
 20
-60.00000017491943
 30
0.0
 11
0.0
 21
-5.000000000000004
 31
0.0
210
0.0
220
0.0
230
1.0
 40
0.0000631176407673
 41
6.283185307179584
 42
7.853981633974482
  0
LINE
  5
887F
330
A
100
AcDbEntity
  8
0
  6
Continuous
 62
     7
370
     0
100
AcDbLine
 10
-110.1919819982292
 20
-65.00000017491931
 30
0.0
 11
-110.1893676474694
 21
-65.00000017491931
 31
0.0
  0
LINE
  5
8880
330
A
100
AcDbEntity
  8
0
  6
Continuous
 62
     9
370
     0
100
AcDbLine
 10
-110.1890520592654
 20
-60.00000017491938
 30
0.0
 11
-106.1890520672332
 21
-60.00000017491938
 31
0.0
  0
ELLIPSE
  5
8881
330
A
100
AcDbEntity
  8
0
  6
Continuous
 62
     7
370
     0
100
AcDbEllipse
 10
-106.1893676554369
 20
-60.00000017491943
 30
0.0
 11
0.0
 21
5.000000000000004
 31
0.0
210
0.0
220
0.0
230
1.0
 40
0.0000631176407674
 41
3.141592653589792
 42
4.712388980384688
  0
LINE
  5
8882
330
A
100
AcDbEntity
  8
0
  6
Continuous
 62
     7
370
     0
100
AcDbLine
 10
-106.1893676554369
 20
-65.00000017491931
 30
0.0
 11
-110.1893676474694
 21
-65.00000017491931
 31
0.0
  0
LINE
  5
8883
330
A
100
AcDbEntity
  8
0
  6
Continuous
 62
     9
370
     0
100
AcDbLine
 10
-106.1890520672332
 20
9.999999825080621
 30
0.0
 11
-110.1890520592654
 21
9.999999825080621
 31
0.0
  0
LINE
  5
8884
330
A
100
AcDbEntity
  8
0
  6
Continuous
 62
     7
370
     0
100
AcDbLine
 10
-110.1893676474694
 20
14.99999982508062
 30
0.0
 11
-106.1893676554369
 21
14.99999982508062
 31
0.0
  0
ELLIPSE
  5
8885
330
A
100
AcDbEntity
  8
0
  6
Continuous
 62
     7
370
     0
100
AcDbEllipse
 10
-106.1893676554368
 20
9.999999825080621
 30
0.0
 11
0.0
 21
5.000000000000004
 31
0.0
210
0.0
220
0.0
230
1.0
 40
0.0000631176407669
 41
4.712388980384688
 42
6.283185307179584
  0
LINE
  5
8886
330
A
100
AcDbEntity
  8
0
  6
Continuous
 62
     7
370
     0
100
AcDbLine
 10
-106.1890520672332
 20
-60.00000017491938
 30
0.0
 11
-106.1890520672332
 21
9.999999825080621
 31
0.0
  0
LINE
  5
8887
330
A
100
AcDbEntity
  8
0
  6
Continuous
 62
     9
370
     0
100
AcDbLine
 10
-98.68973059681048
 20
-50.00000017491929
 30
0.0
 11
-104.6891940849127
 21
-50.00000017491929
 31
0.0
  0
LINE
  5
8888
330
A
100
AcDbEntity
  8
0
  6
Continuous
 62
     9
370
     0
100
AcDbLine
 10
-98.68973059681048
 20
-0.0000001749194638
 30
0.0
 11
-104.6891940849127
 21
-0.0000001749193643
 31
0.0
  0
LINE
  5
8889
330
A
100
AcDbEntity
  8
0
  6
Continuous
 62
     9
370
     0
100
AcDbLine
 10
-110.9232579496839
 20
-8.75000017491854
 30
0.0
 11
-110.9232579496839
 21
-19.50000017491852
 31
0.0
  0
LINE
  5
888A
330
A
100
AcDbEntity
  8
0
  6
Continuous
 62
     7
370
     0
100
AcDbLine
 10
-110.9232579496839
 20
-8.75000017491854
 30
0.0
 11
-110.1908940005074
 21
-8.75000017491854
 31
0.0
  0
LINE
  5
888B
330
A
100
AcDbEntity
  8
0
  6
Continuous
 62
     7
370
     0
100
AcDbLine
 10
-110.1908995522134
 20
-19.50000017491852
 30
0.0
 11
-110.9232579496839
 21
-19.50000017491852
 31
0.0
  0
LINE
  5
888C
330
A
100
AcDbEntity
  8
0
  6
Continuous
 62
     9
370
     0
100
AcDbLine
 10
-110.9232579496839
 20
-30.50000017491854
 30
0.0
 11
-110.9232579496839
 21
-41.25000017491858
 31
0.0
  0
LINE
  5
888D
330
A
100
AcDbEntity
  8
0
  6
Continuous
 62
     7
370
     0
100
AcDbLine
 10
-110.9232579496839
 20
-30.50000017491854
 30
0.0
 11
-110.1908995522134
 21
-30.50000017491854
 31
0.0
  0
LINE
  5
888E
330
A
100
AcDbEntity
  8
0
  6
Continuous
 62
     7
370
     0
100
AcDbLine
 10
-110.9232579496839
 20
-41.25000017491858
 30
0.0
 11
-110.1908940005074
 21
-41.25000017491858
 31
0.0
  0
LINE
  5
888F
330
A
100
AcDbEntity
  8
0
  6
Continuous
 62
     7
370
     0
100
AcDbLine
 10
-110.9679668060365
 20
-41.25000017491858
 30
0.0
 11
-110.9232579496839
 21
-41.25000017491858
 31
0.0
  0
LINE
  5
8890
330
A
100
AcDbEntity
  8
0
  6
Continuous
 62
     7
370
     0
100
AcDbLine
 10
-110.9679668060365
 20
-30.50000017491854
 30
0.0
 11
-110.9232579496839
 21
-30.50000017491854
 31
0.0
  0
LINE
  5
8891
330
A
100
AcDbEntity
  8
0
  6
Continuous
 62
     7
370
     0
100
AcDbLine
 10
-110.9679668060365
 20
-8.75000017491854
 30
0.0
 11
-110.9232579496839
 21
-8.75000017491854
 31
0.0
  0
LINE
  5
8892
330
A
100
AcDbEntity
  8
0
  6
Continuous
 62
     7
370
     0
100
AcDbLine
 10
-110.9232579496839
 20
-19.50000017491852
 30
0.0
 11
-110.9679668060365
 21
-19.50000017491852
 31
0.0
  0
LINE
  5
8893
330
A
100
AcDbEntity
  8
0
  6
Continuous
 62
     7
370
     0
100
AcDbLine
 10
-111.1915110877988
 20
-8.75000017491854
 30
0.0
 11
-111.1915110877988
 21
-19.50000017491852
 31
0.0
  0
LINE
  5
8894
330
A
100
AcDbEntity
  8
0
  6
Continuous
 62
     7
370
     0
100
AcDbLine
 10
-111.1915110877988
 20
-8.75000017491854
 30
0.0
 11
-110.9679668060365
 21
-8.75000017491854
 31
0.0
  0
LINE
  5
8895
330
A
100
AcDbEntity
  8
0
  6
Continuous
 62
     7
370
     0
100
AcDbLine
 10
-110.9679668060365
 20
-19.50000017491852
 30
0.0
 11
-111.1915110877988
 21
-19.50000017491852
 31
0.0
  0
LINE
  5
8896
330
A
100
AcDbEntity
  8
0
  6
Continuous
 62
     7
370
     0
100
AcDbLine
 10
-111.1915110877988
 20
-30.50000017491854
 30
0.0
 11
-111.1915110877988
 21
-41.25000017491858
 31
0.0
  0
LINE
  5
8897
330
A
100
AcDbEntity
  8
0
  6
Continuous
 62
     7
370
     0
100
AcDbLine
 10
-111.1915110877988
 20
-30.50000017491854
 30
0.0
 11
-110.9679668060365
 21
-30.50000017491854
 31
0.0
  0
LINE
  5
8898
330
A
100
AcDbEntity
  8
0
  6
Continuous
 62
     7
370
     0
100
AcDbLine
 10
-111.1915110877988
 20
-41.25000017491858
 30
0.0
 11
-110.9679668060365
 21
-41.25000017491858
 31
0.0
  0
LINE
  5
8899
330
A
100
AcDbEntity
  8
0
  6
Continuous
 62
     7
370
     0
100
AcDbLine
 10
-111.1915110877988
 20
-19.50000017491852
 30
0.0
 11
-111.1915110877988
 21
-19.67692325184167
 31
0.0
  0
LINE
  5
889A
330
A
100
AcDbEntity
  8
0
  6
Continuous
 62
     7
370
     0
100
AcDbLine
 10
-111.1915110877988
 20
-30.3230770979955
 30
0.0
 11
-111.1915110877988
 21
-30.50000017491854
 31
0.0
  0
LINE
  5
889B
330
A
100
AcDbEntity
  8
0
  6
Continuous
 62
     9
370
     0
100
AcDbLine
 10
-110.190943849331
 20
-42.25000017491858
 30
0.0
 11
-111.1915110877988
 21
-42.25000017491858
 31
0.0
  0
LINE
  5
889C
330
A
100
AcDbEntity
  8
0
  6
Continuous
 62
     7
370
     0
100
AcDbLine
 10
-111.1915110877988
 20
-41.25000017491858
 30
0.0
 11
-111.1915110877988
 21
-42.25000017491858
 31
0.0
  0
LINE
  5
889D
330
A
100
AcDbEntity
  8
0
  6
Continuous
 62
     9
370
     0
100
AcDbLine
 10
-93.18905209312777
 20
-7.75000017491854
 30
0.0
 11
-92.4862494894279
 21
-7.75000017491854
 31
0.0
  0
LINE
  5
88AA
330
A
100
AcDbEntity
  8
0
  6
Continuous
 62
     9
370
     0
100
AcDbLine
 10
-92.4862494894279
 20
-42.25000017491858
 30
0.0
 11
-93.18905209312777
 21
-42.25000017491858
 31
0.0
  0
LINE
  5
88AB
330
A
100
AcDbEntity
  8
0
  6
Continuous
 62
     9
370
     0
100
AcDbLine
 10
-111.1915110877988
 20
-7.75000017491854
 30
0.0
 11
-110.190943849331
 21
-7.75000017491854
 31
0.0
  0
LINE
  5
88AC
330
A
100
AcDbEntity
  8
0
  6
Continuous
 62
     7
370
     0
100
AcDbLine
 10
-111.1915110877988
 20
-7.75000017491854
 30
0.0
 11
-111.1915110877988
 21
-8.75000017491854
 31
0.0
  0
LINE
  5
88AD
330
A
100
AcDbEntity
  8
0
  6
Continuous
 62
     7
370
     0
100
AcDbLine
 10
-92.23691874871747
 20
14.99999982508144
 30
0.0
 11
-92.4862494894279
 21
14.99999982508144
 31
0.0
  0
LINE
  5
88AE
330
A
100
AcDbEntity
  8
0
  6
Continuous
 62
     9
370
     0
100
AcDbLine
 10
-92.23691874871747
 20
14.99999982508144
 30
0.0
 11
-92.23691874871747
 21
5.872854014035539
 31
0.0
  0
LINE
  5
88AF
330
A
100
AcDbEntity
  8
0
  6
Continuous
 62
     9
370
     0
100
AcDbLine
 10
-92.23691874871747
 20
-5.872851928716158
 30
0.0
 11
-92.23691874871747
 21
-44.12714720354337
 31
0.0
  0
LINE
  5
88B0
330
A
100
AcDbEntity
  8
0
  6
Continuous
 62
     9
370
     0
100
AcDbLine
 10
-92.23691874871747
 20
-55.87285314629518
 30
0.0
 11
-92.23691874871747
 21
-65.00000017491858
 31
0.0
  0
LINE
  5
88B1
330
A
100
AcDbEntity
  8
0
  6
Continuous
 62
     7
370
     0
100
AcDbLine
 10
-92.23691874871747
 20
-65.00000017491858
 30
0.0
 11
-92.4862494894279
 21
-65.00000017491858
 31
0.0
  0
LINE
  5
88B2
330
A
100
AcDbEntity
  8
0
  6
Continuous
 62
     7
370
     0
100
AcDbLine
 10
-92.4862494894279
 20
-42.25000017491858
 30
0.0
 11
-92.4862494894279
 21
-43.98319603289465
 31
0.0
  0
LINE
  5
88B3
330
A
100
AcDbEntity
  8
0
  6
Continuous
 62
     7
370
     0
100
AcDbLine
 10
-92.4862494894279
 20
-56.01680431694389
 30
0.0
 11
-92.4862494894279
 21
-65.00000017491858
 31
0.0
  0
LINE
  5
88B4
330
A
100
AcDbEntity
  8
0
  6
Continuous
 62
     7
370
     0
100
AcDbLine
 10
-92.4862494894279
 20
-7.75000017491854
 30
0.0
 11
-92.4862494894279
 21
-6.016803099364864
 31
0.0
  0
LINE
  5
88B5
330
A
100
AcDbEntity
  8
0
  6
Continuous
 62
     7
370
     0
100
AcDbLine
 10
-92.4862494894279
 20
6.016805184684244
 30
0.0
 11
-92.4862494894279
 21
14.99999982508144
 31
0.0
  0
LINE
  5
88B6
330
A
100
AcDbEntity
  8
0
  6
Continuous
 62
     7
370
     0
100
AcDbLine
 10
-92.4862494894279
 20
-65.00000017491858
 30
0.0
 11
-93.18936768133141
 21
-65.00000017491858
 31
0.0
  0
LINE
  5
88B7
330
A
100
AcDbEntity
  8
0
  6
Continuous
 62
     7
370
     0
100
AcDbLine
 10
-106.1893676554369
 20
-65.00000017491858
 30
0.0
 11
-97.18936767336391
 21
-65.00000017491858
 31
0.0
  0
LINE
  5
88B8
330
A
100
AcDbEntity
  8
0
  6
Continuous
 62
     7
370
     0
100
AcDbLine
 10
-110.1919819982292
 20
-65.00000017491858
 30
0.0
 11
-111.1915110877988
 21
-65.00000017491858
 31
0.0
  0
LINE
  5
88B9
330
A
100
AcDbEntity
  8
0
  6
Continuous
 62
     7
370
     0
100
AcDbLine
 10
-111.1915110877988
 20
-65.00000017491858
 30
0.0
 11
-111.1915110877988
 21
-42.25000017491858
 31
0.0
  0
LINE
  5
88BA
330
A
100
AcDbEntity
  8
0
  6
Continuous
 62
     7
370
     0
100
AcDbLine
 10
-111.1915110877988
 20
14.99999982508144
 30
0.0
 11
-110.1919819982292
 21
14.99999982508144
 31
0.0
  0
LINE
  5
88BB
330
A
100
AcDbEntity
  8
0
  6
Continuous
 62
     7
370
     0
100
AcDbLine
 10
-111.1915110877988
 20
14.99999982508144
 30
0.0
 11
-111.1915110877988
 21
-7.75000017491854
 31
0.0
  0
LINE
  5
88BC
330
A
100
AcDbEntity
  8
0
  6
Continuous
 62
     7
370
     0
100
AcDbLine
 10
-97.18936767336391
 20
14.99999982508144
 30
0.0
 11
-106.1893676554369
 21
14.99999982508144
 31
0.0
  0
LINE
  5
88BD
330
A
100
AcDbEntity
  8
0
  6
Continuous
 62
     7
370
     0
100
AcDbLine
 10
-93.18936768133141
 20
14.99999982508144
 30
0.0
 11
-92.4862494894279
 21
14.99999982508144
 31
0.0
  0
LINE
  5
88BE
330
A
100
AcDbEntity
  8
0
  6
Continuous
 62
     9
370
     0
100
AcDbLine
 10
-72.1461034268799
 20
14.99999982508144
 30
0.0
 11
-72.1461034268799
 21
-65.00000017491858
 31
0.0
  0
CIRCLE
  5
88BF
330
A
100
AcDbEntity
  8
0
  6
Continuous
 62
     7
370
     0
100
AcDbCircle
 10
-77.69151108779863
 20
-55.00000017491849
 30
0.0
 40
5.000000000000004
  0
CIRCLE
  5
88C0
330
A
100
AcDbEntity
  8
0
  6
Continuous
 62
     7
370
     0
100
AcDbCircle
 10
-77.69151108779863
 20
4.999999825081459
 30
0.0
 40
5.000000000000004
  0
CIRCLE
  5
88C1
330
A
100
AcDbEntity
  8
0
  6
Continuous
 62
     7
370
     0
100
AcDbCircle
 10
-86.19151108779886
 20
-25.00000017491851
 30
0.0
 40
5.000000000000004
  0
LINE
  5
88C2
330
A
100
AcDbEntity
  8
0
  6
Continuous
 62
     7
370
     0
100
AcDbLine
 10
-92.23691874871747
 20
14.99999982508144
 30
0.0
 11
-72.1461034268799
 21
14.99999982508144
 31
0.0
  0
LINE
  5
88C3
330
A
100
AcDbEntity
  8
0
  6
Continuous
 62
     7
370
     0
100
AcDbLine
 10
-92.23691874871747
 20
-65.00000017491858
 30
0.0
 11
-72.1461034268799
 21
-65.00000017491858
 31
0.0
  0
LINE
  5
88C4
330
A
100
AcDbEntity
  8
0
  6
Continuous
 62
     7
370
     0
100
AcDbLine
 10
-71.19151108779885
 20
14.99999982508144
 30
0.0
 11
-71.19151108779885
 21
-65.00000017491858
 31
0.0
  0
LINE
  5
88C5
330
A
100
AcDbEntity
  8
0
  6
Continuous
 62
     7
370
     0
100
AcDbLine
 10
-72.1461034268799
 20
14.99999982508144
 30
0.0
 11
-71.19151108779885
 21
14.99999982508144
 31
0.0
  0
LINE
  5
88C6
330
A
100
AcDbEntity
  8
0
  6
Continuous
 62
     7
370
     0
100
AcDbLine
 10
-72.1461034268799
 20
-65.00000017491858
 30
0.0
 11
-71.19151108779885
 21
-65.00000017491858
 31
0.0
  0
CIRCLE
  5
88C7
330
A
100
AcDbEntity
  8
0
  6
Continuous
 62
     7
370
     0
100
AcDbCircle
 10
-86.19151108779886
 20
-25.00000017491851
 30
0.0
 40
2.64999999999993
  0
CIRCLE
  5
88C8
330
A
100
AcDbEntity
  8
0
  6
Continuous
 62
     7
370
     0
100
AcDbCircle
 10
-77.69151108779863
 20
-55.00000017491849
 30
0.0
 40
2.650000000000041
  0
CIRCLE
  5
88C9
330
A
100
AcDbEntity
  8
0
  6
Continuous
 62
     7
370
     0
100
AcDbCircle
 10
-77.69151108779863
 20
4.999999825081459
 30
0.0
 40
2.650000000000041
  0
LINE
  5
88CA
330
A
100
AcDbEntity
  8
0
  6
Continuous
 62
     7
370
     0
100
AcDbLine
 10
-93.18905209312777
 20
-16.29508218600935
 30
0.0
 11
-92.94151108792688
 21
-15.80000017568646
 31
0.0
  0
LINE
  5
88CB
330
A
100
AcDbEntity
  8
0
  6
Continuous
 62
     7
370
     0
100
AcDbLine
 10
-92.94151108767085
 20
-11.80000017568636
 30
0.0
 11
-93.18905209312777
 21
-11.30491816469315
 31
0.0
  0
ARC
  5
88CC
330
A
100
AcDbEntity
  8
0
  6
Continuous
 62
     7
370
     0
100
AcDbCircle
 10
-110.8068957031834
 20
-20.60000017491855
 30
0.0
 40
1.0
100
AcDbArc
 50
90.0
 51
180.0
  0
LINE
  5
88CD
330
A
100
AcDbEntity
  8
0
  6
Continuous
 62
     7
370
     0
100
AcDbLine
 10
-111.8068957031834
 20
-20.60000017491855
 30
0.0
 11
-111.8068957031834
 21
-29.40000017491854
 31
0.0
  0
ARC
  5
88CE
330
A
100
AcDbEntity
  8
0
  6
Continuous
 62
     7
370
     0
100
AcDbCircle
 10
-93.5761264724141
 20
-20.60000017491855
 30
0.0
 40
1.0
100
AcDbArc
 50
0.0
 51
67.38013505196089
  0
LINE
  5
88CF
330
A
100
AcDbEntity
  8
0
  6
Continuous
 62
     7
370
     0
100
AcDbLine
 10
-92.5761264724141
 20
-29.40000017491854
 30
0.0
 11
-92.5761264724141
 21
-20.60000017491855
 31
0.0
  0
ARC
  5
88D0
330
A
100
AcDbEntity
  8
0
  6
Continuous
 62
     7
370
     0
100
AcDbCircle
 10
-110.8068957031834
 20
-29.40000017491854
 30
0.0
 40
1.0
100
AcDbArc
 50
180.0
 51
270.0
  0
ARC
  5
88D1
330
A
100
AcDbEntity
  8
0
  6
Continuous
 62
     7
370
     0
100
AcDbCircle
 10
-93.5761264724141
 20
-29.40000017491854
 30
0.0
 40
1.000000000000009
100
AcDbArc
 50
292.6198649480454
 51
0.0000000000016284
  0
LINE
  5
88D2
330
A
100
AcDbEntity
  8
0
  6
Continuous
 62
     7
370
     0
100
AcDbLine
 10
-92.8901565696707
 20
-43.75000017491929
 30
0.0
 11
-93.18905209312777
 21
-43.75000017491929
 31
0.0
  0
LINE
  5
88D3
330
A
100
AcDbEntity
  8
0
  6
Continuous
 62
     7
370
     0
100
AcDbLine
 10
-93.18905209312777
 20
-56.2500001749193
 30
0.0
 11
-92.8901565696707
 21
-56.2500001749193
 31
0.0
  0
LINE
  5
88D4
330
A
100
AcDbEntity
  8
0
  6
Continuous
 62
     7
370
     0
100
AcDbLine
 10
-92.89015655529523
 20
-56.25000017076949
 30
0.0
 11
-91.44015656010925
 21
-55.41284228100037
 31
0.0
  0
LINE
  5
88D5
330
A
100
AcDbEntity
  8
0
  6
Continuous
 62
     7
370
     0
100
AcDbLine
 10
-91.44015656010925
 20
-44.58715806883815
 30
0.0
 11
-92.89015655529523
 21
-43.75000017906906
 31
0.0
  0
LINE
  5
8909
330
A
100
AcDbEntity
  8
0
  6
Continuous
 62
     7
370
     0
100
AcDbLine
 10
-92.8901565696707
 20
6.250001042659746
 30
0.0
 11
-93.18905209312777
 21
6.250001042659746
 31
0.0
  0
LINE
  5
890A
330
A
100
AcDbEntity
  8
0
  6
Continuous
 62
     7
370
     0
100
AcDbLine
 10
-93.18905209312777
 20
-6.249998957340253
 30
0.0
 11
-92.8901565696707
 21
-6.249998957340253
 31
0.0
  0
LINE
  5
890B
330
A
100
AcDbEntity
  8
0
  6
Continuous
 62
     7
370
     0
100
AcDbLine
 10
-92.89015655529523
 20
-6.249998953190456
 30
0.0
 11
-91.44015656010925
 21
-5.412841063421254
 31
0.0
  0
LINE
  5
890C
330
A
100
AcDbEntity
  8
0
  6
Continuous
 62
     7
370
     0
100
AcDbLine
 10
-91.44015656010925
 20
5.412843148740833
 30
0.0
 11
-92.89015655529523
 21
6.25000103850995
 31
0.0
  0
LINE
  5
8940
330
A
100
AcDbEntity
  8
0
  6
Continuous
 62
     7
370
     0
100
AcDbLine
 10
-104.6891940849127
 20
-55.5000001749193
 30
0.0
 11
-98.68988885541478
 21
-55.5000001749193
 31
0.0
  0
LINE
  5
8941
330
A
100
AcDbEntity
  8
0
  6
Continuous
 62
     7
370
     0
100
AcDbLine
 10
-98.68988885541478
 20
5.499999825080635
 30
0.0
 11
-104.6891940849127
 21
5.499999825080635
 31
0.0
  0
LINE
  5
8942
330
A
100
AcDbEntity
  8
0
  6
Continuous
 62
     7
370
     0
100
AcDbLine
 10
-110.9679668060365
 20
-30.50000017491854
 30
0.0
 11
-110.9679668060365
 21
-41.25000017491858
 31
0.0
  0
LINE
  5
8943
330
A
100
AcDbEntity
  8
0
  6
Continuous
 62
     7
370
     0
100
AcDbLine
 10
-110.9679668060365
 20
-8.75000017491854
 30
0.0
 11
-110.9679668060365
 21
-19.50000017491852
 31
0.0
  0
LINE
  5
8944
330
A
100
AcDbEntity
  8
0
  6
Continuous
 62
     9
370
     0
100
AcDbLine
 10
90.69310429681706
 20
-29.40000017491854
 30
0.0
 11
91.24061560903294
 21
-29.40000017491854
 31
0.0
  0
ELLIPSE
  5
8945
330
A
100
AcDbEntity
  8
0
  6
Continuous
 62
     9
370
     0
100
AcDbEllipse
 10
90.28586447781185
 20
-29.40000017491865
 30
0.0
 11
0.0
 21
-1.0
 31
0.0
210
0.0
220
0.0
230
1.0
 40
0.9547511312217203
 41
0.4406641748335425
 42
1.570796326794897
  0
LINE
  5
8946
330
A
100
AcDbEntity
  8
0
  6
Continuous
 62
     9
370
     0
100
AcDbLine
 10
91.24061560903294
 20
-20.60000017491855
 30
0.0
 11
90.69310429681706
 21
-20.60000017491855
 31
0.0
  0
LINE
  5
8947
330
A
100
AcDbEntity
  8
0
  6
Continuous
 62
     9
370
     0
100
AcDbLine
 10
91.24061560903294
 20
-20.60000017491855
 30
0.0
 11
91.24061560903294
 21
-29.40000017491854
 31
0.0
  0
ELLIPSE
  5
8948
330
A
100
AcDbEntity
  8
0
  6
Continuous
 62
     9
370
     0
100
AcDbEllipse
 10
90.28586447781185
 20
-20.60000017491852
 30
0.0
 11
0.0
 21
1.0
 31
0.0
210
0.0
220
0.0
230
1.0
 40
0.9547511312217196
 41
4.712388980384688
 42
5.842521132346042
  0
LINE
  5
8949
330
A
100
AcDbEntity
  8
0
  6
Continuous
 62
     9
370
     0
100
AcDbLine
 10
91.30848891220091
 20
-20.60000017491855
 30
0.0
 11
91.24061560903397
 21
-20.60000017491855
 31
0.0
  0
LINE
  5
894A
330
A
100
AcDbEntity
  8
0
  6
Continuous
 62
     9
370
     0
100
AcDbLine
 10
91.24061560903294
 20
-29.40000017491854
 30
0.0
 11
91.30848891220091
 21
-29.40000017491854
 31
0.0
  0
LINE
  5
894B
330
A
100
AcDbEntity
  8
0
  6
Continuous
 62
     7
370
     0
100
AcDbLine
 10
90.69310429681706
 20
14.99999982508144
 30
0.0
 11
90.69310429681706
 21
-65.00000017491858
 31
0.0
  0
LINE
  5
894C
330
A
100
AcDbEntity
  8
0
  6
Continuous
 62
     7
370
     0
100
AcDbLine
 10
50.69310429681706
 20
-65.00000017491858
 30
0.0
 11
90.69310429681706
 21
-65.00000017491858
 31
0.0
  0
CIRCLE
  5
894D
330
A
100
AcDbEntity
  8
0
  6
Continuous
 62
     7
370
     0
100
AcDbCircle
 10
57.19310429681593
 20
4.999999825081459
 30
0.0
 40
2.650000000000041
  0
CIRCLE
  5
894E
330
A
100
AcDbEntity
  8
0
  6
Continuous
 62
     7
370
     0
100
AcDbCircle
 10
65.69310429681593
 20
-25.00000017491851
 30
0.0
 40
2.650000000000041
  0
CIRCLE
  5
894F
330
A
100
AcDbEntity
  8
0
  6
Continuous
 62
     7
370
     0
100
AcDbCircle
 10
57.19310429681593
 20
-55.00000017491849
 30
0.0
 40
2.650000000000041
  0
LINE
  5
8950
330
A
100
AcDbEntity
  8
0
  6
Continuous
 62
     7
370
     0
100
AcDbLine
 10
50.69310429681706
 20
14.99999982508144
 30
0.0
 11
50.69310429681706
 21
-65.00000017491858
 31
0.0
  0
LINE
  5
8951
330
A
100
AcDbEntity
  8
0
  6
Continuous
 62
     7
370
     0
100
AcDbLine
 10
50.69310429681706
 20
14.99999982508144
 30
0.0
 11
90.69310429681706
 21
14.99999982508144
 31
0.0
  0
LINE
  5
8952
330
A
100
AcDbEntity
  8
0
  6
Continuous
 62
     7
370
     0
100
AcDbLine
 10
91.30848891220091
 20
-29.40000017491854
 30
0.0
 11
91.30848891220091
 21
-20.60000017491855
 31
0.0
  0
ARC
  5
8953
330
A
100
AcDbEntity
  8
0
  6
Continuous
 62
     7
370
     0
100
AcDbCircle
 10
90.30848891220092
 20
-29.40000017491854
 30
0.0
 40
1.000000000000034
100
AcDbArc
 50
292.6198649480454
 51
0.0000000000016284
  0
ARC
  5
8954
330
A
100
AcDbEntity
  8
0
  6
Continuous
 62
     7
370
     0
100
AcDbCircle
 10
90.30848891220092
 20
-20.60000017491855
 30
0.0
 40
0.9999999999998896
100
AcDbArc
 50
0.0
 51
67.38013505196089
  0
LINE
  5
8955
330
A
100
AcDbEntity
  8
0
  6
Continuous
 62
     7
370
     0
100
AcDbLine
 10
-27.0017321688564
 20
-116.9423078672266
 30
0.0
 11
-31.00173216885605
 21
-116.9423078672266
 31
0.0
  0
ARC
  5
8956
330
A
100
AcDbEntity
  8
0
  6
Continuous
 62
     7
370
     0
100
AcDbCircle
 10
-21.49945450868779
 20
-126.1923078672267
 30
0.0
 40
9.999999999999936
100
AcDbArc
 50
287.3018627087897
 51
306.8734894286756
  0
LINE
  5
8957
330
A
100
AcDbEntity
  8
0
  6
Continuous
 62
     9
370
     0
100
AcDbLine
 10
-18.766319003685
 20
-134.9663910177414
 30
0.0
 11
-18.52539537291306
 21
-135.7398191794439
 31
0.0
  0
ARC
  5
8958
330
A
100
AcDbEntity
  8
0
  6
Continuous
 62
     7
370
     0
100
AcDbCircle
 10
-21.49945450868779
 20
-126.1923078672267
 30
0.0
 40
9.999999999999991
100
AcDbArc
 50
64.16164976109751
 51
72.69813729121003
  0
LINE
  5
8959
330
A
100
AcDbEntity
  8
0
  6
Continuous
 62
     9
370
     0
100
AcDbLine
 10
-18.52539537291306
 20
-116.6447965550095
 30
0.0
 11
-18.69589135870831
 21
-117.1921334702325
 31
0.0
  0
LINE
  5
895A
330
A
100
AcDbEntity
  8
0
  6
Continuous
 62
     9
370
     0
100
AcDbLine
 10
-24.28824779192576
 20
-135.1450671109381
 30
0.0
 11
-24.4735136444624
 21
-135.7398191794438
 31
0.0
  0
ARC
  5
895B
330
A
100
AcDbEntity
  8
0
  6
Continuous
 62
     7
370
     0
100
AcDbCircle
 10
-21.49945450868779
 20
-126.1923078672267
 30
0.0
 40
10.00000000000002
100
AcDbArc
 50
244.1580672368318
 51
252.6981372912103
  0
ARC
  5
895C
330
A
100
AcDbEntity
  8
0
  6
Continuous
 62
     7
370
     0
100
AcDbCircle
 10
-21.49945450868779
 20
-126.1923078672267
 30
0.0
 40
10.00000000000002
100
AcDbArc
 50
107.30186270879
 51
115.8419327631682
  0
LINE
  5
895D
330
A
100
AcDbEntity
  8
0
  6
Continuous
 62
     9
370
     0
100
AcDbLine
 10
-24.30290741796387
 20
-117.1924873718586
 30
0.0
 11
-24.4735136444624
 21
-116.6447965550095
 31
0.0
  0
ARC
  5
895E
330
A
100
AcDbEntity
  8
0
  6
Continuous
 62
     7
370
     0
100
AcDbCircle
 10
-18.97150424327935
 20
-118.076923251842
 30
0.0
 40
1.500000000000006
100
AcDbArc
 50
72.69813729121027
 51
117.363061822351
  0
LINE
  5
895F
330
A
100
AcDbEntity
  8
0
  6
Continuous
 62
     9
370
     0
100
AcDbLine
 10
-19.6609452247543
 20
-116.7447554196742
 30
0.0
 11
-19.42938830407968
 21
-117.1921797668293
 31
0.0
  0
ARC
  5
8960
330
A
100
AcDbEntity
  8
0
  6
Continuous
 62
     7
370
     0
100
AcDbCircle
 10
-24.02740477409623
 20
-118.076923251842
 30
0.0
 40
1.500000000000011
100
AcDbArc
 50
62.63693817764932
 51
107.30186270879
  0
LINE
  5
8961
330
A
100
AcDbEntity
  8
0
  6
Continuous
 62
     9
370
     0
100
AcDbLine
 10
-23.56965595708448
 20
-117.1924410907562
 30
0.0
 11
-23.33796379262128
 21
-116.7447554196742
 31
0.0
  0
LINE
  5
8962
330
A
100
AcDbEntity
  8
0
  6
Continuous
 62
     9
370
     0
100
AcDbLine
 10
-23.7339864974623
 20
-134.8746480306636
 30
0.0
 11
-23.33796379262128
 21
-135.6398603147791
 31
0.0
  0
ARC
  5
8963
330
A
100
AcDbEntity
  8
0
  6
Continuous
 62
     7
370
     0
100
AcDbCircle
 10
-24.02740477409623
 20
-134.3076924826113
 30
0.0
 40
1.500000000000006
100
AcDbArc
 50
252.6981372912103
 51
297.3630618223511
  0
ARC
  5
8964
330
A
100
AcDbEntity
  8
0
  6
Continuous
 62
     7
370
     0
100
AcDbCircle
 10
-18.97150424327935
 20
-134.3076924826113
 30
0.0
 40
1.500000000000024
100
AcDbArc
 50
242.6369381776493
 51
287.3018627087899
  0
LINE
  5
8965
330
A
100
AcDbEntity
  8
0
  6
Continuous
 62
     9
370
     0
100
AcDbLine
 10
-19.2547978832672
 20
-134.8550847676507
 30
0.0
 11
-19.6609452247543
 21
-135.6398603147791
 31
0.0
  0
ARC
  5
8966
330
A
100
AcDbEntity
  8
0
  6
Continuous
 62
     7
370
     0
100
AcDbCircle
 10
-21.49945450868779
 20
-113.1923078672266
 30
0.0
 40
4.00000000000004
100
AcDbArc
 50
242.6369381776489
 51
270.0036163744278
  0
ARC
  5
8967
330
A
100
AcDbEntity
  8
0
  6
Continuous
 62
     7
370
     0
100
AcDbCircle
 10
-21.49945450868779
 20
-113.1923078672266
 30
0.0
 40
3.999999999999993
100
AcDbArc
 50
270.0036163744278
 51
297.3630618223507
  0
ARC
  5
8968
330
A
100
AcDbEntity
  8
0
  6
Continuous
 62
     7
370
     0
100
AcDbCircle
 10
-21.49945450868779
 20
-139.1923078672266
 30
0.0
 40
3.999999999999941
100
AcDbArc
 50
62.63693817764932
 51
117.363061822351
  0
LINE
  5
8969
330
A
100
AcDbEntity
  8
0
  6
Continuous
 62
     9
370
     0
100
AcDbLine
 10
5.412706395583541
 20
-115.4406117061632
 30
0.0
 11
-0.0001357032745091
 21
-115.440953351987
 31
0.0
  0
LINE
  5
896A
330
A
100
AcDbEntity
  8
0
  6
Continuous
 62
     7
370
     0
100
AcDbLine
 10
-6.250044170280602
 20
-116.8913478343535
 30
0.0
 11
6.249955804820388
 21
-116.890558863844
 31
0.0
  0
LINE
  5
896B
330
A
100
AcDbEntity
  8
0
  6
Continuous
 62
     9
370
     0
100
AcDbLine
 10
-0.0001357032745091
 20
-115.440953351987
 30
0.0
 11
-5.412977802202249
 21
-115.4412949978109
 31
0.0
  0
LINE
  5
896C
330
A
100
AcDbEntity
  8
0
  6
Continuous
 62
     7
370
     0
100
AcDbLine
 10
-4.979980880582616
 20
-115.1912676675686
 30
0.0
 11
-0.0001514826877838
 21
-115.190953352485
 31
0.0
  0
LINE
  5
896D
330
A
100
AcDbEntity
  8
0
  6
Continuous
 62
     7
370
     0
100
AcDbLine
 10
-0.0001514826877838
 20
-115.190953352485
 30
0.0
 11
4.979677915144065
 21
-115.1906390374014
 31
0.0
  0
LINE
  5
896E
330
A
100
AcDbEntity
  8
0
  6
Continuous
 62
     7
370
     0
100
AcDbLine
 10
-31.24977271450871
 20
-121.1929258495754
 30
0.0
 11
-31.24974115568853
 21
-121.6929258485794
 31
0.0
  0
LINE
  5
896F
330
A
100
AcDbEntity
  8
0
  6
Continuous
 62
     9
370
     0
100
AcDbLine
 10
-26.74977272347291
 20
-121.1926418201919
 30
0.0
 11
-26.74974116465296
 21
-121.692641819196
 31
0.0
  0
LINE
  5
8970
330
A
100
AcDbEntity
  8
0
  6
Continuous
 62
     7
370
     0
100
AcDbLine
 10
-31.24974115568944
 20
-121.6929258485794
 30
0.0
 11
-26.74974116465296
 21
-121.692641819196
 31
0.0
  0
LINE
  5
8971
330
A
100
AcDbEntity
  8
0
  6
Continuous
 62
     9
370
     0
100
AcDbLine
 10
10.75022720182096
 20
-121.1902749086631
 30
0.0
 11
10.75025876064148
 21
-121.6902749076672
 31
0.0
  0
LINE
  5
8972
330
A
100
AcDbEntity
  8
0
  6
Continuous
 62
     7
370
     0
100
AcDbLine
 10
-26.74974116465296
 20
-121.692641819196
 30
0.0
 11
10.75025876064148
 21
-121.6902749076672
 31
0.0
  0
LINE
  5
8973
330
A
100
AcDbEntity
  8
0
  6
Continuous
 62
     7
370
     0
100
AcDbLine
 10
15.25022719285664
 20
-121.1899908792797
 30
0.0
 11
15.25025875167694
 21
-121.6899908782837
 31
0.0
  0
LINE
  5
8974
330
A
100
AcDbEntity
  8
0
  6
Continuous
 62
     7
370
     0
100
AcDbLine
 10
10.75025876064148
 20
-121.6902749076672
 30
0.0
 11
15.25025875167773
 21
-121.6899908782837
 31
0.0
  0
LINE
  5
8975
330
A
100
AcDbEntity
  8
0
  6
Continuous
 62
     7
370
     0
100
AcDbLine
 10
15.25032186931662
 20
-122.6899908762918
 30
0.0
 11
15.25025875167569
 21
-121.6899908782837
 31
0.0
  0
LINE
  5
8976
330
A
100
AcDbEntity
  8
0
  6
Continuous
 62
     7
370
     0
100
AcDbLine
 10
15.25025875167569
 20
-121.6899908782837
 30
0.0
 11
15.25022719285539
 21
-121.1899908792797
 31
0.0
  0
LINE
  5
8977
330
A
100
AcDbEntity
  8
0
  6
Continuous
 62
     7
370
     0
100
AcDbLine
 10
15.2503218693173
 20
-122.6899908762918
 30
0.0
 11
10.75032187828105
 21
-122.6902749056753
 31
0.0
  0
LINE
  5
8978
330
A
100
AcDbEntity
  8
0
  6
Continuous
 62
     9
370
     0
100
AcDbLine
 10
10.75032187828105
 20
-122.6902749056753
 30
0.0
 11
10.75025876064012
 21
-121.6902749076672
 31
0.0
  0
LINE
  5
8979
330
A
100
AcDbEntity
  8
0
  6
Continuous
 62
     9
370
     0
100
AcDbLine
 10
10.75025876064012
 20
-121.6902749076672
 30
0.0
 11
10.75022720182028
 21
-121.1902749086631
 31
0.0
  0
LINE
  5
897A
330
A
100
AcDbEntity
  8
0
  6
Continuous
 62
     9
370
     0
100
AcDbLine
 10
-26.74967804701259
 20
-122.692641817204
 30
0.0
 11
-26.74974116465342
 21
-121.692641819196
 31
0.0
  0
LINE
  5
897B
330
A
100
AcDbEntity
  8
0
  6
Continuous
 62
     9
370
     0
100
AcDbLine
 10
-26.74974116465342
 20
-121.692641819196
 30
0.0
 11
-26.74977272347383
 21
-121.1926418201919
 31
0.0
  0
LINE
  5
897C
330
A
100
AcDbEntity
  8
0
  6
Continuous
 62
     7
370
     0
100
AcDbLine
 10
10.75032187828105
 20
-122.6902749056753
 30
0.0
 11
-26.74967804701259
 21
-122.692641817204
 31
0.0
  0
LINE
  5
897D
330
A
100
AcDbEntity
  8
0
  6
Continuous
 62
     7
370
     0
100
AcDbLine
 10
-31.24967803804782
 20
-122.6929258465875
 30
0.0
 11
-31.24974115568864
 21
-121.6929258485794
 31
0.0
  0
LINE
  5
897E
330
A
100
AcDbEntity
  8
0
  6
Continuous
 62
     7
370
     0
100
AcDbLine
 10
-31.24974115568864
 20
-121.6929258485794
 30
0.0
 11
-31.24977271450894
 21
-121.1929258495754
 31
0.0
  0
LINE
  5
897F
330
A
100
AcDbEntity
  8
0
  6
Continuous
 62
     7
370
     0
100
AcDbLine
 10
-26.74967804701259
 20
-122.692641817204
 30
0.0
 11
-31.24967803804873
 21
-122.6929258465875
 31
0.0
  0
LINE
  5
8980
330
A
100
AcDbEntity
  8
0
  6
Continuous
 62
     9
370
     0
100
AcDbLine
 10
10.75079526058766
 20
-130.1902748907364
 30
0.0
 11
10.75076370176714
 21
-129.6902748917318
 31
0.0
  0
LINE
  5
8981
330
A
100
AcDbEntity
  8
0
  6
Continuous
 62
     9
370
     0
100
AcDbLine
 10
-26.74920466471542
 20
-130.1926418022651
 30
0.0
 11
-26.74923622353572
 21
-129.6926418032606
 31
0.0
  0
LINE
  5
8982
330
A
100
AcDbEntity
  8
0
  6
Continuous
 62
     7
370
     0
100
AcDbLine
 10
10.75076370176714
 20
-129.6902748917318
 30
0.0
 11
-26.74923622353572
 21
-129.6926418032606
 31
0.0
  0
LINE
  5
8983
330
A
100
AcDbEntity
  8
0
  6
Continuous
 62
     7
370
     0
100
AcDbLine
 10
-31.24920465575144
 20
-130.1929258316486
 30
0.0
 11
-31.24923621457197
 21
-129.6929258326441
 31
0.0
  0
LINE
  5
8984
330
A
100
AcDbEntity
  8
0
  6
Continuous
 62
     7
370
     0
100
AcDbLine
 10
-26.74923622353572
 20
-129.6926418032606
 30
0.0
 11
-31.24923621457197
 21
-129.6929258326441
 31
0.0
  0
LINE
  5
8985
330
A
100
AcDbEntity
  8
0
  6
Continuous
 62
     7
370
     0
100
AcDbLine
 10
15.25079525162425
 20
-130.1899908613529
 30
0.0
 11
15.2507636928035
 21
-129.6899908623484
 31
0.0
  0
LINE
  5
8986
330
A
100
AcDbEntity
  8
0
  6
Continuous
 62
     7
370
     0
100
AcDbLine
 10
15.2507636928035
 20
-129.6899908623484
 30
0.0
 11
10.75076370176714
 21
-129.6902748917318
 31
0.0
  0
LINE
  5
8987
330
A
100
AcDbEntity
  8
0
  6
Continuous
 62
     9
370
     0
100
AcDbLine
 10
-26.74920466469803
 20
-130.1926418022651
 30
0.0
 11
-26.74923622351832
 21
-129.6926418032612
 31
0.0
  0
LINE
  5
8988
330
A
100
AcDbEntity
  8
0
  6
Continuous
 62
     9
370
     0
100
AcDbLine
 10
-26.74923622351832
 20
-129.6926418032612
 30
0.0
 11
-26.74929934115903
 21
-128.692641805253
 31
0.0
  0
LINE
  5
8989
330
A
100
AcDbEntity
  8
0
  6
Continuous
 62
     7
370
     0
100
AcDbLine
 10
10.75070058412791
 20
-128.6902748937243
 30
0.0
 11
-26.74929934115903
 21
-128.692641805253
 31
0.0
  0
LINE
  5
898A
330
A
100
AcDbEntity
  8
0
  6
Continuous
 62
     7
370
     0
100
AcDbLine
 10
-31.24920465573246
 20
-130.1929258316486
 30
0.0
 11
-31.24923621455276
 21
-129.6929258326446
 31
0.0
  0
LINE
  5
898B
330
A
100
AcDbEntity
  8
0
  6
Continuous
 62
     7
370
     0
100
AcDbLine
 10
-31.24923621455276
 20
-129.6929258326446
 30
0.0
 11
-31.24929933219346
 21
-128.6929258346365
 31
0.0
  0
LINE
  5
898C
330
A
100
AcDbEntity
  8
0
  6
Continuous
 62
     7
370
     0
100
AcDbLine
 10
-26.74929934115903
 20
-128.692641805253
 30
0.0
 11
-31.24929933219176
 21
-128.6929258346365
 31
0.0
  0
LINE
  5
898D
330
A
100
AcDbEntity
  8
0
  6
Continuous
 62
     7
370
     0
100
AcDbLine
 10
15.25079525162334
 20
-130.1899908613532
 30
0.0
 11
15.25076369280316
 21
-129.689990862349
 31
0.0
  0
LINE
  5
898E
330
A
100
AcDbEntity
  8
0
  6
Continuous
 62
     7
370
     0
100
AcDbLine
 10
15.25076369280316
 20
-129.689990862349
 30
0.0
 11
15.25070057516223
 21
-128.6899908643408
 31
0.0
  0
LINE
  5
898F
330
A
100
AcDbEntity
  8
0
  6
Continuous
 62
     9
370
     0
100
AcDbLine
 10
10.75079526058903
 20
-130.1902748907364
 30
0.0
 11
10.75076370176907
 21
-129.6902748917324
 31
0.0
  0
LINE
  5
8990
330
A
100
AcDbEntity
  8
0
  6
Continuous
 62
     9
370
     0
100
AcDbLine
 10
10.75076370176907
 20
-129.6902748917324
 30
0.0
 11
10.75070058412791
 21
-128.6902748937243
 31
0.0
  0
LINE
  5
8991
330
A
100
AcDbEntity
  8
0
  6
Continuous
 62
     7
370
     0
100
AcDbLine
 10
15.25070057516154
 20
-128.6899908643408
 30
0.0
 11
10.75070058412791
 21
-128.6902748937243
 31
0.0
  0
LINE
  5
8992
330
A
100
AcDbEntity
  8
0
  6
Continuous
 62
     7
370
     0
100
AcDbLine
 10
-32.4997727120126
 20
-121.1930047466264
 30
0.0
 11
-32.49988941776178
 21
-119.3439852367166
 31
0.0
  0
ARC
  5
8993
330
A
100
AcDbEntity
  8
0
  6
Continuous
 62
     7
370
     0
100
AcDbCircle
 10
-26.99956759063832
 20
-124.4426575931284
 30
0.0
 40
7.500000000000002
100
AcDbArc
 50
104.8387279564036
 51
137.1701883083506
  0
LINE
  5
8994
330
A
100
AcDbEntity
  8
0
  6
Continuous
 62
     7
370
     0
100
AcDbLine
 10
-28.9203116266749
 20
-117.1927788115193
 30
0.0
 11
12.49997472776556
 21
-117.1901644607595
 31
0.0
  0
LINE
  5
8995
330
A
100
AcDbEntity
  8
0
  6
Continuous
 62
     9
370
     0
100
AcDbLine
 10
12.50022719832884
 20
-121.1901644527918
 30
0.0
 11
12.49997472776556
 21
-117.1901644607595
 31
0.0
  0
LINE
  5
8996
330
A
100
AcDbEntity
  8
0
  6
Continuous
 62
     7
370
     0
100
AcDbLine
 10
-32.4997727120126
 20
-121.1930047466264
 30
0.0
 11
12.50022719832884
 21
-121.1901644527918
 31
0.0
  0
LINE
  5
8997
330
A
100
AcDbEntity
  8
0
  6
Continuous
 62
     7
370
     0
100
AcDbLine
 10
17.49997471780352
 20
-117.1898488725557
 30
0.0
 11
17.50022718836703
 21
-121.189848864588
 31
0.0
  0
LINE
  5
8998
330
A
100
AcDbEntity
  8
0
  6
Continuous
 62
     7
370
     0
100
AcDbLine
 10
12.49997472776556
 20
-117.1901644607595
 30
0.0
 11
17.49997471780625
 21
-117.1898488725557
 31
0.0
  0
LINE
  5
8999
330
A
100
AcDbEntity
  8
0
  6
Continuous
 62
     7
370
     0
100
AcDbLine
 10
17.50022718836931
 20
-121.189848864588
 30
0.0
 11
12.50022719832884
 21
-121.1901644527918
 31
0.0
  0
CIRCLE
  5
899A
330
A
100
AcDbEntity
  8
0
  6
Continuous
 62
     7
370
     0
100
AcDbCircle
 10
-21.49945714573573
 20
-126.1923104426188
 30
0.0
 40
1.772059531467596
  0
LINE
  5
899B
330
A
100
AcDbEntity
  8
0
  6
Continuous
 62
     7
370
     0
100
AcDbLine
 10
17.50079524714237
 20
-130.1898488466612
 30
0.0
 11
17.50104771770554
 21
-134.1898488386935
 31
0.0
  0
LINE
  5
899C
330
A
100
AcDbEntity
  8
0
  6
Continuous
 62
     7
370
     0
100
AcDbLine
 10
17.50104771770554
 20
-134.1898488386935
 30
0.0
 11
12.50104772766497
 21
-134.1901644268974
 31
0.0
  0
LINE
  5
899D
330
A
100
AcDbEntity
  8
0
  6
Continuous
 62
     9
370
     0
100
AcDbLine
 10
12.50104772766497
 20
-134.1901644268974
 30
0.0
 11
12.50079525710157
 21
-130.1901644348651
 31
0.0
  0
LINE
  5
899E
330
A
100
AcDbEntity
  8
0
  6
Continuous
 62
     7
370
     0
100
AcDbLine
 10
12.50079525710157
 20
-130.1901644348651
 30
0.0
 11
17.50079524714237
 21
-130.1898488466612
 31
0.0
  0
ARC
  5
899F
330
A
100
AcDbEntity
  8
0
  6
Continuous
 62
     7
370
     0
100
AcDbCircle
 10
-26.9994097965498
 20
-126.9426575881491
 30
0.0
 40
7.500000000000013
100
AcDbArc
 50
222.8370444404979
 51
255.1685047924514
  0
LINE
  5
89A0
330
A
100
AcDbEntity
  8
0
  6
Continuous
 62
     7
370
     0
100
AcDbLine
 10
-32.49908794751218
 20
-132.0420242386093
 30
0.0
 11
-32.4992046532617
 21
-130.1930047286996
 31
0.0
  0
LINE
  5
89A1
330
A
100
AcDbEntity
  8
0
  6
Continuous
 62
     7
370
     0
100
AcDbLine
 10
12.50079525710157
 20
-130.1901644348651
 30
0.0
 11
-32.4992046532617
 21
-130.1930047286996
 31
0.0
  0
LINE
  5
89A2
330
A
100
AcDbEntity
  8
0
  6
Continuous
 62
     7
370
     0
100
AcDbLine
 10
12.50104772766497
 20
-134.1901644268974
 30
0.0
 11
-28.91923862679642
 21
-134.1927787776572
 31
0.0
  0
LINE
  5
89A3
330
A
100
AcDbEntity
  8
0
  6
Continuous
 62
     7
370
     0
100
AcDbLine
 10
5.50032188873979
 20
-122.6906062732893
 30
0.0
 11
5.500700594584259
 21
-128.6906062613383
 31
0.0
  0
LINE
  5
89A4
330
A
100
AcDbEntity
  8
0
  6
Continuous
 62
     9
370
     0
100
AcDbLine
 10
-5.305818368105292
 20
-122.6912883313695
 30
0.0
 11
-5.305439662260937
 21
-128.6912883194184
 31
0.0
  0
LINE
  5
89A5
330
A
100
AcDbEntity
  8
0
  6
Continuous
 62
     9
370
     0
100
AcDbLine
 10
-9.164829471960274
 20
-122.6915319030465
 30
0.0
 11
-9.164450766115919
 21
-128.6915318910955
 31
0.0
  0
ARC
  5
89A6
330
A
100
AcDbEntity
  8
0
  6
Continuous
 62
     7
370
     0
100
AcDbCircle
 10
-21.49945714573573
 20
-126.1923104426188
 30
0.0
 40
2.499999999999948
100
AcDbArc
 50
270.0036163744278
 51
0.0036163744309852
  0
ARC
  5
89A7
330
A
100
AcDbEntity
  8
0
  6
Continuous
 62
     7
370
     0
100
AcDbCircle
 10
-21.49945714573573
 20
-126.1923104426188
 30
0.0
 40
2.500000000000003
100
AcDbArc
 50
0.0036163744309852
 51
270.0036163744278
  0
LINE
  5
89A8
330
A
100
AcDbEntity
  8
0
  6
Continuous
 62
     7
370
     0
100
AcDbLine
 10
-31.24970959686823
 20
-122.192925847584
 30
0.0
 11
-32.49970959438793
 21
-122.1930047446349
 31
0.0
  0
LINE
  5
89A9
330
A
100
AcDbEntity
  8
0
  6
Continuous
 62
     7
370
     0
100
AcDbLine
 10
-32.49970959438793
 20
-122.1930047446349
 30
0.0
 11
-32.4992046532617
 21
-130.1930047286996
 31
0.0
  0
LINE
  5
89AA
330
A
100
AcDbEntity
  8
0
  6
Continuous
 62
     7
370
     0
100
AcDbLine
 10
-40.49945450868778
 20
-95.19230786722671
 30
0.0
 11
-40.49945450868778
 21
-135.1923078672266
 31
0.0
  0
LINE
  5
89AB
330
A
100
AcDbEntity
  8
0
  6
Continuous
 62
     7
370
     0
100
AcDbLine
 10
-37.45503248803095
 20
-95.19230786722671
 30
0.0
 11
-40.49945450868778
 21
-95.19230786722671
 31
0.0
  0
ARC
  5
89AC
330
A
100
AcDbEntity
  8
0
  6
Continuous
 62
     7
370
     0
100
AcDbCircle
 10
-37.45503248803095
 20
-96.19230786722669
 30
0.0
 40
1.000000000000009
100
AcDbArc
 50
2.602562202500176
 51
90.0
  0
LINE
  5
89AD
330
A
100
AcDbEntity
  8
0
  6
Continuous
 62
     7
370
     0
100
AcDbLine
 10
-35.54284506955492
 20
-116.2377155281453
 30
0.0
 11
-36.45606394782044
 21
-96.14690020630799
 31
0.0
  0
ARC
  5
89AE
330
A
100
AcDbEntity
  8
0
  6
Continuous
 62
     7
370
     0
100
AcDbCircle
 10
-34.54387652934509
 20
-116.1923078672266
 30
0.0
 40
0.9999999999999131
100
AcDbArc
 50
182.6025622025002
 51
197.1418514560018
  0
ARC
  5
89AF
330
A
100
AcDbEntity
  8
0
  6
Continuous
 62
     7
370
     0
100
AcDbCircle
 10
-26.49945450868779
 20
-126.1923078672267
 30
0.0
 40
11.99999999999989
100
AcDbArc
 50
138.590377890729
 51
221.4096221092709
  0
LINE
  5
89B0
330
A
100
AcDbEntity
  8
0
  6
Continuous
 62
     7
370
     0
100
AcDbLine
 10
-35.49945450868757
 20
-135.1923078672266
 30
0.0
 11
-35.49945450868757
 21
-134.1295618004204
 31
0.0
  0
LINE
  5
89B1
330
A
100
AcDbEntity
  8
0
  6
Continuous
 62
     7
370
     0
100
AcDbLine
 10
-40.49945450868778
 20
-135.1923078672266
 30
0.0
 11
-35.49945450868757
 21
-135.1923078672266
 31
0.0
  0
LINE
  5
89B2
330
A
100
AcDbEntity
  8
0
  6
Continuous
 62
     7
370
     0
100
AcDbLine
 10
-35.49945450868757
 20
-118.2550539340329
 30
0.0
 11
-35.49945450868757
 21
-116.4870462688557
 31
0.0
  0
LINE
  5
89B3
330
A
100
AcDbEntity
  8
0
  6
Continuous
 62
     7
370
     0
100
AcDbLine
 10
-34.49945450868757
 20
-117.1923078672266
 30
0.0
 11
-34.54387652934509
 21
-117.1923078672266
 31
0.0
  0
LINE
  5
89B4
330
A
100
AcDbEntity
  8
0
  6
Continuous
 62
     9
370
     0
100
AcDbLine
 10
-34.49945450868757
 20
-117.1923078672266
 30
0.0
 11
-34.49945450868757
 21
-118.6424734319557
 31
0.0
  0
LINE
  5
89B5
330
A
100
AcDbEntity
  8
0
  6
Continuous
 62
     7
370
     0
100
AcDbLine
 10
-34.49945450868757
 20
-118.6424734319557
 30
0.0
 11
-35.49945450868757
 21
-118.2550539340329
 31
0.0
  0
ARC
  5
89E7
330
A
100
AcDbEntity
  8
0
  6
Continuous
 62
     9
370
     0
100
AcDbCircle
 10
-26.49945450868779
 20
-126.1923078672267
 30
0.0
 40
10.99999999999995
100
AcDbArc
 50
136.6582417727776
 51
223.3417582272218
  0
LINE
  5
89E8
330
A
100
AcDbEntity
  8
0
  6
Continuous
 62
     7
370
     0
100
AcDbLine
 10
-35.49945450868757
 20
-134.1295618004204
 30
0.0
 11
-34.49945450868757
 21
-133.7421423024974
 31
0.0
  0
LINE
  5
89E9
330
A
100
AcDbEntity
  8
0
  6
Continuous
 62
     9
370
     0
100
AcDbLine
 10
-34.49945450868757
 20
-133.7421423024976
 30
0.0
 11
-34.49945450868779
 21
-135.1923078672266
 31
0.0
  0
LINE
  5
89EA
330
A
100
AcDbEntity
  8
0
  6
Continuous
 62
     7
370
     0
100
AcDbLine
 10
-35.49945450868757
 20
-135.1923078672266
 30
0.0
 11
-34.49945450868779
 21
-135.1923078672266
 31
0.0
  0
ARC
  5
89EB
330
A
100
AcDbEntity
  8
0
  6
Continuous
 62
     7
370
     0
100
AcDbCircle
 10
-20.49945450868779
 20
-126.1923078672267
 30
0.0
 40
9.000000000000012
100
AcDbArc
 50
284.0240495062404
 51
297.2705021267893
  0
ARC
  5
89EC
330
A
100
AcDbEntity
  8
0
  6
Continuous
 62
     7
370
     0
100
AcDbCircle
 10
-18.68198588983296
 20
-133.4687635854646
 30
0.0
 40
1.499999999999953
100
AcDbArc
 50
239.1850467589392
 51
284.024049506234
  0
ARC
  5
89ED
330
A
100
AcDbEntity
  8
0
  6
Continuous
 62
     7
370
     0
100
AcDbCircle
 10
-21.49945450868779
 20
-138.1923078672266
 30
0.0
 40
4.00000000000004
100
AcDbArc
 50
89.99999999856045
 51
125.096801227583
  0
ARC
  5
89EE
330
A
100
AcDbEntity
  8
0
  6
Continuous
 62
     7
370
     0
100
AcDbCircle
 10
-21.49945450868779
 20
-138.1923078672266
 30
0.0
 40
4.000000000000001
100
AcDbArc
 50
59.1850467589397
 51
89.99999999856045
  0
ARC
  5
89EF
330
A
100
AcDbEntity
  8
0
  6
Continuous
 62
     7
370
     0
100
AcDbCircle
 10
-24.66173216885648
 20
-133.6923078672267
 30
0.0
 40
1.5
100
AcDbArc
 50
270.0
 51
305.0968012275835
  0
LINE
  5
89F0
330
A
100
AcDbEntity
  8
0
  6
Continuous
 62
     7
370
     0
100
AcDbLine
 10
-24.66173216885648
 20
-117.1923078672266
 30
0.0
 11
-34.49945450868757
 21
-117.1923078672266
 31
0.0
  0
LINE
  5
89F1
330
A
100
AcDbEntity
  8
0
  6
Continuous
 62
     7
370
     0
100
AcDbLine
 10
-34.49945450868779
 20
-135.1923078672266
 30
0.0
 11
-24.66173216885648
 21
-135.1923078672266
 31
0.0
  0
LINE
  5
89F2
330
A
100
AcDbEntity
  8
0
  6
Continuous
 62
     7
370
     0
100
AcDbLine
 10
-26.50173216885605
 20
-117.1923078672266
 30
0.0
 11
-27.0017321688564
 21
-116.9423078672266
 31
0.0
  0
LINE
  5
89F3
330
A
100
AcDbEntity
  8
0
  6
Continuous
 62
     7
370
     0
100
AcDbLine
 10
-31.00173216885605
 20
-116.9423078672266
 30
0.0
 11
-31.50173216885639
 21
-117.1923078672266
 31
0.0
  0
LINE
  5
89F4
330
A
100
AcDbEntity
  8
0
  6
Continuous
 62
     7
370
     0
100
AcDbLine
 10
6.249955804820388
 20
-116.890558863844
 30
0.0
 11
5.412706395583541
 21
-115.4406117061632
 31
0.0
  0
LINE
  5
89F5
330
A
100
AcDbEntity
  8
0
  6
Continuous
 62
     7
370
     0
100
AcDbLine
 10
-5.412977802202249
 20
-115.4412949978109
 30
0.0
 11
-6.250044170280602
 21
-116.8913478343535
 31
0.0
  0
LINE
  5
89F6
330
A
100
AcDbEntity
  8
0
  6
Continuous
 62
     7
370
     0
100
AcDbLine
 10
-6.250044170280602
 20
-116.8913478343535
 30
0.0
 11
-6.250025234988697
 21
-117.1913478337559
 31
0.0
  0
LINE
  5
89F7
330
A
100
AcDbEntity
  8
0
  6
Continuous
 62
     7
370
     0
100
AcDbLine
 10
6.249974740112634
 20
-117.1905588632464
 30
0.0
 11
6.249955804820388
 21
-116.890558863844
 31
0.0
  0
ARC
  5
89F8
330
A
100
AcDbEntity
  8
0
  6
Continuous
 62
     7
370
     0
100
AcDbCircle
 10
-4.97994932176266
 20
-115.6912676665727
 30
0.0
 40
0.5000000000000063
100
AcDbArc
 50
90.00361637442772
 51
150.0036163744268
  0
ARC
  5
89F9
330
A
100
AcDbEntity
  8
0
  6
Continuous
 62
     7
370
     0
100
AcDbCircle
 10
4.979709473964248
 20
-115.6906390364054
 30
0.0
 40
0.500000000000077
100
AcDbArc
 50
30.00361637442845
 51
90.00361637442772
  0
LINE
  5
89FA
330
A
100
AcDbEntity
  8
0
  6
Continuous
 62
     7
370
     0
100
AcDbLine
 10
-31.00173216885605
 20
60.94230751738864
 30
0.0
 11
-29.00173216885639
 21
60.94230751738864
 31
0.0
  0
LINE
  5
89FB
330
A
100
AcDbEntity
  8
0
  6
Continuous
 62
     7
370
     0
100
AcDbLine
 10
-29.00173216885639
 20
60.94230751738864
 30
0.0
 11
-27.0017321688564
 21
60.94230751738864
 31
0.0
  0
ARC
  5
89FC
330
A
100
AcDbEntity
  8
0
  6
Continuous
 62
     7
370
     0
100
AcDbCircle
 10
-18.97150424327935
 20
78.30769213277334
 30
0.0
 40
1.500000000000006
100
AcDbArc
 50
72.69813729121027
 51
117.363061822351
  0
LINE
  5
89FD
330
A
100
AcDbEntity
  8
0
  6
Continuous
 62
     9
370
     0
100
AcDbLine
 10
-18.52539537291306
 20
79.73981882960593
 30
0.0
 11
-18.766319003685
 21
78.96639066790335
 31
0.0
  0
LINE
  5
89FE
330
A
100
AcDbEntity
  8
0
  6
Continuous
 62
     9
370
     0
100
AcDbLine
 10
-19.6609452247543
 20
79.63985996494113
 30
0.0
 11
-19.2547978832672
 21
78.85508441781273
 31
0.0
  0
ARC
  5
89FF
330
A
100
AcDbEntity
  8
0
  6
Continuous
 62
     7
370
     0
100
AcDbCircle
 10
-18.97150424327935
 20
62.07692290200405
 30
0.0
 40
1.5
100
AcDbArc
 50
242.6369381776493
 51
270.0
  0
LINE
  5
8A00
330
A
100
AcDbEntity
  8
0
  6
Continuous
 62
     9
370
     0
100
AcDbLine
 10
-18.69589135870831
 20
61.19213312039462
 30
0.0
 11
-18.52539537291306
 21
60.64479620517154
 31
0.0
  0
ARC
  5
8A01
330
A
100
AcDbEntity
  8
0
  6
Continuous
 62
     7
370
     0
100
AcDbCircle
 10
-18.97150424327935
 20
62.07692290200405
 30
0.0
 40
1.499999999999998
100
AcDbArc
 50
270.0
 51
287.3018627087899
  0
LINE
  5
8A02
330
A
100
AcDbEntity
  8
0
  6
Continuous
 62
     9
370
     0
100
AcDbLine
 10
-19.42938830407968
 20
61.19217941699147
 30
0.0
 11
-19.6609452247543
 21
60.74475506983633
 31
0.0
  0
ARC
  5
8A03
330
A
100
AcDbEntity
  8
0
  6
Continuous
 62
     7
370
     0
100
AcDbCircle
 10
-21.49945450868779
 20
70.19230751738873
 30
0.0
 40
9.999999999999987
100
AcDbArc
 50
287.3018627087899
 51
295.8383502389025
  0
ARC
  5
8A04
330
A
100
AcDbEntity
  8
0
  6
Continuous
 62
     7
370
     0
100
AcDbCircle
 10
-24.02740477409623
 20
62.07692290200405
 30
0.0
 40
1.5
100
AcDbArc
 50
252.6981372912103
 51
270.0
  0
LINE
  5
8A05
330
A
100
AcDbEntity
  8
0
  6
Continuous
 62
     9
370
     0
100
AcDbLine
 10
-23.56965595708448
 20
61.19244074091835
 30
0.0
 11
-23.33796379262128
 21
60.74475506983633
 31
0.0
  0
ARC
  5
8A06
330
A
100
AcDbEntity
  8
0
  6
Continuous
 62
     7
370
     0
100
AcDbCircle
 10
-24.02740477409623
 20
62.07692290200405
 30
0.0
 40
1.500000000000006
100
AcDbArc
 50
270.0
 51
297.3630618223511
  0
LINE
  5
8A07
330
A
100
AcDbEntity
  8
0
  6
Continuous
 62
     9
370
     0
100
AcDbLine
 10
-24.30290741796387
 20
61.19248702202064
 30
0.0
 11
-24.4735136444624
 21
60.64479620517154
 31
0.0
  0
LINE
  5
8A08
330
A
100
AcDbEntity
  8
0
  6
Continuous
 62
     9
370
     0
100
AcDbLine
 10
-23.7339864974623
 20
78.87464768082565
 30
0.0
 11
-23.33796379262128
 21
79.63985996494113
 31
0.0
  0
ARC
  5
8A09
330
A
100
AcDbEntity
  8
0
  6
Continuous
 62
     7
370
     0
100
AcDbCircle
 10
-21.49945450868779
 20
83.19230751738864
 30
0.0
 40
4.000000000000064
100
AcDbArc
 50
242.6369381776489
 51
297.3630618223507
  0
ARC
  5
8A0A
330
A
100
AcDbEntity
  8
0
  6
Continuous
 62
     7
370
     0
100
AcDbCircle
 10
-21.49945450868779
 20
70.19230751738873
 30
0.0
 40
10.0
100
AcDbArc
 50
244.1580672368318
 51
252.6981372912103
  0
ARC
  5
8A0B
330
A
100
AcDbEntity
  8
0
  6
Continuous
 62
     7
370
     0
100
AcDbCircle
 10
-21.49945450868779
 20
70.19230751738873
 30
0.0
 40
9.999999999999962
100
AcDbArc
 50
107.30186270879
 51
115.8419327631682
  0
LINE
  5
8A0C
330
A
100
AcDbEntity
  8
0
  6
Continuous
 62
     9
370
     0
100
AcDbLine
 10
-24.28824779192576
 20
79.14506676110015
 30
0.0
 11
-24.4735136444624
 21
79.73981882960593
 31
0.0
  0
ARC
  5
8A0D
330
A
100
AcDbEntity
  8
0
  6
Continuous
 62
     7
370
     0
100
AcDbCircle
 10
-24.02740477409623
 20
78.30769213277334
 30
0.0
 40
1.500000000000051
100
AcDbArc
 50
62.63693817764932
 51
107.30186270879
  0
ARC
  5
8A0E
330
A
100
AcDbEntity
  8
0
  6
Continuous
 62
     7
370
     0
100
AcDbCircle
 10
-21.49945450868779
 20
57.19230751738864
 30
0.0
 40
4.000000000000001
100
AcDbArc
 50
90.0
 51
117.3630618223507
  0
ARC
  5
8A0F
330
A
100
AcDbEntity
  8
0
  6
Continuous
 62
     7
370
     0
100
AcDbCircle
 10
-21.49945450868779
 20
57.19230751738864
 30
0.0
 40
3.999999999999965
100
AcDbArc
 50
62.63693817764932
 51
90.0
  0
ARC
  5
8A10
330
A
100
AcDbEntity
  8
0
  6
Continuous
 62
     7
370
     0
100
AcDbCircle
 10
-21.49945450868779
 20
70.19230751738873
 30
0.0
 40
10.0
100
AcDbArc
 50
53.1265105713244
 51
72.69813729121027
  0
LINE
  5
8A11
330
A
100
AcDbEntity
  8
0
  6
Continuous
 62
     7
370
     0
100
AcDbLine
 10
6.249955804910541
 20
60.89055851405563
 30
0.0
 11
-6.250044170190562
 21
60.89134748446603
 31
0.0
  0
LINE
  5
8A12
330
A
100
AcDbEntity
  8
0
  6
Continuous
 62
     9
370
     0
100
AcDbLine
 10
-5.412977802100726
 20
59.44129464792986
 30
0.0
 11
5.412706395685631
 21
59.44061135636814
 31
0.0
  0
LINE
  5
8A13
330
A
100
AcDbEntity
  8
0
  6
Continuous
 62
     7
370
     0
100
AcDbLine
 10
4.979677915247521
 20
59.19063868760303
 30
0.0
 11
-4.979980880479274
 21
59.19126731769115
 31
0.0
  0
LINE
  5
8A14
330
A
100
AcDbEntity
  8
0
  6
Continuous
 62
     7
370
     0
100
AcDbLine
 10
15.25022719285664
 20
65.18999052944185
 30
0.0
 11
15.25025875167694
 21
65.68999052844585
 31
0.0
  0
LINE
  5
8A15
330
A
100
AcDbEntity
  8
0
  6
Continuous
 62
     9
370
     0
100
AcDbLine
 10
10.75022720182096
 20
65.19027455882538
 30
0.0
 11
10.75025876064148
 21
65.69027455782934
 31
0.0
  0
LINE
  5
8A16
330
A
100
AcDbEntity
  8
0
  6
Continuous
 62
     7
370
     0
100
AcDbLine
 10
15.25025875167773
 20
65.68999052844585
 30
0.0
 11
10.75025876064148
 21
65.69027455782934
 31
0.0
  0
LINE
  5
8A17
330
A
100
AcDbEntity
  8
0
  6
Continuous
 62
     9
370
     0
100
AcDbLine
 10
-26.74977272347348
 20
65.19264147035404
 30
0.0
 11
-26.74974116465296
 21
65.69264146935795
 31
0.0
  0
LINE
  5
8A18
330
A
100
AcDbEntity
  8
0
  6
Continuous
 62
     7
370
     0
100
AcDbLine
 10
10.75025876064148
 20
65.69027455782934
 30
0.0
 11
-26.74974116465296
 21
65.69264146935795
 31
0.0
  0
LINE
  5
8A19
330
A
100
AcDbEntity
  8
0
  6
Continuous
 62
     7
370
     0
100
AcDbLine
 10
-31.24977271450871
 20
65.19292549973745
 30
0.0
 11
-31.24974115568853
 21
65.69292549874155
 31
0.0
  0
LINE
  5
8A1A
330
A
100
AcDbEntity
  8
0
  6
Continuous
 62
     7
370
     0
100
AcDbLine
 10
-26.74974116465296
 20
65.69264146935795
 30
0.0
 11
-31.24974115568944
 21
65.69292549874155
 31
0.0
  0
LINE
  5
8A1B
330
A
100
AcDbEntity
  8
0
  6
Continuous
 62
     7
370
     0
100
AcDbLine
 10
-31.24967803804668
 20
66.69292549674965
 30
0.0
 11
-31.24974115568773
 21
65.69292549874155
 31
0.0
  0
LINE
  5
8A1C
330
A
100
AcDbEntity
  8
0
  6
Continuous
 62
     7
370
     0
100
AcDbLine
 10
-31.24974115568773
 20
65.69292549874155
 30
0.0
 11
-31.2497727145078
 21
65.19292549973745
 31
0.0
  0
LINE
  5
8A1D
330
A
100
AcDbEntity
  8
0
  6
Continuous
 62
     9
370
     0
100
AcDbLine
 10
-26.74967804701146
 20
66.69264146736605
 30
0.0
 11
-26.74974116465239
 21
65.69264146935795
 31
0.0
  0
LINE
  5
8A1E
330
A
100
AcDbEntity
  8
0
  6
Continuous
 62
     9
370
     0
100
AcDbLine
 10
-26.74974116465239
 20
65.69264146935795
 30
0.0
 11
-26.74977272347258
 21
65.19264147035404
 31
0.0
  0
LINE
  5
8A1F
330
A
100
AcDbEntity
  8
0
  6
Continuous
 62
     7
370
     0
100
AcDbLine
 10
-31.24967803804782
 20
66.69292549674965
 30
0.0
 11
-26.74967804701146
 21
66.69264146736605
 31
0.0
  0
LINE
  5
8A20
330
A
100
AcDbEntity
  8
0
  6
Continuous
 62
     9
370
     0
100
AcDbLine
 10
10.75032187828219
 20
66.69027455583746
 30
0.0
 11
10.75025876064137
 21
65.69027455782934
 31
0.0
  0
LINE
  5
8A21
330
A
100
AcDbEntity
  8
0
  6
Continuous
 62
     9
370
     0
100
AcDbLine
 10
10.75025876064137
 20
65.69027455782934
 30
0.0
 11
10.75022720182096
 21
65.19027455882538
 31
0.0
  0
LINE
  5
8A22
330
A
100
AcDbEntity
  8
0
  6
Continuous
 62
     7
370
     0
100
AcDbLine
 10
-26.74967804701146
 20
66.69264146736605
 30
0.0
 11
10.75032187828219
 21
66.69027455583746
 31
0.0
  0
LINE
  5
8A23
330
A
100
AcDbEntity
  8
0
  6
Continuous
 62
     7
370
     0
100
AcDbLine
 10
15.2503218693173
 20
66.68999052645386
 30
0.0
 11
15.25025875167659
 21
65.68999052844585
 31
0.0
  0
LINE
  5
8A24
330
A
100
AcDbEntity
  8
0
  6
Continuous
 62
     7
370
     0
100
AcDbLine
 10
15.25025875167659
 20
65.68999052844585
 30
0.0
 11
15.2502271928563
 21
65.18999052944185
 31
0.0
  0
LINE
  5
8A25
330
A
100
AcDbEntity
  8
0
  6
Continuous
 62
     7
370
     0
100
AcDbLine
 10
10.75032187828219
 20
66.69027455583746
 30
0.0
 11
15.25032186931855
 21
66.68999052645386
 31
0.0
  0
LINE
  5
8A26
330
A
100
AcDbEntity
  8
0
  6
Continuous
 62
     9
370
     0
100
AcDbLine
 10
-26.74920466471542
 20
74.19264145242713
 30
0.0
 11
-26.74923622353572
 21
73.69264145342267
 31
0.0
  0
LINE
  5
8A27
330
A
100
AcDbEntity
  8
0
  6
Continuous
 62
     9
370
     0
100
AcDbLine
 10
10.75079526058766
 20
74.19027454089856
 30
0.0
 11
10.75076370176714
 21
73.69027454189389
 31
0.0
  0
LINE
  5
8A28
330
A
100
AcDbEntity
  8
0
  6
Continuous
 62
     7
370
     0
100
AcDbLine
 10
-26.74923622353572
 20
73.69264145342267
 30
0.0
 11
10.75076370176714
 21
73.69027454189389
 31
0.0
  0
LINE
  5
8A29
330
A
100
AcDbEntity
  8
0
  6
Continuous
 62
     7
370
     0
100
AcDbLine
 10
15.25079525162403
 20
74.18999051151515
 30
0.0
 11
15.2507636928035
 21
73.68999051251036
 31
0.0
  0
LINE
  5
8A2A
330
A
100
AcDbEntity
  8
0
  6
Continuous
 62
     7
370
     0
100
AcDbLine
 10
10.75076370176714
 20
73.69027454189389
 30
0.0
 11
15.2507636928035
 21
73.68999051251036
 31
0.0
  0
LINE
  5
8A2B
330
A
100
AcDbEntity
  8
0
  6
Continuous
 62
     7
370
     0
100
AcDbLine
 10
-31.24920465575144
 20
74.19292548181072
 30
0.0
 11
-31.24923621457231
 21
73.69292548280613
 31
0.0
  0
LINE
  5
8A2C
330
A
100
AcDbEntity
  8
0
  6
Continuous
 62
     7
370
     0
100
AcDbLine
 10
-31.24923621457231
 20
73.69292548280613
 30
0.0
 11
-26.74923622353572
 21
73.69264145342267
 31
0.0
  0
LINE
  5
8A2D
330
A
100
AcDbEntity
  8
0
  6
Continuous
 62
     9
370
     0
100
AcDbLine
 10
10.75079526058903
 20
74.19027454089856
 30
0.0
 11
10.7507637017685
 21
73.69027454189456
 31
0.0
  0
LINE
  5
8A2E
330
A
100
AcDbEntity
  8
0
  6
Continuous
 62
     9
370
     0
100
AcDbLine
 10
10.7507637017685
 20
73.69027454189456
 30
0.0
 11
10.75070058412745
 21
72.69027454388636
 31
0.0
  0
LINE
  5
8A2F
330
A
100
AcDbEntity
  8
0
  6
Continuous
 62
     7
370
     0
100
AcDbLine
 10
-26.74929934115903
 20
72.69264145541514
 30
0.0
 11
10.75070058412745
 21
72.69027454388636
 31
0.0
  0
LINE
  5
8A30
330
A
100
AcDbEntity
  8
0
  6
Continuous
 62
     7
370
     0
100
AcDbLine
 10
15.25079525162334
 20
74.18999051151534
 30
0.0
 11
15.25076369280305
 21
73.68999051251113
 31
0.0
  0
LINE
  5
8A31
330
A
100
AcDbEntity
  8
0
  6
Continuous
 62
     7
370
     0
100
AcDbLine
 10
15.25076369280305
 20
73.68999051251113
 30
0.0
 11
15.25070057516223
 21
72.68999051450276
 31
0.0
  0
LINE
  5
8A32
330
A
100
AcDbEntity
  8
0
  6
Continuous
 62
     7
370
     0
100
AcDbLine
 10
10.75070058412745
 20
72.69027454388636
 30
0.0
 11
15.25070057516052
 21
72.68999051450276
 31
0.0
  0
LINE
  5
8A33
330
A
100
AcDbEntity
  8
0
  6
Continuous
 62
     7
370
     0
100
AcDbLine
 10
-31.24920465573246
 20
74.19292548181072
 30
0.0
 11
-31.24923621455276
 21
73.69292548280665
 31
0.0
  0
LINE
  5
8A34
330
A
100
AcDbEntity
  8
0
  6
Continuous
 62
     7
370
     0
100
AcDbLine
 10
-31.24923621455276
 20
73.69292548280665
 30
0.0
 11
-31.24929933219346
 21
72.69292548479866
 31
0.0
  0
LINE
  5
8A35
330
A
100
AcDbEntity
  8
0
  6
Continuous
 62
     9
370
     0
100
AcDbLine
 10
-26.74920466469803
 20
74.19264145242713
 30
0.0
 11
-26.74923622351832
 21
73.69264145342315
 31
0.0
  0
LINE
  5
8A36
330
A
100
AcDbEntity
  8
0
  6
Continuous
 62
     9
370
     0
100
AcDbLine
 10
-26.74923622351832
 20
73.69264145342315
 30
0.0
 11
-26.74929934115903
 21
72.69264145541514
 31
0.0
  0
LINE
  5
8A37
330
A
100
AcDbEntity
  8
0
  6
Continuous
 62
     7
370
     0
100
AcDbLine
 10
-31.24929933219312
 20
72.69292548479866
 30
0.0
 11
-26.74929934115903
 21
72.69264145541514
 31
0.0
  0
LINE
  5
8A38
330
A
100
AcDbEntity
  8
0
  6
Continuous
 62
     7
370
     0
100
AcDbLine
 10
17.50022718836703
 20
65.18984851475003
 30
0.0
 11
17.49997471780352
 21
61.18984852271784
 31
0.0
  0
LINE
  5
8A39
330
A
100
AcDbEntity
  8
0
  6
Continuous
 62
     7
370
     0
100
AcDbLine
 10
17.49997471780625
 20
61.18984852271784
 30
0.0
 11
12.49997472776556
 21
61.19016411092154
 31
0.0
  0
LINE
  5
8A3A
330
A
100
AcDbEntity
  8
0
  6
Continuous
 62
     9
370
     0
100
AcDbLine
 10
12.49997472776556
 20
61.19016411092154
 30
0.0
 11
12.50022719832884
 21
65.19016410295394
 31
0.0
  0
LINE
  5
8A3B
330
A
100
AcDbEntity
  8
0
  6
Continuous
 62
     7
370
     0
100
AcDbLine
 10
12.50022719832884
 20
65.19016410295394
 30
0.0
 11
17.50022718836931
 21
65.18984851475003
 31
0.0
  0
ARC
  5
8A3C
330
A
100
AcDbEntity
  8
0
  6
Continuous
 62
     7
370
     0
100
AcDbCircle
 10
-26.99956759063832
 20
68.44265724329044
 30
0.0
 40
7.500000000000002
100
AcDbArc
 50
222.8298116916493
 51
255.1612720435964
  0
LINE
  5
8A3D
330
A
100
AcDbEntity
  8
0
  6
Continuous
 62
     7
370
     0
100
AcDbLine
 10
12.50022719832884
 20
65.19016410295394
 30
0.0
 11
-32.4997727120126
 21
65.19300439678842
 31
0.0
  0
LINE
  5
8A3E
330
A
100
AcDbEntity
  8
0
  6
Continuous
 62
     7
370
     0
100
AcDbLine
 10
12.49997472776556
 20
61.19016411092154
 30
0.0
 11
-28.9203116266749
 21
61.19277846168124
 31
0.0
  0
LINE
  5
8A3F
330
A
100
AcDbEntity
  8
0
  6
Continuous
 62
     7
370
     0
100
AcDbLine
 10
-32.49988941776178
 20
63.34398488687866
 30
0.0
 11
-32.4997727120126
 21
65.19300439678842
 31
0.0
  0
CIRCLE
  5
8A40
330
A
100
AcDbEntity
  8
0
  6
Continuous
 62
     7
370
     0
100
AcDbCircle
 10
-21.49945714573573
 20
70.19231009278086
 30
0.0
 40
1.749999999999973
  0
LINE
  5
8A41
330
A
100
AcDbEntity
  8
0
  6
Continuous
 62
     7
370
     0
100
AcDbLine
 10
-32.4992046532617
 20
74.19300437886166
 30
0.0
 11
-32.49908794751218
 21
76.04202388877137
 31
0.0
  0
ARC
  5
8A42
330
A
100
AcDbEntity
  8
0
  6
Continuous
 62
     7
370
     0
100
AcDbCircle
 10
-26.9994097965498
 20
70.94265723831115
 30
0.0
 40
7.500000000000006
100
AcDbArc
 50
104.8314952075486
 51
137.1629555595021
  0
LINE
  5
8A43
330
A
100
AcDbEntity
  8
0
  6
Continuous
 62
     7
370
     0
100
AcDbLine
 10
-28.91923862679642
 20
78.19277842781936
 30
0.0
 11
12.50104772766497
 21
78.19016407705935
 31
0.0
  0
LINE
  5
8A44
330
A
100
AcDbEntity
  8
0
  6
Continuous
 62
     9
370
     0
100
AcDbLine
 10
12.50079525710157
 20
74.19016408502715
 30
0.0
 11
12.50104772766497
 21
78.19016407705935
 31
0.0
  0
LINE
  5
8A45
330
A
100
AcDbEntity
  8
0
  6
Continuous
 62
     7
370
     0
100
AcDbLine
 10
-32.4992046532617
 20
74.19300437886166
 30
0.0
 11
12.50079525710157
 21
74.19016408502715
 31
0.0
  0
LINE
  5
8A46
330
A
100
AcDbEntity
  8
0
  6
Continuous
 62
     7
370
     0
100
AcDbLine
 10
17.50104771770554
 20
78.18984848885562
 30
0.0
 11
17.50079524714237
 21
74.18984849682333
 31
0.0
  0
LINE
  5
8A47
330
A
100
AcDbEntity
  8
0
  6
Continuous
 62
     7
370
     0
100
AcDbLine
 10
12.50104772766497
 20
78.19016407705935
 30
0.0
 11
17.50104771770554
 21
78.18984848885562
 31
0.0
  0
LINE
  5
8A48
330
A
100
AcDbEntity
  8
0
  6
Continuous
 62
     7
370
     0
100
AcDbLine
 10
17.50079524714237
 20
74.18984849682333
 30
0.0
 11
12.50079525710157
 21
74.19016408502715
 31
0.0
  0
LINE
  5
8A49
330
A
100
AcDbEntity
  8
0
  6
Continuous
 62
     9
370
     0
100
AcDbLine
 10
-5.265740366024942
 20
66.69128545190254
 30
0.0
 11
-5.265361660180019
 21
72.69128543995147
 31
0.0
  0
LINE
  5
8A4A
330
A
100
AcDbEntity
  8
0
  6
Continuous
 62
     7
370
     0
100
AcDbLine
 10
5.50032188873979
 20
66.69060592345134
 30
0.0
 11
5.500700594584259
 21
72.69060591150036
 31
0.0
  0
LINE
  5
8A4B
330
A
100
AcDbEntity
  8
0
  6
Continuous
 62
     9
370
     0
100
AcDbLine
 10
-8.529918408181288
 20
66.69149147912005
 30
0.0
 11
-8.529539702336251
 21
72.69149146716914
 31
0.0
  0
LINE
  5
8A4C
330
A
100
AcDbEntity
  8
0
  6
Continuous
 62
     7
370
     0
100
AcDbLine
 10
-10.49967807938981
 20
66.69161580570365
 30
0.0
 11
-10.49929937354488
 21
72.69161579375263
 31
0.0
  0
ARC
  5
8A4D
330
A
100
AcDbEntity
  8
0
  6
Continuous
 62
     7
370
     0
100
AcDbCircle
 10
-21.49945714573573
 20
70.19231009278086
 30
0.0
 40
2.500000000000003
100
AcDbArc
 50
269.9963836255658
 51
89.99638362557227
  0
ARC
  5
8A4E
330
A
100
AcDbEntity
  8
0
  6
Continuous
 62
     7
370
     0
100
AcDbCircle
 10
-21.49945714573573
 20
70.19231009278086
 30
0.0
 40
2.500000000000003
100
AcDbArc
 50
89.99638362557227
 51
269.9963836255658
  0
LINE
  5
8A4F
330
A
100
AcDbEntity
  8
0
  6
Continuous
 62
     7
370
     0
100
AcDbLine
 10
-32.49970959438793
 20
66.19300439479694
 30
0.0
 11
-31.24970959686755
 21
66.19292549774603
 31
0.0
  0
LINE
  5
8A50
330
A
100
AcDbEntity
  8
0
  6
Continuous
 62
     7
370
     0
100
AcDbLine
 10
-32.4992046532617
 20
74.19300437886166
 30
0.0
 11
-32.49970959438793
 21
66.19300439479694
 31
0.0
  0
ARC
  5
8A51
330
A
100
AcDbEntity
  8
0
  6
Continuous
 62
     7
370
     0
100
AcDbCircle
 10
-26.49945450868756
 20
70.19230751738873
 30
0.0
 40
12.00000000000005
100
AcDbArc
 50
138.590377890729
 51
221.4096221092709
  0
LINE
  5
8A52
330
A
100
AcDbEntity
  8
0
  6
Continuous
 62
     7
370
     0
100
AcDbLine
 10
-35.49945450868757
 20
60.48704591901774
 30
0.0
 11
-35.49945450868757
 21
62.25505358419493
 31
0.0
  0
ARC
  5
8A53
330
A
100
AcDbEntity
  8
0
  6
Continuous
 62
     7
370
     0
100
AcDbCircle
 10
-34.54387652934509
 20
60.19230751738864
 30
0.0
 40
0.9999999999999172
100
AcDbArc
 50
162.8581485439974
 51
177.397437797499
  0
LINE
  5
8A54
330
A
100
AcDbEntity
  8
0
  6
Continuous
 62
     7
370
     0
100
AcDbLine
 10
-35.54284506955492
 20
60.23771517830745
 30
0.0
 11
-36.45606394782044
 21
40.14689985647014
 31
0.0
  0
ARC
  5
8A55
330
A
100
AcDbEntity
  8
0
  6
Continuous
 62
     7
370
     0
100
AcDbCircle
 10
-37.45503248803095
 20
40.19230751738873
 30
0.0
 40
1.000000000000009
100
AcDbArc
 50
270.0
 51
357.3974377974999
  0
LINE
  5
8A56
330
A
100
AcDbEntity
  8
0
  6
Continuous
 62
     7
370
     0
100
AcDbLine
 10
-37.45503248803095
 20
39.19230751738873
 30
0.0
 11
-40.49945450868778
 21
39.19230751738873
 31
0.0
  0
LINE
  5
8A57
330
A
100
AcDbEntity
  8
0
  6
Continuous
 62
     7
370
     0
100
AcDbLine
 10
-40.49945450868778
 20
39.19230751738873
 30
0.0
 11
-40.49945450868778
 21
79.19230751738864
 31
0.0
  0
LINE
  5
8A58
330
A
100
AcDbEntity
  8
0
  6
Continuous
 62
     7
370
     0
100
AcDbLine
 10
-40.49945450868778
 20
79.19230751738864
 30
0.0
 11
-35.49945450868757
 21
79.19230751738864
 31
0.0
  0
LINE
  5
8A59
330
A
100
AcDbEntity
  8
0
  6
Continuous
 62
     7
370
     0
100
AcDbLine
 10
-35.49945450868757
 20
78.12956145058253
 30
0.0
 11
-35.49945450868757
 21
79.19230751738864
 31
0.0
  0
LINE
  5
8A5A
330
A
100
AcDbEntity
  8
0
  6
Continuous
 62
     7
370
     0
100
AcDbLine
 10
-35.49945450868757
 20
62.25505358419493
 30
0.0
 11
-34.49945450868757
 21
62.64247308211806
 31
0.0
  0
LINE
  5
8A5B
330
A
100
AcDbEntity
  8
0
  6
Continuous
 62
     9
370
     0
100
AcDbLine
 10
-34.49945450868757
 20
62.64247308211785
 30
0.0
 11
-34.49945450868757
 21
61.19230751738864
 31
0.0
  0
LINE
  5
8A5C
330
A
100
AcDbEntity
  8
0
  6
Continuous
 62
     7
370
     0
100
AcDbLine
 10
-34.54387652934509
 20
61.19230751738864
 30
0.0
 11
-34.49945450868757
 21
61.19230751738864
 31
0.0
  0
LINE
  5
8A8E
330
A
100
AcDbEntity
  8
0
  6
Continuous
 62
     9
370
     0
100
AcDbLine
 10
-34.49945450868757
 20
79.19230751738864
 30
0.0
 11
-34.49945450868757
 21
77.74214195265965
 31
0.0
  0
LINE
  5
8A8F
330
A
100
AcDbEntity
  8
0
  6
Continuous
 62
     7
370
     0
100
AcDbLine
 10
-34.49945450868757
 20
77.74214195265965
 30
0.0
 11
-35.49945450868757
 21
78.12956145058253
 31
0.0
  0
LINE
  5
8A90
330
A
100
AcDbEntity
  8
0
  6
Continuous
 62
     7
370
     0
100
AcDbLine
 10
-34.49945450868757
 20
79.19230751738864
 30
0.0
 11
-35.49945450868757
 21
79.19230751738864
 31
0.0
  0
ARC
  5
8A91
330
A
100
AcDbEntity
  8
0
  6
Continuous
 62
     9
370
     0
100
AcDbCircle
 10
-26.49945450868756
 20
70.19230751738873
 30
0.0
 40
11.00000000000007
100
AcDbArc
 50
136.6582417727776
 51
223.3417582272223
  0
ARC
  5
8A92
330
A
100
AcDbEntity
  8
0
  6
Continuous
 62
     7
370
     0
100
AcDbCircle
 10
-24.66173216885648
 20
77.69230751738864
 30
0.0
 40
1.5
100
AcDbArc
 50
54.90319877241652
 51
90.0
  0
ARC
  5
8A93
330
A
100
AcDbEntity
  8
0
  6
Continuous
 62
     7
370
     0
100
AcDbCircle
 10
-21.49945450868779
 20
82.19230751738873
 30
0.0
 40
3.999999999999986
100
AcDbArc
 50
234.9031987724165
 51
269.9999999993877
  0
ARC
  5
8A94
330
A
100
AcDbEntity
  8
0
  6
Continuous
 62
     7
370
     0
100
AcDbCircle
 10
-21.49945450868779
 20
82.19230751738873
 30
0.0
 40
3.999999999999948
100
AcDbArc
 50
269.9999999993877
 51
300.8149532410603
  0
ARC
  5
8A95
330
A
100
AcDbEntity
  8
0
  6
Continuous
 62
     7
370
     0
100
AcDbCircle
 10
-18.68198588983261
 20
77.46876323562675
 30
0.0
 40
1.499999999999979
100
AcDbArc
 50
75.97595049375975
 51
120.8149532410603
  0
ARC
  5
8A96
330
A
100
AcDbEntity
  8
0
  6
Continuous
 62
     7
370
     0
100
AcDbCircle
 10
-20.49945450868779
 20
70.19230751738873
 30
0.0
 40
8.999999999999987
100
AcDbArc
 50
62.72949787321072
 51
75.97595049375955
  0
LINE
  5
8A97
330
A
100
AcDbEntity
  8
0
  6
Continuous
 62
     7
370
     0
100
AcDbLine
 10
-24.66173216885648
 20
61.19230751738864
 30
0.0
 11
-34.49945450868757
 21
61.19230751738864
 31
0.0
  0
LINE
  5
8A98
330
A
100
AcDbEntity
  8
0
  6
Continuous
 62
     7
370
     0
100
AcDbLine
 10
-34.49945450868757
 20
79.19230751738864
 30
0.0
 11
-24.66173216885648
 21
79.19230751738864
 31
0.0
  0
LINE
  5
8A99
330
A
100
AcDbEntity
  8
0
  6
Continuous
 62
     7
370
     0
100
AcDbLine
 10
-31.50173216885639
 20
61.19230751738864
 30
0.0
 11
-31.00173216885605
 21
60.94230751738864
 31
0.0
  0
LINE
  5
8A9A
330
A
100
AcDbEntity
  8
0
  6
Continuous
 62
     7
370
     0
100
AcDbLine
 10
-27.0017321688564
 20
60.94230751738864
 30
0.0
 11
-26.50173216885605
 21
61.19230751738864
 31
0.0
  0
LINE
  5
8A9B
330
A
100
AcDbEntity
  8
0
  6
Continuous
 62
     7
370
     0
100
AcDbLine
 10
6.249955804910541
 20
60.89055851405563
 30
0.0
 11
6.249974740200514
 21
61.19055851345804
 31
0.0
  0
LINE
  5
8A9C
330
A
100
AcDbEntity
  8
0
  6
Continuous
 62
     7
370
     0
100
AcDbLine
 10
-6.250025234900704
 20
61.19134748386843
 30
0.0
 11
-6.250044170190562
 21
60.89134748446603
 31
0.0
  0
LINE
  5
8A9D
330
A
100
AcDbEntity
  8
0
  6
Continuous
 62
     7
370
     0
100
AcDbLine
 10
-6.250044170190562
 20
60.89134748446603
 30
0.0
 11
-5.412977802100726
 21
59.44129464792986
 31
0.0
  0
LINE
  5
8A9E
330
A
100
AcDbEntity
  8
0
  6
Continuous
 62
     7
370
     0
100
AcDbLine
 10
5.412706395685631
 20
59.44061135636814
 30
0.0
 11
6.249955804910541
 21
60.89055851405563
 31
0.0
  0
ARC
  5
8A9F
330
A
100
AcDbEntity
  8
0
  6
Continuous
 62
     7
370
     0
100
AcDbCircle
 10
4.979709474064065
 20
59.69063868660693
 30
0.0
 40
0.4999999999999785
100
AcDbArc
 50
269.9963836260217
 51
329.9963836260186
  0
ARC
  5
8AA0
330
A
100
AcDbEntity
  8
0
  6
Continuous
 62
     7
370
     0
100
AcDbCircle
 10
-4.979949321662729
 20
59.69126731669523
 30
0.0
 40
0.500000000000019
100
AcDbArc
 50
209.9963836260256
 51
269.9963836260283
  0
LINE
  5
8AA1
330
A
100
AcDbEntity
  8
0
  6
Continuous
 62
     7
370
     0
100
AcDbLine
 10
-31.99945450801192
 20
-19.60000017510288
 30
0.0
 11
-25.99945450801181
 21
-19.60000017473416
 31
0.0
  0
LINE
  5
8AA2
330
A
100
AcDbEntity
  8
0
  6
Continuous
 62
     7
370
     0
100
AcDbLine
 10
-31.99945450868779
 20
-8.600000175102948
 30
0.0
 11
-25.99945450868779
 21
-8.600000174734162
 31
0.0
  0
LINE
  5
8AA3
330
A
100
AcDbEntity
  8
0
  6
Continuous
 62
     7
370
     0
100
AcDbLine
 10
-19.20131790377104
 20
-19.60000017491855
 30
0.0
 11
-18.82280128649074
 21
-19.60000017491855
 31
0.0
  0
ELLIPSE
  5
8AA4
330
A
100
AcDbEntity
  8
0
  6
Continuous
 62
     9
370
     0
100
AcDbEllipse
 10
-18.82280128649074
 20
-20.60000017491855
 30
0.0
 11
0.0
 21
1.0
 31
0.0
210
0.0
220
0.0
230
1.0
 40
0.2974059135774652
 41
4.712388980384688
 42
6.283185307179584
  0
LINE
  5
8AA5
330
A
100
AcDbEntity
  8
0
  6
Continuous
 62
     9
370
     0
100
AcDbLine
 10
-18.52539537291306
 20
-20.60000017491855
 30
0.0
 11
-19.6609452247543
 21
-20.60000017491855
 31
0.0
  0
ELLIPSE
  5
8AA6
330
A
100
AcDbEntity
  8
0
  6
Continuous
 62
     9
370
     0
100
AcDbEllipse
 10
-19.20131790377104
 20
-20.60000017491855
 30
0.0
 11
0.0
 21
1.0
 31
0.0
210
0.0
220
0.0
230
1.0
 40
0.4596273209833564
 41
0.0
 42
1.570796326794896
  0
LINE
  5
8AA7
330
A
100
AcDbEntity
  8
0
  6
Continuous
 62
     9
370
     0
100
AcDbLine
 10
-18.52539537291306
 20
-20.60000017491855
 30
0.0
 11
-18.52539537291306
 21
-29.40000017491854
 31
0.0
  0
LINE
  5
8AA8
330
A
100
AcDbEntity
  8
0
  6
Continuous
 62
     9
370
     0
100
AcDbLine
 10
-19.6609452247543
 20
-29.40000017491854
 30
0.0
 11
-18.52539537291306
 21
-29.40000017491854
 31
0.0
  0
LINE
  5
8AA9
330
A
100
AcDbEntity
  8
0
  6
Continuous
 62
     9
370
     0
100
AcDbLine
 10
-19.6609452247543
 20
-20.60000017491855
 30
0.0
 11
-19.6609452247543
 21
-29.40000017491854
 31
0.0
  0
ELLIPSE
  5
8AAA
330
A
100
AcDbEntity
  8
0
  6
Continuous
 62
     9
370
     0
100
AcDbEllipse
 10
-18.82280128649074
 20
-29.4000001749186
 30
0.0
 11
0.0
 21
1.0
 31
0.0
210
0.0
220
0.0
230
1.0
 40
0.2974059135774638
 41
3.141592653589792
 42
4.712388980384688
  0
LINE
  5
8AAB
330
A
100
AcDbEntity
  8
0
  6
Continuous
 62
     7
370
     0
100
AcDbLine
 10
-18.82280128649074
 20
-30.40000017491855
 30
0.0
 11
-19.20131790377104
 21
-30.40000017491855
 31
0.0
  0
ELLIPSE
  5
8AAC
330
A
100
AcDbEntity
  8
0
  6
Continuous
 62
     9
370
     0
100
AcDbEllipse
 10
-19.20131790377115
 20
-29.4000001749186
 30
0.0
 11
0.0
 21
1.0
 31
0.0
210
0.0
220
0.0
230
1.0
 40
0.4596273209833547
 41
1.570796326794896
 42
3.141592653589792
  0
LINE
  5
8AAD
330
A
100
AcDbEntity
  8
0
  6
Continuous
 62
     9
370
     0
100
AcDbLine
 10
-23.33796379262128
 20
-20.60000017491855
 30
0.0
 11
-24.4735136444624
 21
-20.60000017491855
 31
0.0
  0
LINE
  5
8AAE
330
A
100
AcDbEntity
  8
0
  6
Continuous
 62
     9
370
     0
100
AcDbLine
 10
-23.33796379262128
 20
-20.60000017491855
 30
0.0
 11
-23.33796379262128
 21
-29.40000017491854
 31
0.0
  0
LINE
  5
8AAF
330
A
100
AcDbEntity
  8
0
  6
Continuous
 62
     9
370
     0
100
AcDbLine
 10
-24.4735136444624
 20
-29.40000017491854
 30
0.0
 11
-23.33796379262128
 21
-29.40000017491854
 31
0.0
  0
LINE
  5
8AB0
330
A
100
AcDbEntity
  8
0
  6
Continuous
 62
     9
370
     0
100
AcDbLine
 10
-24.4735136444624
 20
-20.60000017491855
 30
0.0
 11
-24.4735136444624
 21
-29.40000017491854
 31
0.0
  0
LINE
  5
8AB1
330
A
100
AcDbEntity
  8
0
  6
Continuous
 62
     7
370
     0
100
AcDbLine
 10
-24.17610773088495
 20
-19.60000017491855
 30
0.0
 11
-23.79759111360454
 21
-19.60000017491855
 31
0.0
  0
ELLIPSE
  5
8AB2
330
A
100
AcDbEntity
  8
0
  6
Continuous
 62
     9
370
     0
100
AcDbEllipse
 10
-23.79759111360454
 20
-20.6000001749186
 30
0.0
 11
0.0
 21
1.0
 31
0.0
210
0.0
220
0.0
230
1.0
 40
0.459627320983353
 41
4.712388980384688
 42
6.283185307179584
  0
ELLIPSE
  5
8AB3
330
A
100
AcDbEntity
  8
0
  6
Continuous
 62
     9
370
     0
100
AcDbEllipse
 10
-24.17610773088495
 20
-20.60000017491855
 30
0.0
 11
0.0
 21
1.0
 31
0.0
210
0.0
220
0.0
230
1.0
 40
0.2974059135774658
 41
0.0
 42
1.570796326794896
  0
LINE
  5
8AB4
330
A
100
AcDbEntity
  8
0
  6
Continuous
 62
     7
370
     0
100
AcDbLine
 10
-23.79759111360454
 20
-30.40000017491855
 30
0.0
 11
-24.17610773088495
 21
-30.40000017491855
 31
0.0
  0
ELLIPSE
  5
8AB5
330
A
100
AcDbEntity
  8
0
  6
Continuous
 62
     9
370
     0
100
AcDbEllipse
 10
-24.17610773088495
 20
-29.4000001749186
 30
0.0
 11
0.0
 21
-1.0
 31
0.0
210
0.0
220
0.0
230
1.0
 40
0.2974059135774657
 41
4.712388980384688
 42
6.283185307179584
  0
ELLIPSE
  5
8AB6
330
A
100
AcDbEntity
  8
0
  6
Continuous
 62
     9
370
     0
100
AcDbEllipse
 10
-23.79759111360443
 20
-29.4000001749186
 30
0.0
 11
0.0
 21
-1.0
 31
0.0
210
0.0
220
0.0
230
1.0
 40
0.459627320983353
 41
0.0
 42
1.570796326794896
  0
LINE
  5
8AB7
330
A
100
AcDbEntity
  8
0
  6
Continuous
 62
     9
370
     0
100
AcDbLine
 10
-12.38180744986448
 20
-20.60000017491855
 30
0.0
 11
-18.52539537291306
 21
-20.60000017491855
 31
0.0
  0
LINE
  5
8AB8
330
A
100
AcDbEntity
  8
0
  6
Continuous
 62
     9
370
     0
100
AcDbLine
 10
-12.38180744986448
 20
-20.60000017491855
 30
0.0
 11
-12.38180744986448
 21
-29.40000017491854
 31
0.0
  0
LINE
  5
8AB9
330
A
100
AcDbEntity
  8
0
  6
Continuous
 62
     9
370
     0
100
AcDbLine
 10
-18.52539537291306
 20
-29.40000017491854
 30
0.0
 11
-12.38180744986448
 21
-29.40000017491854
 31
0.0
  0
LINE
  5
8ABA
330
A
100
AcDbEntity
  8
0
  6
Continuous
 62
     7
370
     0
100
AcDbLine
 10
-18.82280128649074
 20
-19.60000017491855
 30
0.0
 11
-13.29357215574657
 21
-19.60000017491855
 31
0.0
  0
ELLIPSE
  5
8ABB
330
A
100
AcDbEntity
  8
0
  6
Continuous
 62
     9
370
     0
100
AcDbEllipse
 10
-13.29357215574657
 20
-20.6000001749186
 30
0.0
 11
0.0
 21
-1.0
 31
0.0
210
0.0
220
0.0
230
1.0
 40
0.9117647058823536
 41
1.570796326794896
 42
3.141592653589792
  0
ELLIPSE
  5
8ABC
330
A
100
AcDbEntity
  8
0
  6
Continuous
 62
     9
370
     0
100
AcDbEllipse
 10
-13.29357215574646
 20
-29.4000001749186
 30
0.0
 11
0.0
 21
1.0
 31
0.0
210
0.0
220
0.0
230
1.0
 40
0.911764705882352
 41
3.141592653589792
 42
4.712388980384688
  0
LINE
  5
8ABD
330
A
100
AcDbEntity
  8
0
  6
Continuous
 62
     7
370
     0
100
AcDbLine
 10
-13.29357215574657
 20
-30.40000017491855
 30
0.0
 11
-18.82280128649074
 21
-30.40000017491855
 31
0.0
  0
LINE
  5
8ABE
330
A
100
AcDbEntity
  8
0
  6
Continuous
 62
     9
370
     0
100
AcDbLine
 10
-31.49945450868779
 20
-29.40000017491854
 30
0.0
 11
-24.4735136444624
 21
-29.40000017491854
 31
0.0
  0
LINE
  5
8ABF
330
A
100
AcDbEntity
  8
0
  6
Continuous
 62
     7
370
     0
100
AcDbLine
 10
-24.17610773088495
 20
-30.40000017491855
 30
0.0
 11
-30.49945450868779
 21
-30.40000017491855
 31
0.0
  0
LINE
  5
8AC0
330
A
100
AcDbEntity
  8
0
  6
Continuous
 62
     7
370
     0
100
AcDbLine
 10
-30.49945450868779
 20
-19.60000017491855
 30
0.0
 11
-24.17610773088495
 21
-19.60000017491855
 31
0.0
  0
LINE
  5
8AC1
330
A
100
AcDbEntity
  8
0
  6
Continuous
 62
     9
370
     0
100
AcDbLine
 10
-24.4735136444624
 20
-20.60000017491855
 30
0.0
 11
-31.49945450868779
 21
-20.60000017491855
 31
0.0
  0
LINE
  5
8AC2
330
A
100
AcDbEntity
  8
0
  6
Continuous
 62
     9
370
     0
100
AcDbLine
 10
-23.33796379262128
 20
-20.60000017491855
 30
0.0
 11
-19.6609452247543
 21
-20.60000017491855
 31
0.0
  0
LINE
  5
8AC3
330
A
100
AcDbEntity
  8
0
  6
Continuous
 62
     9
370
     0
100
AcDbLine
 10
-19.6609452247543
 20
-29.40000017491854
 30
0.0
 11
-23.33796379262128
 21
-29.40000017491854
 31
0.0
  0
LINE
  5
8AC4
330
A
100
AcDbEntity
  8
0
  6
Continuous
 62
     7
370
     0
100
AcDbLine
 10
-19.20131790377104
 20
-19.60000017491855
 30
0.0
 11
-23.79759111360454
 21
-19.60000017491855
 31
0.0
  0
LINE
  5
8AC5
330
A
100
AcDbEntity
  8
0
  6
Continuous
 62
     7
370
     0
100
AcDbLine
 10
-23.79759111360454
 20
-30.40000017491855
 30
0.0
 11
-19.20131790377104
 21
-30.40000017491855
 31
0.0
  0
LINE
  5
8AC6
330
A
100
AcDbEntity
  8
0
  6
Continuous
 62
     9
370
     0
100
AcDbLine
 10
-12.24945450868756
 20
-20.60000017491855
 30
0.0
 11
-12.38180744986448
 21
-20.60000017491855
 31
0.0
  0
LINE
  5
8AC7
330
A
100
AcDbEntity
  8
0
  6
Continuous
 62
     7
370
     0
100
AcDbLine
 10
-13.29357215574657
 20
-19.60000017491855
 30
0.0
 11
-13.24945450868779
 21
-19.60000017491855
 31
0.0
  0
LINE
  5
8AC8
330
A
100
AcDbEntity
  8
0
  6
Continuous
 62
     7
370
     0
100
AcDbLine
 10
-13.24945450868779
 20
-30.40000017491855
 30
0.0
 11
-13.29357215574657
 21
-30.40000017491855
 31
0.0
  0
LINE
  5
8AC9
330
A
100
AcDbEntity
  8
0
  6
Continuous
 62
     9
370
     0
100
AcDbLine
 10
-12.38180744986448
 20
-29.40000017491854
 30
0.0
 11
-12.24945450868756
 21
-29.40000017491854
 31
0.0
  0
LINE
  5
8ACA
330
A
100
AcDbEntity
  8
0
  6
Continuous
 62
     7
370
     0
100
AcDbLine
 10
-32.49988941776178
 20
-65.00000017491188
 30
0.0
 11
-32.49988941776178
 21
-42.57500017492299
 31
0.0
  0
LINE
  5
8ACB
330
A
100
AcDbEntity
  8
0
  6
Continuous
 62
     7
370
     0
100
AcDbLine
 10
-32.49988941776178
 20
-42.57500017492299
 30
0.0
 11
-32.4997727120126
 21
-42.57500017492299
 31
0.0
  0
LINE
  5
8ACC
330
A
100
AcDbEntity
  8
0
  6
Continuous
 62
     7
370
     0
100
AcDbLine
 10
-32.4997727120126
 20
-65.00000017491188
 30
0.0
 11
-32.4997727120126
 21
-42.57500017492299
 31
0.0
  0
LINE
  5
8ACD
330
A
100
AcDbEntity
  8
0
  6
Continuous
 62
     7
370
     0
100
AcDbLine
 10
-32.49988941776178
 20
-65.00000017491188
 30
0.0
 11
-32.4997727120126
 21
-65.00000017491188
 31
0.0
  0
ARC
  5
8ACE
330
A
100
AcDbEntity
  8
0
  6
Continuous
 62
     7
370
     0
100
AcDbCircle
 10
-13.56509317667871
 20
-40.57500017492396
 30
0.0
 40
1.999999999994034
100
AcDbArc
 50
269.9999999968799
 51
271.5679573236733
  0
LINE
  5
8ACF
330
A
100
AcDbEntity
  8
0
  6
Continuous
 62
     7
370
     0
100
AcDbLine
 10
-12.16104204186047
 20
-42.0000001749233
 30
0.0
 11
-12.16174895940628
 21
-42.0000001749233
 31
0.0
  0
LINE
  5
8AD0
330
A
100
AcDbEntity
  8
0
  6
Continuous
 62
     7
370
     0
100
AcDbLine
 10
-12.16174895940628
 20
-8.000000174940041
 30
0.0
 11
-12.16104204180431
 21
-8.000000174940041
 31
0.0
  0
ARC
  5
8AD1
330
A
100
AcDbEntity
  8
0
  6
Continuous
 62
     7
370
     0
100
AcDbCircle
 10
-13.56509317667871
 20
-9.425000174939356
 30
0.0
 40
2.0
100
AcDbArc
 50
87.59904447426071
 51
90.0
  0
LINE
  5
8AD2
330
A
100
AcDbEntity
  8
0
  6
Continuous
 62
     7
370
     0
100
AcDbLine
 10
-32.4997727120126
 20
-7.425000174940365
 30
0.0
 11
-32.4997727120126
 21
14.99999982504856
 31
0.0
  0
LINE
  5
8AD3
330
A
100
AcDbEntity
  8
0
  6
Continuous
 62
     7
370
     0
100
AcDbLine
 10
-32.4992046532617
 20
-65.00000017491188
 30
0.0
 11
-32.4997727120126
 21
-65.00000017491188
 31
0.0
  0
LINE
  5
8AD4
330
A
100
AcDbEntity
  8
0
  6
Continuous
 62
     7
370
     0
100
AcDbLine
 10
-32.4997727120126
 20
14.99999982504856
 30
0.0
 11
-32.4992046532617
 21
14.99999982504856
 31
0.0
  0
LINE
  5
8AD5
330
A
100
AcDbEntity
  8
0
  6
Continuous
 62
     7
370
     0
100
AcDbLine
 10
-32.49988941776178
 20
-7.425000174940365
 30
0.0
 11
-32.49988941776178
 21
14.99999982504856
 31
0.0
  0
LINE
  5
8AD6
330
A
100
AcDbEntity
  8
0
  6
Continuous
 62
     7
370
     0
100
AcDbLine
 10
-32.4997727120126
 20
-7.425000174940365
 30
0.0
 11
-32.49988941776178
 21
-7.425000174940365
 31
0.0
  0
LINE
  5
8AD7
330
A
100
AcDbEntity
  8
0
  6
Continuous
 62
     7
370
     0
100
AcDbLine
 10
-32.4997727120126
 20
14.99999982504856
 30
0.0
 11
-32.49988941776178
 21
14.99999982504856
 31
0.0
  0
LINE
  5
8AD8
330
A
100
AcDbEntity
  8
0
  6
Continuous
 62
     7
370
     0
100
AcDbLine
 10
-12.16174895940628
 20
-8.000000174940041
 30
0.0
 11
-12.16187519468781
 21
-8.000000174940041
 31
0.0
  0
ARC
  5
8AD9
330
A
100
AcDbEntity
  8
0
  6
Continuous
 62
     7
370
     0
100
AcDbCircle
 10
-13.56521941196047
 20
-9.425000174939356
 30
0.0
 40
1.999999996077218
100
AcDbArc
 50
38.48169850726475
 51
45.43868801347953
  0
ARC
  5
8ADA
330
A
100
AcDbEntity
  8
0
  6
Continuous
 62
     7
370
     0
100
AcDbCircle
 10
-13.56534564724177
 20
-9.425000174939356
 30
0.0
 40
1.999999999992768
100
AcDbArc
 50
88.27349834991547
 51
90.00000000343927
  0
LINE
  5
8ADB
330
A
100
AcDbEntity
  8
0
  6
Continuous
 62
     7
370
     0
100
AcDbLine
 10
-12.16187519468781
 20
-42.0000001749233
 30
0.0
 11
-12.16174895940628
 21
-42.0000001749233
 31
0.0
  0
ARC
  5
8ADC
330
A
100
AcDbEntity
  8
0
  6
Continuous
 62
     7
370
     0
100
AcDbCircle
 10
-13.56534564724177
 20
-40.57500017492396
 30
0.0
 40
2.0
100
AcDbArc
 50
270.0
 51
271.9969745995001
  0
ARC
  5
8ADD
330
A
100
AcDbEntity
  8
0
  6
Continuous
 62
     7
370
     0
100
AcDbCircle
 10
-13.56534564724177
 20
-40.57500017492396
 30
0.0
 40
1.999999997632615
100
AcDbArc
 50
303.0303392850365
 51
321.5241135028021
  0
ARC
  5
8ADE
330
A
100
AcDbEntity
  8
0
  6
Continuous
 62
     7
370
     0
100
AcDbCircle
 10
-13.56521941196047
 20
-40.57500017492396
 30
0.0
 40
1.99999999511754
100
AcDbArc
 50
314.561311987983
 51
321.5183014941989
  0
LINE
  5
8ADF
330
A
100
AcDbEntity
  8
0
  6
Continuous
 62
     7
370
     0
100
AcDbLine
 10
-12.29551530727372
 20
-29.70000017492755
 30
0.0
 11
-11.99912579704528
 21
-29.70000017492755
 31
0.0
  0
LINE
  5
8AE0
330
A
100
AcDbEntity
  8
0
  6
Continuous
 62
     7
370
     0
100
AcDbLine
 10
-11.99912579704528
 20
-20.30000017492751
 30
0.0
 11
-12.29551530726803
 21
-20.30000017492751
 31
0.0
  0
LINE
  5
8AE1
330
A
100
AcDbEntity
  8
0
  6
Continuous
 62
     7
370
     0
100
AcDbLine
 10
-12.44945450868101
 20
-20.00000017492755
 30
0.0
 11
-11.99982955873974
 21
-20.00000017492755
 31
0.0
  0
LINE
  5
8AE2
330
A
100
AcDbEntity
  8
0
  6
Continuous
 62
     7
370
     0
100
AcDbLine
 10
-11.99982955873974
 20
-30.00000017492757
 30
0.0
 11
-12.44945450869465
 21
-30.00000017492757
 31
0.0
  0
LINE
  5
8AE3
330
A
100
AcDbEntity
  8
0
  6
Continuous
 62
     9
370
     0
100
AcDbLine
 10
-11.99908477057863
 20
-40.25000017491807
 30
0.0
 11
-11.57320600302205
 21
-40.25000017491807
 31
0.0
  0
LINE
  5
8AE4
330
A
100
AcDbEntity
  8
0
  6
Continuous
 62
     7
370
     0
100
AcDbLine
 10
-11.99908477057863
 20
-40.25000017491807
 30
0.0
 11
-11.99908477057863
 21
-9.75000017493086
 31
0.0
  0
LINE
  5
8AE5
330
A
100
AcDbEntity
  8
0
  6
Continuous
 62
     9
370
     0
100
AcDbLine
 10
-11.57320600302228
 20
-9.75000017493086
 30
0.0
 11
-11.99908477057863
 21
-9.75000017493086
 31
0.0
  0
LINE
  5
8AE6
330
A
100
AcDbEntity
  8
0
  6
Continuous
 62
     7
370
     0
100
AcDbLine
 10
-11.99911632939893
 20
-40.75000017491807
 30
0.0
 11
-11.99908477057863
 21
-40.25000017491807
 31
0.0
  0
LINE
  5
8AE7
330
A
100
AcDbEntity
  8
0
  6
Continuous
 62
     7
370
     0
100
AcDbLine
 10
-11.99930883820343
 20
-40.7500001749179
 30
0.0
 11
-11.99911632939893
 21
-40.7500001749179
 31
0.0
  0
LINE
  5
8AE8
330
A
100
AcDbEntity
  8
0
  6
Continuous
 62
     7
370
     0
100
AcDbLine
 10
-11.99930883820343
 20
-41.82020403646747
 30
0.0
 11
-11.99930883820343
 21
-40.7500001749179
 31
0.0
  0
LINE
  5
8AE9
330
A
100
AcDbEntity
  8
0
  6
Continuous
 62
     7
370
     0
100
AcDbLine
 10
-11.99960549111495
 20
-40.7500001749179
 30
0.0
 11
-11.99960549111495
 21
-41.82057680377828
 31
0.0
  0
LINE
  5
8AEA
330
A
100
AcDbEntity
  8
0
  6
Continuous
 62
     7
370
     0
100
AcDbLine
 10
-11.99979799991945
 20
-40.7500001749179
 30
0.0
 11
-11.99960549111495
 21
-40.7500001749179
 31
0.0
  0
LINE
  5
8AEB
330
A
100
AcDbEntity
  8
0
  6
Continuous
 62
     7
370
     0
100
AcDbLine
 10
-11.99982955873974
 20
-40.25000017491807
 30
0.0
 11
-11.99979799991945
 21
-40.75000017491807
 31
0.0
  0
LINE
  5
8AEC
330
A
100
AcDbEntity
  8
0
  6
Continuous
 62
     7
370
     0
100
AcDbLine
 10
-11.99982955873974
 20
-9.75000017493086
 30
0.0
 11
-11.99982955873974
 21
-20.00000017491854
 31
0.0
  0
LINE
  5
8AED
330
A
100
AcDbEntity
  8
0
  6
Continuous
 62
     7
370
     0
100
AcDbLine
 10
-11.99982955873974
 20
-30.00000017491017
 30
0.0
 11
-11.99982955873974
 21
-40.25000017491807
 31
0.0
  0
LINE
  5
8AEE
330
A
100
AcDbEntity
  8
0
  6
Continuous
 62
     7
370
     0
100
AcDbLine
 10
-11.99979799991945
 20
-9.25000017493086
 30
0.0
 11
-11.99982955873974
 21
-9.75000017493086
 31
0.0
  0
LINE
  5
8AEF
330
A
100
AcDbEntity
  8
0
  6
Continuous
 62
     7
370
     0
100
AcDbLine
 10
-11.99960549111495
 20
-9.250000174931059
 30
0.0
 11
-11.99979799991945
 21
-9.250000174931059
 31
0.0
  0
LINE
  5
8AF0
330
A
100
AcDbEntity
  8
0
  6
Continuous
 62
     7
370
     0
100
AcDbLine
 10
-11.99960549111495
 20
-8.179423546058941
 30
0.0
 11
-11.99960549111495
 21
-9.250000174931059
 31
0.0
  0
LINE
  5
8AF1
330
A
100
AcDbEntity
  8
0
  6
Continuous
 62
     7
370
     0
100
AcDbLine
 10
-11.99930883820343
 20
-9.250000174931059
 30
0.0
 11
-11.99930883820343
 21
-8.179796313372449
 31
0.0
  0
LINE
  5
8AF2
330
A
100
AcDbEntity
  8
0
  6
Continuous
 62
     7
370
     0
100
AcDbLine
 10
-11.99911632939893
 20
-9.250000174931059
 30
0.0
 11
-11.99930883820343
 21
-9.250000174931059
 31
0.0
  0
LINE
  5
8AF3
330
A
100
AcDbEntity
  8
0
  6
Continuous
 62
     7
370
     0
100
AcDbLine
 10
-11.99908477057863
 20
-9.75000017493086
 30
0.0
 11
-11.99911632939893
 21
-9.25000017493086
 31
0.0
  0
LINE
  5
8AF4
330
A
100
AcDbEntity
  8
0
  6
Continuous
 62
     7
370
     0
100
AcDbLine
 10
-11.99912579704494
 20
-30.1000001749224
 30
0.0
 11
-11.99929937055719
 21
-30.1000001749224
 31
0.0
  0
LINE
  5
8AF5
330
A
100
AcDbEntity
  8
0
  6
Continuous
 62
     7
370
     0
100
AcDbLine
 10
-11.99912579704494
 20
-30.1000001749224
 30
0.0
 11
-11.99912579704494
 21
-19.90000017492667
 31
0.0
  0
LINE
  5
8AF6
330
A
100
AcDbEntity
  8
0
  6
Continuous
 62
     7
370
     0
100
AcDbLine
 10
-11.99912579704494
 20
-19.90000017492667
 30
0.0
 11
-11.99929937055719
 21
-19.90000017492667
 31
0.0
  0
LINE
  5
8AF7
330
A
100
AcDbEntity
  8
0
  6
Continuous
 62
     7
370
     0
100
AcDbLine
 10
-11.99929937055719
 20
-19.90000017492667
 30
0.0
 11
-11.99929937055719
 21
-16.50000017492805
 31
0.0
  0
LINE
  5
8AF8
330
A
100
AcDbEntity
  8
0
  6
Continuous
 62
     7
370
     0
100
AcDbLine
 10
-11.99929937055719
 20
-16.50000017492805
 30
0.0
 11
-11.9996149587613
 21
-16.50000017492805
 31
0.0
  0
LINE
  5
8AF9
330
A
100
AcDbEntity
  8
0
  6
Continuous
 62
     7
370
     0
100
AcDbLine
 10
-11.9996149587613
 20
-19.90000017492667
 30
0.0
 11
-11.9996149587613
 21
-16.50000017492805
 31
0.0
  0
LINE
  5
8AFA
330
A
100
AcDbEntity
  8
0
  6
Continuous
 62
     7
370
     0
100
AcDbLine
 10
-11.9996149587613
 20
-19.90000017492667
 30
0.0
 11
-11.99978853227344
 21
-19.90000017492667
 31
0.0
  0
LINE
  5
8AFB
330
A
100
AcDbEntity
  8
0
  6
Continuous
 62
     7
370
     0
100
AcDbLine
 10
-11.99978853227344
 20
-30.1000001749224
 30
0.0
 11
-11.99978853227344
 21
-30.00000017492757
 31
0.0
  0
LINE
  5
8AFC
330
A
100
AcDbEntity
  8
0
  6
Continuous
 62
     7
370
     0
100
AcDbLine
 10
-11.99978853227344
 20
-20.00000017493599
 30
0.0
 11
-11.99978853227344
 21
-19.90000017492667
 31
0.0
  0
LINE
  5
8AFD
330
A
100
AcDbEntity
  8
0
  6
Continuous
 62
     7
370
     0
100
AcDbLine
 10
-11.9996149587613
 20
-30.1000001749224
 30
0.0
 11
-11.99978853227344
 21
-30.1000001749224
 31
0.0
  0
LINE
  5
8AFE
330
A
100
AcDbEntity
  8
0
  6
Continuous
 62
     7
370
     0
100
AcDbLine
 10
-11.9996149587613
 20
-33.50000017492097
 30
0.0
 11
-11.9996149587613
 21
-30.1000001749224
 31
0.0
  0
LINE
  5
8AFF
330
A
100
AcDbEntity
  8
0
  6
Continuous
 62
     7
370
     0
100
AcDbLine
 10
-11.99929937055719
 20
-33.50000017492097
 30
0.0
 11
-11.9996149587613
 21
-33.50000017492097
 31
0.0
  0
LINE
  5
8B00
330
A
100
AcDbEntity
  8
0
  6
Continuous
 62
     7
370
     0
100
AcDbLine
 10
-11.99929937055719
 20
-33.50000017492097
 30
0.0
 11
-11.99929937055719
 21
-30.1000001749224
 31
0.0
  0
LINE
  5
8B01
330
A
100
AcDbEntity
  8
0
  6
Continuous
 62
     7
370
     0
100
AcDbLine
 10
-11.99911632939893
 20
-9.250000174931059
 30
0.0
 11
-11.57205722398669
 21
-9.250000174931059
 31
0.0
  0
LINE
  5
8B02
330
A
100
AcDbEntity
  8
0
  6
Continuous
 62
     7
370
     0
100
AcDbLine
 10
-11.57205722398737
 20
-40.7500001749179
 30
0.0
 11
-11.99911632939893
 21
-40.7500001749179
 31
0.0
  0
LINE
  5
8B03
330
A
100
AcDbEntity
  8
0
  6
Continuous
 62
     7
370
     0
100
AcDbLine
 10
-11.99929937055719
 20
-19.90000017492667
 30
0.0
 11
-11.9996149587613
 21
-19.90000017492667
 31
0.0
  0
LINE
  5
8B04
330
A
100
AcDbEntity
  8
0
  6
Continuous
 62
     7
370
     0
100
AcDbLine
 10
-11.99929937055719
 20
-30.1000001749224
 30
0.0
 11
-11.9996149587613
 21
-30.1000001749224
 31
0.0
  0
LINE
  5
8B05
330
A
100
AcDbEntity
  8
0
  6
Continuous
 62
     7
370
     0
100
AcDbLine
 10
-28.91923862679642
 20
-65.00000017491931
 30
0.0
 11
-28.91923862679642
 21
-42.57500017491928
 31
0.0
  0
LINE
  5
8B06
330
A
100
AcDbEntity
  8
0
  6
Continuous
 62
     7
370
     0
100
AcDbLine
 10
-32.49908794751218
 20
-42.57500017491928
 30
0.0
 11
-32.49908794751218
 21
-65.00000017491931
 31
0.0
  0
LINE
  5
8B07
330
A
100
AcDbEntity
  8
0
  6
Continuous
 62
     7
370
     0
100
AcDbLine
 10
-32.49908794751218
 20
-42.57500017491928
 30
0.0
 11
-28.91923862679642
 21
-42.57500017491928
 31
0.0
  0
LINE
  5
8B08
330
A
100
AcDbEntity
  8
0
  6
Continuous
 62
     7
370
     0
100
AcDbLine
 10
-32.49908794751218
 20
-65.00000017491931
 30
0.0
 11
-28.91923862679642
 21
-65.00000017491931
 31
0.0
  0
LINE
  5
8B09
330
A
100
AcDbEntity
  8
0
  6
Continuous
 62
     7
370
     0
100
AcDbLine
 10
-28.91923862679642
 20
-7.425000174919361
 30
0.0
 11
-28.91923862679642
 21
14.99999982508062
 31
0.0
  0
LINE
  5
8B0A
330
A
100
AcDbEntity
  8
0
  6
Continuous
 62
     7
370
     0
100
AcDbLine
 10
-32.49908794751218
 20
14.99999982508062
 30
0.0
 11
-32.49908794751218
 21
-7.425000174919361
 31
0.0
  0
LINE
  5
8B0B
330
A
100
AcDbEntity
  8
0
  6
Continuous
 62
     7
370
     0
100
AcDbLine
 10
-28.91923862679642
 20
-7.425000174919361
 30
0.0
 11
-32.49908794751218
 21
-7.425000174919361
 31
0.0
  0
LINE
  5
8B0C
330
A
100
AcDbEntity
  8
0
  6
Continuous
 62
     7
370
     0
100
AcDbLine
 10
-28.91923862679642
 20
14.99999982508062
 30
0.0
 11
-32.49908794751218
 21
14.99999982508062
 31
0.0
  0
ARC
  5
8B0D
330
A
100
AcDbEntity
  8
0
  6
Continuous
 62
     7
370
     0
100
AcDbCircle
 10
-13.56427264735543
 20
-40.57500017491928
 30
0.0
 40
1.999999992039639
100
AcDbArc
 50
270.0000000034393
 51
1.726501656959669
  0
ARC
  5
8B0E
330
A
100
AcDbEntity
  8
0
  6
Continuous
 62
     7
370
     0
100
AcDbCircle
 10
503.1520884169918
 20
-25.0000001749193
 30
0.0
 40
514.9510396170452
100
AcDbArc
 50
178.2734983430403
 51
181.7265016500861
  0
ARC
  5
8B0F
330
A
100
AcDbEntity
  8
0
  6
Continuous
 62
     7
370
     0
100
AcDbCircle
 10
-13.56427264735543
 20
-9.425000174919247
 30
0.0
 40
2.0
100
AcDbArc
 50
358.2734983464771
 51
90.0
  0
ARC
  5
8B10
330
A
100
AcDbEntity
  8
0
  6
Continuous
 62
     7
370
     0
100
AcDbCircle
 10
12.50104772766497
 20
9.999999825080621
 30
0.0
 40
4.999999980080827
100
AcDbArc
 50
0.0
 51
90.0
  0
LINE
  5
8B11
330
A
100
AcDbEntity
  8
0
  6
Continuous
 62
     7
370
     0
100
AcDbLine
 10
17.50104771770554
 20
9.999999825080621
 30
0.0
 11
17.50104771770554
 21
-60.00000017491938
 31
0.0
  0
ARC
  5
8B12
330
A
100
AcDbEntity
  8
0
  6
Continuous
 62
     7
370
     0
100
AcDbCircle
 10
12.50104772766497
 20
-60.00000017491938
 30
0.0
 40
5.000000000000004
100
AcDbArc
 50
270.0
 51
0.0
  0
LINE
  5
8B13
330
A
100
AcDbEntity
  8
0
  6
Continuous
 62
     7
370
     0
100
AcDbLine
 10
-13.56427264735543
 20
-42.57500017491928
 30
0.0
 11
-28.91923862679642
 21
-42.57500017491928
 31
0.0
  0
LINE
  5
8B14
330
A
100
AcDbEntity
  8
0
  6
Continuous
 62
     7
370
     0
100
AcDbLine
 10
-28.91923862679642
 20
-7.425000174919361
 30
0.0
 11
-13.56427264735543
 21
-7.425000174919361
 31
0.0
  0
LINE
  5
8B15
330
A
100
AcDbEntity
  8
0
  6
Continuous
 62
     7
370
     0
100
AcDbLine
 10
-28.91923862679642
 20
-65.00000017491931
 30
0.0
 11
12.50104772766497
 21
-65.00000017491931
 31
0.0
  0
LINE
  5
8B16
330
A
100
AcDbEntity
  8
0
  6
Continuous
 62
     7
370
     0
100
AcDbLine
 10
12.50104772766497
 20
14.99999982508062
 30
0.0
 11
-28.91923862679642
 21
14.99999982508062
 31
0.0
  0
LINE
  5
8B17
330
A
100
AcDbEntity
  8
0
  6
Continuous
 62
     7
370
     0
100
AcDbLine
 10
-13.5350255424255
 20
-7.425215699453957
 30
0.0
 11
-13.53566934236141
 21
-7.425215699453957
 31
0.0
  0
ARC
  5
8B18
330
A
100
AcDbEntity
  8
0
  6
Continuous
 62
     7
370
     0
100
AcDbCircle
 10
-13.5650300590446
 20
-9.425000174919247
 30
0.0
 40
1.999999999998276
100
AcDbArc
 50
89.15884721022615
 51
90.00000000167403
  0
LINE
  5
8B19
330
A
100
AcDbEntity
  8
0
  6
Continuous
 62
     9
370
     0
100
AcDbLine
 10
-11.56518058866299
 20
-9.485257331766462
 30
0.0
 11
-11.56529420041636
 21
-9.485257331766462
 31
0.0
  0
ARC
  5
8B1A
330
A
100
AcDbEntity
  8
0
  6
Continuous
 62
     7
370
     0
100
AcDbCircle
 10
-13.56438625910868
 20
-9.425000174919247
 30
0.0
 40
1.99999999203953
100
AcDbArc
 50
358.2734983430403
 51
89.15884720511229
  0
LINE
  5
8B1B
330
A
100
AcDbEntity
  8
0
  6
Continuous
 62
     7
370
     0
100
AcDbLine
 10
-13.53566934235255
 20
-42.57478465038457
 30
0.0
 11
-13.53502554241697
 21
-42.57478465038457
 31
0.0
  0
ARC
  5
8B1C
330
A
100
AcDbEntity
  8
0
  6
Continuous
 62
     7
370
     0
100
AcDbCircle
 10
-13.56438625910868
 20
-40.57500017491928
 30
0.0
 40
1.999999999998293
100
AcDbArc
 50
270.8411527900279
 51
1.726501651848035
  0
LINE
  5
8B1D
330
A
100
AcDbEntity
  8
0
  6
Continuous
 62
     9
370
     0
100
AcDbLine
 10
-11.56529420041636
 20
-40.51474301807215
 30
0.0
 11
-11.56518058866299
 21
-40.51474301807215
 31
0.0
  0
ARC
  5
8B1E
330
A
100
AcDbEntity
  8
0
  6
Continuous
 62
     7
370
     0
100
AcDbCircle
 10
-13.5650300590446
 20
-40.57500017491928
 30
0.0
 40
2.0
100
AcDbArc
 50
270.0
 51
270.8411527917021
  0
ARC
  5
8B1F
330
A
100
AcDbEntity
  8
0
  6
Continuous
 62
     7
370
     0
100
AcDbCircle
 10
503.1519748052387
 20
-25.0000001749193
 30
0.0
 40
514.9510396170452
100
AcDbArc
 50
178.2734983499139
 51
181.7265016569596
  0
LINE
  5
8B20
330
A
100
AcDbEntity
  8
0
  6
Continuous
 62
     7
370
     0
100
AcDbLine
 10
-32.49970959438793
 20
-48.50000017491929
 30
0.0
 11
-32.49970959438793
 21
-42.57500017491928
 31
0.0
  0
LINE
  5
8B21
330
A
100
AcDbEntity
  8
0
  6
Continuous
 62
     7
370
     0
100
AcDbLine
 10
-32.4992046532617
 20
-48.50000017491929
 30
0.0
 11
-32.4992046532617
 21
-65.00000017491931
 31
0.0
  0
LINE
  5
8B22
330
A
100
AcDbEntity
  8
0
  6
Continuous
 62
     7
370
     0
100
AcDbLine
 10
-32.4992046532617
 20
-48.50000017491929
 30
0.0
 11
-32.49970959438793
 21
-48.50000017491929
 31
0.0
  0
LINE
  5
8B23
330
A
100
AcDbEntity
  8
0
  6
Continuous
 62
     7
370
     0
100
AcDbLine
 10
-32.49970959438793
 20
-42.57500017491928
 30
0.0
 11
-32.49908794751218
 21
-42.57500017491928
 31
0.0
  0
LINE
  5
8B24
330
A
100
AcDbEntity
  8
0
  6
Continuous
 62
     7
370
     0
100
AcDbLine
 10
-32.4992046532617
 20
-65.00000017491931
 30
0.0
 11
-32.49908794751218
 21
-65.00000017491931
 31
0.0
  0
LINE
  5
8B25
330
A
100
AcDbEntity
  8
0
  6
Continuous
 62
     7
370
     0
100
AcDbLine
 10
-32.49970959438793
 20
-7.425000174919361
 30
0.0
 11
-32.49970959438793
 21
-1.500000174919364
 31
0.0
  0
LINE
  5
8B26
330
A
100
AcDbEntity
  8
0
  6
Continuous
 62
     7
370
     0
100
AcDbLine
 10
-32.49970959438793
 20
-1.500000174919364
 30
0.0
 11
-32.4992046532617
 21
-1.500000174919364
 31
0.0
  0
LINE
  5
8B27
330
A
100
AcDbEntity
  8
0
  6
Continuous
 62
     7
370
     0
100
AcDbLine
 10
-32.4992046532617
 20
14.99999982508062
 30
0.0
 11
-32.4992046532617
 21
-1.500000174919364
 31
0.0
  0
LINE
  5
8B28
330
A
100
AcDbEntity
  8
0
  6
Continuous
 62
     7
370
     0
100
AcDbLine
 10
-32.49908794751218
 20
-7.425000174919361
 30
0.0
 11
-32.49970959438793
 21
-7.425000174919361
 31
0.0
  0
LINE
  5
8B29
330
A
100
AcDbEntity
  8
0
  6
Continuous
 62
     7
370
     0
100
AcDbLine
 10
-32.49908794751218
 20
14.99999982508062
 30
0.0
 11
-32.4992046532617
 21
14.99999982508062
 31
0.0
  0
LINE
  5
8B2A
330
A
100
AcDbEntity
  8
0
  6
Continuous
 62
     9
370
     0
100
AcDbLine
 10
-26.58837569163234
 20
-7.74200589369056
 30
0.0
 11
-16.41053860736201
 21
-7.74200589369056
 31
0.0
  0
LINE
  5
8B2B
330
A
100
AcDbEntity
  8
0
  6
Continuous
 62
     9
370
     0
100
AcDbLine
 10
-15.74945714949535
 20
-8.529852096100455
 30
0.0
 11
-27.24945714949888
 21
-8.529852096100455
 31
0.0
  0
LINE
  5
8B2C
330
A
100
AcDbEntity
  8
0
  6
Continuous
 62
     7
370
     0
100
AcDbLine
 10
-17.49945714949581
 20
-7.550000174918551
 30
0.0
 11
-25.49945363575535
 21
-7.550000174918551
 31
0.0
  0
LINE
  5
8B2D
330
A
100
AcDbEntity
  8
0
  6
Continuous
 62
     9
370
     0
100
AcDbLine
 10
-27.2494566698407
 20
-41.47014825373766
 30
0.0
 11
-17.22045792588381
 21
-41.47014825373766
 31
0.0
  0
LINE
  5
8B2E
330
A
100
AcDbEntity
  8
0
  6
Continuous
 62
     9
370
     0
100
AcDbLine
 10
-16.4105381277069
 20
-42.25799445614747
 30
0.0
 11
-17.71241735681667
 21
-42.25799445614747
 31
0.0
  0
LINE
  5
8B2F
330
A
100
AcDbEntity
  8
0
  6
Continuous
 62
     9
370
     0
100
AcDbLine
 10
-17.22045792588381
 20
-41.47014825373766
 30
0.0
 11
-15.74945666984081
 21
-41.47014825373766
 31
0.0
  0
LINE
  5
8B30
330
A
100
AcDbEntity
  8
0
  6
Continuous
 62
     9
370
     0
100
AcDbLine
 10
-17.71241735681667
 20
-42.25799445614747
 30
0.0
 11
-26.58837521197438
 21
-42.25799445614747
 31
0.0
  0
LINE
  5
8B31
330
A
100
AcDbEntity
  8
0
  6
Continuous
 62
     7
370
     0
100
AcDbLine
 10
-25.49945666984081
 20
-42.45000017491928
 30
0.0
 11
-17.49945666984081
 21
-42.45000017491928
 31
0.0
  0
LINE
  5
8B32
330
A
100
AcDbEntity
  8
0
  6
Continuous
 62
     9
370
     0
100
AcDbLine
 10
-24.66173216885648
 20
-8.75000017491854
 30
0.0
 11
-24.66173216885648
 21
-19.50000017491852
 31
0.0
  0
LINE
  5
8B33
330
A
100
AcDbEntity
  8
0
  6
Continuous
 62
     7
370
     0
100
AcDbLine
 10
-24.66173216885648
 20
-8.75000017491854
 30
0.0
 11
-23.7992928069923
 21
-8.75000017491854
 31
0.0
  0
LINE
  5
8B34
330
A
100
AcDbEntity
  8
0
  6
Continuous
 62
     9
370
     0
100
AcDbLine
 10
-23.7992928069923
 20
-8.75000017491854
 30
0.0
 11
-23.79929280699184
 21
-19.50000017491852
 31
0.0
  0
LINE
  5
8B35
330
A
100
AcDbEntity
  8
0
  6
Continuous
 62
     7
370
     0
100
AcDbLine
 10
-23.79929280699184
 20
-19.50000017491852
 30
0.0
 11
-24.66173216885648
 21
-19.50000017491852
 31
0.0
  0
LINE
  5
8B36
330
A
100
AcDbEntity
  8
0
  6
Continuous
 62
     9
370
     0
100
AcDbLine
 10
-23.79929280699184
 20
-30.50000017491854
 30
0.0
 11
-23.79929280699184
 21
-41.25000017491858
 31
0.0
  0
LINE
  5
8B37
330
A
100
AcDbEntity
  8
0
  6
Continuous
 62
     7
370
     0
100
AcDbLine
 10
-24.66173216885648
 20
-41.25000017491858
 30
0.0
 11
-23.79929280699184
 21
-41.25000017491858
 31
0.0
  0
LINE
  5
8B38
330
A
100
AcDbEntity
  8
0
  6
Continuous
 62
     9
370
     0
100
AcDbLine
 10
-24.66173216885648
 20
-30.50000017491854
 30
0.0
 11
-24.66173216885648
 21
-41.25000017491858
 31
0.0
  0
LINE
  5
8B39
330
A
100
AcDbEntity
  8
0
  6
Continuous
 62
     7
370
     0
100
AcDbLine
 10
-24.66173216885648
 20
-30.50000017491854
 30
0.0
 11
-23.79929280699184
 21
-30.50000017491854
 31
0.0
  0
LINE
  5
8B3A
330
A
100
AcDbEntity
  8
0
  6
Continuous
 62
     7
370
     0
100
AcDbLine
 10
-40.49945450868778
 20
14.99999982508144
 30
0.0
 11
-35.49945450868757
 21
14.99999982508144
 31
0.0
  0
LINE
  5
8B3B
330
A
100
AcDbEntity
  8
0
  6
Continuous
 62
     7
370
     0
100
AcDbLine
 10
-32.0994545086877
 20
-19.50000017491852
 30
0.0
 11
-32.0994545086877
 21
-30.50000017491854
 31
0.0
  0
LINE
  5
8B3C
330
A
100
AcDbEntity
  8
0
  6
Continuous
 62
     7
370
     0
100
AcDbLine
 10
-35.49945450868757
 20
-65.00000017491858
 30
0.0
 11
-35.49945450868757
 21
-42.25000017491858
 31
0.0
  0
LINE
  5
8B3D
330
A
100
AcDbEntity
  8
0
  6
Continuous
 62
     7
370
     0
100
AcDbLine
 10
-35.49945450868757
 20
14.99999982508144
 30
0.0
 11
-35.49945450868757
 21
-7.75000017491854
 31
0.0
  0
ARC
  5
8B3E
330
A
100
AcDbEntity
  8
0
  6
Continuous
 62
     7
370
     0
100
AcDbCircle
 10
-34.49945450868779
 20
-7.75000017491854
 30
0.0
 40
1.0
100
AcDbArc
 50
180.0
 51
270.0
  0
LINE
  5
8B3F
330
A
100
AcDbEntity
  8
0
  6
Continuous
 62
     7
370
     0
100
AcDbLine
 10
-40.49945450868778
 20
-65.00000017491858
 30
0.0
 11
-35.49945450868757
 21
-65.00000017491858
 31
0.0
  0
ARC
  5
8B40
330
A
100
AcDbEntity
  8
0
  6
Continuous
 62
     7
370
     0
100
AcDbCircle
 10
-34.49945450868757
 20
-42.25000017491858
 30
0.0
 40
1.0
100
AcDbArc
 50
90.0
 51
180.0
  0
LINE
  5
8B41
330
A
100
AcDbEntity
  8
0
  6
Continuous
 62
     7
370
     0
100
AcDbLine
 10
-40.49945450868778
 20
14.99999982508144
 30
0.0
 11
-40.49945450868778
 21
-65.00000017491858
 31
0.0
  0
LINE
  5
8B42
330
A
100
AcDbEntity
  8
0
  6
Continuous
 62
     7
370
     0
100
AcDbLine
 10
-24.66173216885648
 20
-19.50000017491852
 30
0.0
 11
-32.0994545086877
 21
-19.50000017491852
 31
0.0
  0
LINE
  5
8B43
330
A
100
AcDbEntity
  8
0
  6
Continuous
 62
     7
370
     0
100
AcDbLine
 10
-34.49945450868757
 20
-41.25000017491858
 30
0.0
 11
-24.66173216885648
 21
-41.25000017491858
 31
0.0
  0
LINE
  5
8B44
330
A
100
AcDbEntity
  8
0
  6
Continuous
 62
     7
370
     0
100
AcDbLine
 10
-34.49945450868779
 20
-8.75000017491854
 30
0.0
 11
-24.66173216885648
 21
-8.75000017491854
 31
0.0
  0
LINE
  5
8B45
330
A
100
AcDbEntity
  8
0
  6
Continuous
 62
     7
370
     0
100
AcDbLine
 10
-32.0994545086877
 20
-30.50000017491854
 30
0.0
 11
-24.66173216885648
 21
-30.50000017491854
 31
0.0
  0
LINE
  5
8B46
330
A
100
AcDbEntity
  8
0
  6
Continuous
 62
     9
370
     0
100
AcDbLine
 10
-19.45038642224779
 20
-8.75000017491854
 30
0.0
 11
-19.45038642224779
 21
-19.50000017491852
 31
0.0
  0
LINE
  5
8B47
330
A
100
AcDbEntity
  8
0
  6
Continuous
 62
     9
370
     0
100
AcDbLine
 10
-18.31849216606167
 20
-8.75000017491854
 30
0.0
 11
-18.31849216606167
 21
-19.50000017491852
 31
0.0
  0
LINE
  5
8B48
330
A
100
AcDbEntity
  8
0
  6
Continuous
 62
     7
370
     0
100
AcDbLine
 10
-18.31849216606167
 20
-19.50000017491852
 30
0.0
 11
-19.45038642224779
 21
-19.50000017491852
 31
0.0
  0
LINE
  5
8B49
330
A
100
AcDbEntity
  8
0
  6
Continuous
 62
     7
370
     0
100
AcDbLine
 10
-19.45038642224779
 20
-8.75000017491854
 30
0.0
 11
-18.31849216606167
 21
-8.75000017491854
 31
0.0
  0
LINE
  5
8B4A
330
A
100
AcDbEntity
  8
0
  6
Continuous
 62
     9
370
     0
100
AcDbLine
 10
-18.31849216606167
 20
-30.50000017491854
 30
0.0
 11
-18.31849216606167
 21
-41.25000017491858
 31
0.0
  0
LINE
  5
8B4B
330
A
100
AcDbEntity
  8
0
  6
Continuous
 62
     9
370
     0
100
AcDbLine
 10
-19.45038642224779
 20
-30.50000017491854
 30
0.0
 11
-19.45038642224779
 21
-41.25000017491858
 31
0.0
  0
LINE
  5
8B4C
330
A
100
AcDbEntity
  8
0
  6
Continuous
 62
     7
370
     0
100
AcDbLine
 10
-19.45038642224779
 20
-41.25000017491858
 30
0.0
 11
-18.31849216606167
 21
-41.25000017491858
 31
0.0
  0
LINE
  5
8B4D
330
A
100
AcDbEntity
  8
0
  6
Continuous
 62
     7
370
     0
100
AcDbLine
 10
-19.45038642224779
 20
-30.50000017491854
 30
0.0
 11
-18.31849216606167
 21
-30.50000017491854
 31
0.0
  0
LINE
  5
8B4E
330
A
100
AcDbEntity
  8
0
  6
Continuous
 62
     9
370
     0
100
AcDbLine
 10
-12.48127269050587
 20
-8.75000017491854
 30
0.0
 11
-12.48127269050587
 21
-19.50000017491852
 31
0.0
  0
LINE
  5
8B4F
330
A
100
AcDbEntity
  8
0
  6
Continuous
 62
     7
370
     0
100
AcDbLine
 10
-12.48127269050587
 20
-19.50000017491852
 30
0.0
 11
-18.31849216606167
 21
-19.50000017491852
 31
0.0
  0
LINE
  5
8B50
330
A
100
AcDbEntity
  8
0
  6
Continuous
 62
     7
370
     0
100
AcDbLine
 10
-18.31849216606167
 20
-8.75000017491854
 30
0.0
 11
-12.48127269050587
 21
-8.75000017491854
 31
0.0
  0
LINE
  5
8B51
330
A
100
AcDbEntity
  8
0
  6
Continuous
 62
     9
370
     0
100
AcDbLine
 10
-12.48127269050587
 20
-30.50000017491854
 30
0.0
 11
-12.48127269050587
 21
-41.25000017491858
 31
0.0
  0
LINE
  5
8B52
330
A
100
AcDbEntity
  8
0
  6
Continuous
 62
     7
370
     0
100
AcDbLine
 10
-18.31849216606167
 20
-41.25000017491858
 30
0.0
 11
-12.48127269050587
 21
-41.25000017491858
 31
0.0
  0
LINE
  5
8B53
330
A
100
AcDbEntity
  8
0
  6
Continuous
 62
     7
370
     0
100
AcDbLine
 10
-18.31849216606167
 20
-30.50000017491854
 30
0.0
 11
-12.48127269050587
 21
-30.50000017491854
 31
0.0
  0
LINE
  5
8B54
330
A
100
AcDbEntity
  8
0
  6
Continuous
 62
     7
370
     0
100
AcDbLine
 10
-19.45038642224779
 20
-41.25000017491858
 30
0.0
 11
-23.79929280699184
 21
-41.25000017491858
 31
0.0
  0
LINE
  5
8B55
330
A
100
AcDbEntity
  8
0
  6
Continuous
 62
     7
370
     0
100
AcDbLine
 10
-19.45038642224779
 20
-30.50000017491854
 30
0.0
 11
-23.79929280699184
 21
-30.50000017491854
 31
0.0
  0
LINE
  5
8B56
330
A
100
AcDbEntity
  8
0
  6
Continuous
 62
     7
370
     0
100
AcDbLine
 10
-23.79929280699184
 20
-19.50000017491852
 30
0.0
 11
-19.45038642224779
 21
-19.50000017491852
 31
0.0
  0
LINE
  5
8B57
330
A
100
AcDbEntity
  8
0
  6
Continuous
 62
     7
370
     0
100
AcDbLine
 10
-19.45038642224779
 20
-8.75000017491854
 30
0.0
 11
-23.7992928069923
 21
-8.75000017491854
 31
0.0
  0
LINE
  5
8B58
330
A
100
AcDbEntity
  8
0
  6
Continuous
 62
     7
370
     0
100
AcDbLine
 10
-12.31763632686966
 20
-19.50000017491852
 30
0.0
 11
-12.48127269050587
 21
-19.50000017491852
 31
0.0
  0
LINE
  5
8B59
330
A
100
AcDbEntity
  8
0
  6
Continuous
 62
     7
370
     0
100
AcDbLine
 10
-12.48127269050587
 20
-8.75000017491854
 30
0.0
 11
-12.31763632686966
 21
-8.75000017491854
 31
0.0
  0
LINE
  5
8B5A
330
A
100
AcDbEntity
  8
0
  6
Continuous
 62
     7
370
     0
100
AcDbLine
 10
-12.48127269050587
 20
-41.25000017491858
 30
0.0
 11
-12.31763632686966
 21
-41.25000017491858
 31
0.0
  0
LINE
  5
8B5B
330
A
100
AcDbEntity
  8
0
  6
Continuous
 62
     7
370
     0
100
AcDbLine
 10
-12.48127269050587
 20
-30.50000017491854
 30
0.0
 11
-12.31763632686966
 21
-30.50000017491854
 31
0.0
  0
LINE
  5
8B5C
330
A
100
AcDbEntity
  8
0
  6
Continuous
 62
     7
370
     0
100
AcDbLine
 10
-31.99945450868779
 20
-8.600000175102948
 30
0.0
 11
-31.99945450867858
 21
-8.75000017491854
 31
0.0
  0
LINE
  5
8B5D
330
A
100
AcDbEntity
  8
0
  6
Continuous
 62
     7
370
     0
100
AcDbLine
 10
-31.99945450801772
 20
-19.50000017491852
 30
0.0
 11
-31.99945450801192
 21
-19.60000017510288
 31
0.0
  0
LINE
  5
8B5E
330
A
100
AcDbEntity
  8
0
  6
Continuous
 62
     7
370
     0
100
AcDbLine
 10
-25.99945450801181
 20
-19.60000017473416
 30
0.0
 11
-25.99945450801806
 21
-19.50000017491852
 31
0.0
  0
LINE
  5
8B5F
330
A
100
AcDbEntity
  8
0
  6
Continuous
 62
     7
370
     0
100
AcDbLine
 10
-25.99945450867858
 20
-8.75000017491854
 30
0.0
 11
-25.99945450868779
 21
-8.600000174734162
 31
0.0
  0
ARC
  5
8B60
330
A
100
AcDbEntity
  8
0
  6
Continuous
 62
     7
370
     0
100
AcDbCircle
 10
-30.49945450868779
 20
-29.40000017491854
 30
0.0
 40
1.0
100
AcDbArc
 50
180.0
 51
270.0
  0
ARC
  5
8B61
330
A
100
AcDbEntity
  8
0
  6
Continuous
 62
     7
370
     0
100
AcDbCircle
 10
-30.49945450868779
 20
-20.60000017491855
 30
0.0
 40
1.0
100
AcDbArc
 50
90.0
 51
180.0
  0
LINE
  5
8B62
330
A
100
AcDbEntity
  8
0
  6
Continuous
 62
     7
370
     0
100
AcDbLine
 10
-31.49945450868779
 20
-20.60000017491855
 30
0.0
 11
-31.49945450868779
 21
-29.40000017491854
 31
0.0
  0
ARC
  5
8B63
330
A
100
AcDbEntity
  8
0
  6
Continuous
 62
     7
370
     0
100
AcDbCircle
 10
-13.24945450868779
 20
-20.60000017491855
 30
0.0
 40
1.0
100
AcDbArc
 50
0.0
 51
90.0
  0
ARC
  5
8B64
330
A
100
AcDbEntity
  8
0
  6
Continuous
 62
     7
370
     0
100
AcDbCircle
 10
-13.24945450868779
 20
-29.40000017491854
 30
0.0
 40
1.0
100
AcDbArc
 50
270.0
 51
0.0
  0
LINE
  5
8B65
330
A
100
AcDbEntity
  8
0
  6
Continuous
 62
     7
370
     0
100
AcDbLine
 10
-12.24945450868756
 20
-29.40000017491854
 30
0.0
 11
-12.24945450868756
 21
-20.60000017491855
 31
0.0
  0
LINE
  5
8B66
330
A
100
AcDbEntity
  8
0
  6
Continuous
 62
     7
370
     0
100
AcDbLine
 10
-23.99945714573573
 20
-7.425000174919361
 30
0.0
 11
-23.99945714573573
 21
-7.550000174918551
 31
0.0
  0
LINE
  5
8B67
330
A
100
AcDbEntity
  8
0
  6
Continuous
 62
     7
370
     0
100
AcDbLine
 10
-23.99945714573573
 20
-42.45000017491928
 30
0.0
 11
-23.99945714573573
 21
-42.57500017491928
 31
0.0
  0
LINE
  5
8B68
330
A
100
AcDbEntity
  8
0
  6
Continuous
 62
     7
370
     0
100
AcDbLine
 10
-18.99945714573573
 20
-42.57500017491928
 30
0.0
 11
-18.99945714573573
 21
-42.45000017491928
 31
0.0
  0
LINE
  5
8B69
330
A
100
AcDbEntity
  8
0
  6
Continuous
 62
     7
370
     0
100
AcDbLine
 10
-18.99945714573573
 20
-7.550000174918551
 30
0.0
 11
-18.99945714573573
 21
-7.425000174919361
 31
0.0
  0
ARC
  5
8B6A
330
A
100
AcDbEntity
  8
0
  6
Continuous
 62
     7
370
     0
100
AcDbCircle
 10
-26.44945714949813
 20
-8.529852096100455
 30
0.0
 40
0.7999999999999985
100
AcDbArc
 50
99.99999999999861
 51
180.0000000000008
  0
ARC
  5
8B6B
330
A
100
AcDbEntity
  8
0
  6
Continuous
 62
     7
370
     0
100
AcDbCircle
 10
-16.54945714949645
 20
-8.529852096100455
 30
0.0
 40
0.8000000000000229
100
AcDbArc
 50
0.0
 51
80.0000000000014
  0
LINE
  5
8B6C
330
A
100
AcDbEntity
  8
0
  6
Continuous
 62
     7
370
     0
100
AcDbLine
 10
-15.74945714949626
 20
-8.750000174918753
 30
0.0
 11
-15.74945714949626
 21
-8.529852096100455
 31
0.0
  0
LINE
  5
8B6D
330
A
100
AcDbEntity
  8
0
  6
Continuous
 62
     7
370
     0
100
AcDbLine
 10
-27.24945714949831
 20
-8.529852096100455
 30
0.0
 11
-27.24945714949831
 21
-8.600000174806538
 31
0.0
  0
LINE
  5
8B6E
330
A
100
AcDbEntity
  8
0
  6
Continuous
 62
     7
370
     0
100
AcDbLine
 10
-16.41053860736292
 20
-7.74200589369056
 30
0.0
 11
-17.4994571494966
 21
-7.550000174918551
 31
0.0
  0
LINE
  5
8B6F
330
A
100
AcDbEntity
  8
0
  6
Continuous
 62
     7
370
     0
100
AcDbLine
 10
-25.49945714949797
 20
-7.550000174918551
 30
0.0
 11
-26.58837569163143
 21
-7.74200589369056
 31
0.0
  0
LINE
  5
8B70
330
A
100
AcDbEntity
  8
0
  6
Continuous
 62
     7
370
     0
100
AcDbLine
 10
-17.9994571494966
 20
-19.60000017491779
 30
0.0
 11
-17.9994571494966
 21
-19.50000017491767
 31
0.0
  0
LINE
  5
8B71
330
A
100
AcDbEntity
  8
0
  6
Continuous
 62
     7
370
     0
100
AcDbLine
 10
-24.99945714949752
 20
-19.50000017491767
 30
0.0
 11
-24.99945714949752
 21
-19.60000017491779
 31
0.0
  0
ARC
  5
8B72
330
A
100
AcDbEntity
  8
0
  6
Continuous
 62
     7
370
     0
100
AcDbCircle
 10
-16.54945666984065
 20
-41.47014825373766
 30
0.0
 40
0.7999999999999985
100
AcDbArc
 50
279.9999999999986
 51
0.0
  0
ARC
  5
8B73
330
A
100
AcDbEntity
  8
0
  6
Continuous
 62
     7
370
     0
100
AcDbCircle
 10
-26.44945666984097
 20
-41.47014825373766
 30
0.0
 40
0.7999999999999119
100
AcDbArc
 50
180.0
 51
260.0000000000014
  0
LINE
  5
8B74
330
A
100
AcDbEntity
  8
0
  6
Continuous
 62
     7
370
     0
100
AcDbLine
 10
-27.2494566698407
 20
-41.25000017491939
 30
0.0
 11
-27.2494566698407
 21
-41.47014825373766
 31
0.0
  0
LINE
  5
8B75
330
A
100
AcDbEntity
  8
0
  6
Continuous
 62
     7
370
     0
100
AcDbLine
 10
-15.74945666984081
 20
-41.47014825373766
 30
0.0
 11
-15.74945666984081
 21
-41.25000017491939
 31
0.0
  0
LINE
  5
8B76
330
A
100
AcDbEntity
  8
0
  6
Continuous
 62
     7
370
     0
100
AcDbLine
 10
-26.58837521197438
 20
-42.25799445614747
 30
0.0
 11
-25.49945666984081
 21
-42.45000017491928
 31
0.0
  0
LINE
  5
8B77
330
A
100
AcDbEntity
  8
0
  6
Continuous
 62
     7
370
     0
100
AcDbLine
 10
-17.49945666984081
 20
-42.45000017491928
 30
0.0
 11
-16.4105381277069
 21
-42.25799445614747
 31
0.0
  0
LINE
  5
8B78
330
A
100
AcDbEntity
  8
0
  6
Continuous
 62
     7
370
     0
100
AcDbLine
 10
-24.99945666984104
 20
-30.40000017491855
 30
0.0
 11
-24.99945666984104
 21
-30.50000017491854
 31
0.0
  0
LINE
  5
8B79
330
A
100
AcDbEntity
  8
0
  6
Continuous
 62
     7
370
     0
100
AcDbLine
 10
-17.99945666984081
 20
-30.50000017491854
 30
0.0
 11
-17.99945666984081
 21
-30.40000017491855
 31
0.0
  0
LINE
  5
8B7A
330
A
100
AcDbEntity
  8
0
  6
Continuous
 62
     7
370
     0
100
AcDbLine
 10
-12.31763632686966
 20
-19.50000017491852
 30
0.0
 11
-12.31763632686966
 21
-8.75000017491854
 31
0.0
  0
LINE
  5
8B7B
330
A
100
AcDbEntity
  8
0
  6
Continuous
 62
     7
370
     0
100
AcDbLine
 10
-12.31763632686966
 20
-41.25000017491858
 30
0.0
 11
-12.31763632686966
 21
-30.50000017491854
 31
0.0
  0
TEXT
  5
AFBD
330
A
100
AcDbEntity
  8
0
  6
Continuous
 62
     7
370
     0
100
AcDbText
 10
35.2999213450679
 20
67.00732046929762
 30
0.0
 40
10.0
  1
8501R
100
AcDbText
  0
LINE
  5
AFBF
330
A
100
AcDbEntity
  8
0
  6
Continuous
 62
     7
370
     0
100
AcDbLine
 10
59.77822118732411
 20
-112.7113958856491
 30
0.0
 11
59.79110861876097
 21
-112.7302671665867
 31
0.0
  0
LINE
  5
AFC0
330
A
100
AcDbEntity
  8
0
  6
Continuous
 62
     7
370
     0
100
AcDbLine
 10
59.79110861876097
 20
-112.7302671665867
 30
0.0
 11
59.80955550392093
 21
-112.7553328755485
 31
0.0
  0
LINE
  5
AFC1
330
A
100
AcDbEntity
  8
0
  6
Continuous
 62
     7
370
     0
100
AcDbLine
 10
59.80955550392093
 20
-112.7553328755485
 30
0.0
 11
59.82906451624296
 21
-112.7797315840442
 31
0.0
  0
LINE
  5
AFC2
330
A
100
AcDbEntity
  8
0
  6
Continuous
 62
     7
370
     0
100
AcDbLine
 10
59.82906451624296
 20
-112.7797315840442
 30
0.0
 11
59.84307112915598
 21
-112.796098051486
 31
0.0
  0
LINE
  5
AFC3
330
A
100
AcDbEntity
  8
0
  6
Continuous
 62
     7
370
     0
100
AcDbLine
 10
59.84307112915598
 20
-112.796098051486
 30
0.0
 11
59.85754773028509
 21
-112.8121216445141
 31
0.0
  0
LINE
  5
AFC4
330
A
100
AcDbEntity
  8
0
  6
Continuous
 62
     7
370
     0
100
AcDbLine
 10
59.85754773028509
 20
-112.8121216445141
 30
0.0
 11
59.885232209886
 21
-112.8405408628393
 31
0.0
  0
LINE
  5
AFC5
330
A
100
AcDbEntity
  8
0
  6
Continuous
 62
     7
370
     0
100
AcDbLine
 10
59.885232209886
 20
-112.8405408628393
 30
0.0
 11
59.9143633126057
 21
-112.8677164626677
 31
0.0
  0
LINE
  5
AFC6
330
A
100
AcDbEntity
  8
0
  6
Continuous
 62
     7
370
     0
100
AcDbLine
 10
59.9143633126057
 20
-112.8677164626677
 30
0.0
 11
59.94051036478572
 21
-112.8900505700716
 31
0.0
  0
LINE
  5
AFC7
330
A
100
AcDbEntity
  8
0
  6
Continuous
 62
     7
370
     0
100
AcDbLine
 10
59.94051036478572
 20
-112.8900505700716
 30
0.0
 11
59.96760976401197
 21
-112.9113921590297
 31
0.0
  0
LINE
  5
AFC8
330
A
100
AcDbEntity
  8
0
  6
Continuous
 62
     7
370
     0
100
AcDbLine
 10
59.96760976401197
 20
-112.9113921590297
 30
0.0
 11
59.99417814836897
 21
-112.9307138414533
 31
0.0
  0
LINE
  5
AFC9
330
A
100
AcDbEntity
  8
0
  6
Continuous
 62
     7
370
     0
100
AcDbLine
 10
59.99417814836897
 20
-112.9307138414533
 30
0.0
 11
60.02150842188701
 21
-112.9490908983837
 31
0.0
  0
LINE
  5
AFCA
330
A
100
AcDbEntity
  8
0
  6
Continuous
 62
     7
370
     0
100
AcDbLine
 10
60.02150842188701
 20
-112.9490908983837
 30
0.0
 11
60.050489695593
 21
-112.9670587697744
 31
0.0
  0
LINE
  5
AFCB
330
A
100
AcDbEntity
  8
0
  6
Continuous
 62
     7
370
     0
100
AcDbLine
 10
60.050489695593
 20
-112.9670587697744
 30
0.0
 11
60.080181210349
 21
-112.983975250403
 31
0.0
  0
LINE
  5
AFCC
330
A
100
AcDbEntity
  8
0
  6
Continuous
 62
     7
370
     0
100
AcDbLine
 10
60.080181210349
 20
-112.983975250403
 30
0.0
 11
60.11078850605986
 21
-112.9999487170006
 31
0.0
  0
LINE
  5
AFCD
330
A
100
AcDbEntity
  8
0
  6
Continuous
 62
     7
370
     0
100
AcDbLine
 10
60.11078850605986
 20
-112.9999487170006
 30
0.0
 11
60.14201217776508
 21
-113.0148161287929
 31
0.0
  0
LINE
  5
AFCE
330
A
100
AcDbEntity
  8
0
  6
Continuous
 62
     7
370
     0
100
AcDbLine
 10
60.14201217776508
 20
-113.0148161287929
 30
0.0
 11
60.17414414525195
 21
-113.0287023945618
 31
0.0
  0
LINE
  5
AFCF
330
A
100
AcDbEntity
  8
0
  6
Continuous
 62
     7
370
     0
100
AcDbLine
 10
60.17414414525195
 20
-113.0287023945618
 30
0.0
 11
60.20679800207983
 21
-113.0414282270987
 31
0.0
  0
LINE
  5
AFD0
330
A
100
AcDbEntity
  8
0
  6
Continuous
 62
     7
370
     0
100
AcDbLine
 10
60.20679800207983
 20
-113.0414282270987
 30
0.0
 11
60.240196693705
 21
-113.0530708404721
 31
0.0
  0
LINE
  5
AFD1
330
A
100
AcDbEntity
  8
0
  6
Continuous
 62
     7
370
     0
100
AcDbLine
 10
60.240196693705
 20
-113.0530708404721
 30
0.0
 11
60.27401703964597
 21
-113.0635093774257
 31
0.0
  0
LINE
  5
AFD2
330
A
100
AcDbEntity
  8
0
  6
Continuous
 62
     7
370
     0
100
AcDbLine
 10
60.27401703964597
 20
-113.0635093774257
 30
0.0
 11
60.31249860838705
 21
-113.0737983575331
 31
0.0
  0
LINE
  5
AFD3
330
A
100
AcDbEntity
  8
0
  6
Continuous
 62
     7
370
     0
100
AcDbLine
 10
60.31249860838705
 20
-113.0737983575331
 30
0.0
 11
60.35138769790103
 21
-113.0825440156363
 31
0.0
  0
LINE
  5
AFD4
330
A
100
AcDbEntity
  8
0
  6
Continuous
 62
     7
370
     0
100
AcDbLine
 10
60.35138769790103
 20
-113.0825440156363
 30
0.0
 11
60.39057179423116
 21
-113.0897283512795
 31
0.0
  0
LINE
  5
AFD5
330
A
100
AcDbEntity
  8
0
  6
Continuous
 62
     7
370
     0
100
AcDbLine
 10
60.39057179423116
 20
-113.0897283512795
 30
0.0
 11
60.43042157059677
 21
-113.0953963728224
 31
0.0
  0
LINE
  5
AFD6
330
A
100
AcDbEntity
  8
0
  6
Continuous
 62
     7
370
     0
100
AcDbLine
 10
60.43042157059677
 20
-113.0953963728224
 30
0.0
 11
60.47045727036084
 21
-113.0994615462734
 31
0.0
  0
LINE
  5
AFD7
330
A
100
AcDbEntity
  8
0
  6
Continuous
 62
     7
370
     0
100
AcDbLine
 10
60.47045727036084
 20
-113.0994615462734
 30
0.0
 11
60.51056445546407
 21
-113.1019159386833
 31
0.0
  0
LINE
  5
AFD8
330
A
100
AcDbEntity
  8
0
  6
Continuous
 62
     7
370
     0
100
AcDbLine
 10
60.51056445546407
 20
-113.1019159386833
 30
0.0
 11
60.51664943173694
 21
-113.1021471937731
 31
0.0
  0
LINE
  5
AFD9
330
A
100
AcDbEntity
  8
0
  6
Continuous
 62
     7
370
     0
100
AcDbLine
 10
-91.44001481666851
 20
-5.412759196869245
 30
0.0
 11
-91.42961604839717
 21
-5.406581969307666
 31
0.0
  0
LINE
  5
AFDA
330
A
100
AcDbEntity
  8
0
  6
Continuous
 62
     7
370
     0
100
AcDbLine
 10
-91.42961604839717
 20
-5.406581969307666
 30
0.0
 11
-91.40987179810769
 21
-5.393882044317038
 31
0.0
  0
LINE
  5
AFDB
330
A
100
AcDbEntity
  8
0
  6
Continuous
 62
     7
370
     0
100
AcDbLine
 10
-91.40987179810769
 20
-5.393882044317038
 30
0.0
 11
-91.3908560419353
 21
-5.380352018735948
 31
0.0
  0
LINE
  5
AFDC
330
A
100
AcDbEntity
  8
0
  6
Continuous
 62
     7
370
     0
100
AcDbLine
 10
-91.3908560419353
 20
-5.380352018735948
 30
0.0
 11
-91.37260339448529
 21
-5.366040721983154
 31
0.0
  0
LINE
  5
AFDD
330
A
100
AcDbEntity
  8
0
  6
Continuous
 62
     7
370
     0
100
AcDbLine
 10
-91.37260339448529
 20
-5.366040721983154
 30
0.0
 11
-91.35514575793047
 21
-5.350999161946063
 31
0.0
  0
LINE
  5
AFDE
330
A
100
AcDbEntity
  8
0
  6
Continuous
 62
     7
370
     0
100
AcDbLine
 10
-91.35514575793047
 20
-5.350999161946063
 30
0.0
 11
-91.33851220702741
 21
-5.335280538335865
 31
0.0
  0
LINE
  5
AFDF
330
A
100
AcDbEntity
  8
0
  6
Continuous
 62
     7
370
     0
100
AcDbLine
 10
-91.33851220702741
 20
-5.335280538335865
 30
0.0
 11
-91.3227288699411
 21
-5.318940281181369
 31
0.0
  0
LINE
  5
AFE0
330
A
100
AcDbEntity
  8
0
  6
Continuous
 62
     7
370
     0
100
AcDbLine
 10
-91.3227288699411
 20
-5.318940281181369
 30
0.0
 11
-91.30781880254312
 21
-5.302036122634461
 31
0.0
  0
LINE
  5
AFE1
330
A
100
AcDbEntity
  8
0
  6
Continuous
 62
     7
370
     0
100
AcDbLine
 10
-91.30781880254312
 20
-5.302036122634461
 30
0.0
 11
-91.29380185326704
 21
-5.28462821275265
 31
0.0
  0
LINE
  5
AFE2
330
A
100
AcDbEntity
  8
0
  6
Continuous
 62
     7
370
     0
100
AcDbLine
 10
-91.29380185326704
 20
-5.28462821275265
 30
0.0
 11
-91.28069451473459
 21
-5.266779293334451
 31
0.0
  0
LINE
  5
AFE3
330
A
100
AcDbEntity
  8
0
  6
Continuous
 62
     7
370
     0
100
AcDbLine
 10
-91.28069451473459
 20
-5.266779293334451
 30
0.0
 11
-91.26850975725449
 21
-5.248554948639863
 31
0.0
  0
LINE
  5
AFE4
330
A
100
AcDbEntity
  8
0
  6
Continuous
 62
     7
370
     0
100
AcDbLine
 10
-91.26850975725449
 20
-5.248554948639863
 30
0.0
 11
-91.25725683796508
 21
-5.230023958767645
 31
0.0
  0
LINE
  5
AFE5
330
A
100
AcDbEntity
  8
0
  6
Continuous
 62
     7
370
     0
100
AcDbLine
 10
-91.25725683796508
 20
-5.230023958767645
 30
0.0
 11
-91.24694107756704
 21
-5.211258791557852
 31
0.0
  0
LINE
  5
AFE6
330
A
100
AcDbEntity
  8
0
  6
Continuous
 62
     7
370
     0
100
AcDbLine
 10
-91.24694107756704
 20
-5.211258791557852
 30
0.0
 11
-91.23756359446133
 21
-5.192336284387863
 31
0.0
  0
LINE
  5
AFE7
330
A
100
AcDbEntity
  8
0
  6
Continuous
 62
     7
370
     0
100
AcDbLine
 10
-91.23756359446133
 20
-5.192336284387863
 30
0.0
 11
-91.22912098360552
 21
-5.173338592161144
 31
0.0
  0
LINE
  5
AFE8
330
A
100
AcDbEntity
  8
0
  6
Continuous
 62
     7
370
     0
100
AcDbLine
 10
-91.22912098360552
 20
-5.173338592161144
 30
0.0
 11
-91.22160492506896
 21
-5.15435452091846
 31
0.0
  0
LINE
  5
AFE9
330
A
100
AcDbEntity
  8
0
  6
Continuous
 62
     7
370
     0
100
AcDbLine
 10
-91.22160492506896
 20
-5.15435452091846
 30
0.0
 11
-91.21500170655826
 21
-5.13548144914246
 31
0.0
  0
LINE
  5
AFEA
330
A
100
AcDbEntity
  8
0
  6
Continuous
 62
     7
370
     0
100
AcDbLine
 10
-91.21500170655826
 20
-5.13548144914246
 30
0.0
 11
-91.20929164952896
 21
-5.116828218270867
 31
0.0
  0
LINE
  5
AFEB
330
A
100
AcDbEntity
  8
0
  6
Continuous
 62
     7
370
     0
100
AcDbLine
 10
-91.20929164952896
 20
-5.116828218270867
 30
0.0
 11
-91.20444845253917
 21
-5.098519822534242
 31
0.0
  0
LINE
  5
AFEC
330
A
100
AcDbEntity
  8
0
  6
Continuous
 62
     7
370
     0
100
AcDbLine
 10
-91.20444845253917
 20
-5.098519822534242
 30
0.0
 11
-91.20043854468439
 21
-5.080706017882874
 31
0.0
  0
LINE
  5
AFED
330
A
100
AcDbEntity
  8
0
  6
Continuous
 62
     7
370
     0
100
AcDbLine
 10
-91.20043854468439
 20
-5.080706017882874
 30
0.0
 11
-91.19722077956556
 21
-5.063580153367851
 31
0.0
  0
LINE
  5
AFEE
330
A
100
AcDbEntity
  8
0
  6
Continuous
 62
     7
370
     0
100
AcDbLine
 10
-91.19722077956556
 20
-5.063580153367851
 30
0.0
 11
-91.19474743426327
 21
-5.047429091544373
 31
0.0
  0
LINE
  5
AFEF
330
A
100
AcDbEntity
  8
0
  6
Continuous
 62
     7
370
     0
100
AcDbLine
 10
-91.19474743426327
 20
-5.047429091544373
 30
0.0
 11
-91.19333675557948
 21
-5.036132511696649
 31
0.0
  0
LINE
  5
AFF0
330
A
100
AcDbEntity
  8
0
  6
Continuous
 62
     7
370
     0
100
AcDbLine
 10
-91.19327936311458
 20
5.03562585359495
 30
0.0
 11
-91.19502925562494
 21
5.049465286274838
 31
0.0
  0
LINE
  5
AFF1
330
A
100
AcDbEntity
  8
0
  6
Continuous
 62
     7
370
     0
100
AcDbLine
 10
-91.19502925562494
 20
5.049465286274838
 30
0.0
 11
-91.19781131967114
 21
5.066986675841462
 31
0.0
  0
LINE
  5
AFF2
330
A
100
AcDbEntity
  8
0
  6
Continuous
 62
     7
370
     0
100
AcDbLine
 10
-91.19781131967114
 20
5.066986675841462
 30
0.0
 11
-91.20146898436724
 21
5.08558718277203
 31
0.0
  0
LINE
  5
AFF3
330
A
100
AcDbEntity
  8
0
  6
Continuous
 62
     7
370
     0
100
AcDbLine
 10
-91.20146898436724
 20
5.08558718277203
 30
0.0
 11
-91.20615858773204
 21
5.105313470015047
 31
0.0
  0
LINE
  5
AFF4
330
A
100
AcDbEntity
  8
0
  6
Continuous
 62
     7
370
     0
100
AcDbLine
 10
-91.20615858773204
 20
5.105313470015047
 30
0.0
 11
-91.21191909546656
 21
5.12573777403584
 31
0.0
  0
LINE
  5
AFF5
330
A
100
AcDbEntity
  8
0
  6
Continuous
 62
     7
370
     0
100
AcDbLine
 10
-91.21191909546656
 20
5.12573777403584
 30
0.0
 11
-91.21875428054442
 21
5.146503501663843
 31
0.0
  0
LINE
  5
AFF6
330
A
100
AcDbEntity
  8
0
  6
Continuous
 62
     7
370
     0
100
AcDbLine
 10
-91.21875428054442
 20
5.146503501663843
 30
0.0
 11
-91.22665256733261
 21
5.167351276830643
 31
0.0
  0
LINE
  5
AFF7
330
A
100
AcDbEntity
  8
0
  6
Continuous
 62
     7
370
     0
100
AcDbLine
 10
-91.22665256733261
 20
5.167351276830643
 30
0.0
 11
-91.23559616517491
 21
5.18809676114634
 31
0.0
  0
LINE
  5
AFF8
330
A
100
AcDbEntity
  8
0
  6
Continuous
 62
     7
370
     0
100
AcDbLine
 10
-91.23559616517491
 20
5.18809676114634
 30
0.0
 11
-91.24556404141548
 21
5.208604353751042
 31
0.0
  0
LINE
  5
AFF9
330
A
100
AcDbEntity
  8
0
  6
Continuous
 62
     7
370
     0
100
AcDbLine
 10
-91.24556404141548
 20
5.208604353751042
 30
0.0
 11
-91.25653286035641
 21
5.22876918112145
 31
0.0
  0
LINE
  5
AFFA
330
A
100
AcDbEntity
  8
0
  6
Continuous
 62
     7
370
     0
100
AcDbLine
 10
-91.25653286035641
 20
5.22876918112145
 30
0.0
 11
-91.26847725096354
 21
5.248506022998839
 31
0.0
  0
LINE
  5
AFFB
330
A
100
AcDbEntity
  8
0
  6
Continuous
 62
     7
370
     0
100
AcDbLine
 10
-91.26847725096354
 20
5.248506022998839
 30
0.0
 11
-91.28136987576567
 21
5.267742673952554
 31
0.0
  0
LINE
  5
AFFC
330
A
100
AcDbEntity
  8
0
  6
Continuous
 62
     7
370
     0
100
AcDbLine
 10
-91.28136987576567
 20
5.267742673952554
 30
0.0
 11
-91.29518145306622
 21
5.286415944994843
 31
0.0
  0
LINE
  5
AFFD
330
A
100
AcDbEntity
  8
0
  6
Continuous
 62
     7
370
     0
100
AcDbLine
 10
-91.29518145306622
 20
5.286415944994843
 30
0.0
 11
-91.30988077860786
 21
5.304469218538145
 31
0.0
  0
LINE
  5
AFFE
330
A
100
AcDbEntity
  8
0
  6
Continuous
 62
     7
370
     0
100
AcDbLine
 10
-91.30988077860786
 20
5.304469218538145
 30
0.0
 11
-91.32543475862041
 21
5.321850927192755
 31
0.0
  0
LINE
  5
AFFF
330
A
100
AcDbEntity
  8
0
  6
Continuous
 62
     7
370
     0
100
AcDbLine
 10
-91.32543475862041
 20
5.321850927192755
 30
0.0
 11
-91.34180845569449
 21
5.338513592694141
 31
0.0
  0
LINE
  5
B000
330
A
100
AcDbEntity
  8
0
  6
Continuous
 62
     7
370
     0
100
AcDbLine
 10
-91.34180845569449
 20
5.338513592694141
 30
0.0
 11
-91.35896514607919
 21
5.354413211879048
 31
0.0
  0
LINE
  5
B001
330
A
100
AcDbEntity
  8
0
  6
Continuous
 62
     7
370
     0
100
AcDbLine
 10
-91.35896514607919
 20
5.354413211879048
 30
0.0
 11
-91.37686638656168
 21
5.369508862298843
 31
0.0
  0
LINE
  5
B002
330
A
100
AcDbEntity
  8
0
  6
Continuous
 62
     7
370
     0
100
AcDbLine
 10
-91.37686638656168
 20
5.369508862298843
 30
0.0
 11
-91.39547208930139
 21
5.383762449528845
 31
0.0
  0
LINE
  5
B003
330
A
100
AcDbEntity
  8
0
  6
Continuous
 62
     7
370
     0
100
AcDbLine
 10
-91.39547208930139
 20
5.383762449528845
 30
0.0
 11
-91.41474060332019
 21
5.39713854737883
 31
0.0
  0
LINE
  5
B004
330
A
100
AcDbEntity
  8
0
  6
Continuous
 62
     7
370
     0
100
AcDbLine
 10
-91.41474060332019
 20
5.39713854737883
 30
0.0
 11
-91.43462880164088
 21
5.40960429976134
 31
0.0
  0
LINE
  5
B005
330
A
100
AcDbEntity
  8
0
  6
Continuous
 62
     7
370
     0
100
AcDbLine
 10
-91.43462880164088
 20
5.40960429976134
 30
0.0
 11
-91.43932848959423
 21
5.412364005131351
 31
0.0
  0
LINE
  5
B006
330
A
100
AcDbEntity
  8
0
  6
Continuous
 62
     7
370
     0
100
AcDbLine
 10
-91.44001481703595
 20
-55.41276041466067
 30
0.0
 11
-91.4296152619279
 21
-55.40658270673249
 31
0.0
  0
LINE
  5
B007
330
A
100
AcDbEntity
  8
0
  6
Continuous
 62
     7
370
     0
100
AcDbLine
 10
-91.4296152619279
 20
-55.40658270673249
 30
0.0
 11
-91.40987103943713
 21
-55.39388274832906
 31
0.0
  0
LINE
  5
B008
330
A
100
AcDbEntity
  8
0
  6
Continuous
 62
     7
370
     0
100
AcDbLine
 10
-91.40987103943713
 20
-55.39388274832906
 30
0.0
 11
-91.39085531246928
 21
-55.38035269120398
 31
0.0
  0
LINE
  5
B009
330
A
100
AcDbEntity
  8
0
  6
Continuous
 62
     7
370
     0
100
AcDbLine
 10
-91.39085531246928
 20
-55.38035269120398
 30
0.0
 11
-91.37260269552678
 21
-55.36604136486059
 31
0.0
  0
LINE
  5
B00A
330
A
100
AcDbEntity
  8
0
  6
Continuous
 62
     7
370
     0
100
AcDbLine
 10
-91.37260269552678
 20
-55.36604136486059
 30
0.0
 11
-91.35514509067183
 21
-55.35099977727048
 31
0.0
  0
LINE
  5
B00B
330
A
100
AcDbEntity
  8
0
  6
Continuous
 62
     7
370
     0
100
AcDbLine
 10
-91.35514509067183
 20
-55.35099977727048
 30
0.0
 11
-91.33851157254957
 21
-55.33528112823277
 31
0.0
  0
LINE
  5
B00C
330
A
100
AcDbEntity
  8
0
  6
Continuous
 62
     7
370
     0
100
AcDbLine
 10
-91.33851157254957
 20
-55.33528112823277
 30
0.0
 11
-91.32272826920894
 21
-55.31894084786629
 31
0.0
  0
LINE
  5
B00D
330
A
100
AcDbEntity
  8
0
  6
Continuous
 62
     7
370
     0
100
AcDbLine
 10
-91.32272826920894
 20
-55.31894084786629
 30
0.0
 11
-91.30781823639528
 21
-55.30203666841079
 31
0.0
  0
LINE
  5
B00E
330
A
100
AcDbEntity
  8
0
  6
Continuous
 62
     7
370
     0
100
AcDbLine
 10
-91.30781823639528
 20
-55.30203666841079
 30
0.0
 11
-91.29380132241761
 21
-55.28462874002578
 31
0.0
  0
LINE
  5
B00F
330
A
100
AcDbEntity
  8
0
  6
Continuous
 62
     7
370
     0
100
AcDbLine
 10
-91.29380132241761
 20
-55.28462874002578
 30
0.0
 11
-91.28069401975915
 21
-55.26677980461165
 31
0.0
  0
LINE
  5
B010
330
A
100
AcDbEntity
  8
0
  6
Continuous
 62
     7
370
     0
100
AcDbLine
 10
-91.28069401975915
 20
-55.26677980461165
 30
0.0
 11
-91.26850929859051
 21
-55.24855544654839
 31
0.0
  0
LINE
  5
B011
330
A
100
AcDbEntity
  8
0
  6
Continuous
 62
     7
370
     0
100
AcDbLine
 10
-91.26850929859051
 20
-55.24855544654839
 30
0.0
 11
-91.25725641589928
 21
-55.23002444606838
 31
0.0
  0
LINE
  5
B012
330
A
100
AcDbEntity
  8
0
  6
Continuous
 62
     7
370
     0
100
AcDbLine
 10
-91.25725641589928
 20
-55.23002444606838
 30
0.0
 11
-91.24694069222698
 21
-55.21125927116556
 31
0.0
  0
LINE
  5
B013
330
A
100
AcDbEntity
  8
0
  6
Continuous
 62
     7
370
     0
100
AcDbLine
 10
-91.24694069222698
 20
-55.21125927116556
 30
0.0
 11
-91.23756324580439
 21
-55.19233675940698
 31
0.0
  0
LINE
  5
B014
330
A
100
AcDbEntity
  8
0
  6
Continuous
 62
     7
370
     0
100
AcDbLine
 10
-91.23756324580439
 20
-55.19233675940698
 30
0.0
 11
-91.22912067140532
 21
-55.17333906592687
 31
0.0
  0
LINE
  5
B015
330
A
100
AcDbEntity
  8
0
  6
Continuous
 62
     7
370
     0
100
AcDbLine
 10
-91.22912067140532
 20
-55.17333906592687
 30
0.0
 11
-91.22160464889828
 21
-55.15435499705817
 31
0.0
  0
LINE
  5
B016
330
A
100
AcDbEntity
  8
0
  6
Continuous
 62
     7
370
     0
100
AcDbLine
 10
-91.22160464889828
 20
-55.15435499705817
 30
0.0
 11
-91.21500146576716
 21
-55.13548193166839
 31
0.0
  0
LINE
  5
B017
330
A
100
AcDbEntity
  8
0
  6
Continuous
 62
     7
370
     0
100
AcDbLine
 10
-91.21500146576716
 20
-55.13548193166839
 30
0.0
 11
-91.20929144322202
 21
-55.11682871171788
 31
0.0
  0
LINE
  5
B018
330
A
100
AcDbEntity
  8
0
  6
Continuous
 62
     7
370
     0
100
AcDbLine
 10
-91.20929144322202
 20
-55.11682871171788
 30
0.0
 11
-91.20444827954839
 21
-55.09852033220006
 31
0.0
  0
LINE
  5
B019
330
A
100
AcDbEntity
  8
0
  6
Continuous
 62
     7
370
     0
100
AcDbLine
 10
-91.20444827954839
 20
-55.09852033220006
 30
0.0
 11
-91.20043840354639
 21
-55.08070655029609
 31
0.0
  0
LINE
  5
B01A
330
A
100
AcDbEntity
  8
0
  6
Continuous
 62
     7
370
     0
100
AcDbLine
 10
-91.20043840354639
 20
-55.08070655029609
 30
0.0
 11
-91.19722066852579
 21
-55.06358071740347
 31
0.0
  0
LINE
  5
B01B
330
A
100
AcDbEntity
  8
0
  6
Continuous
 62
     7
370
     0
100
AcDbLine
 10
-91.19722066852579
 20
-55.06358071740347
 30
0.0
 11
-91.1947473513627
 21
-55.04742970159266
 31
0.0
  0
LINE
  5
B01C
330
A
100
AcDbEntity
  8
0
  6
Continuous
 62
     7
370
     0
100
AcDbLine
 10
-91.1947473513627
 20
-55.04742970159266
 30
0.0
 11
-91.19333675792825
 21
-55.03613375000139
 31
0.0
  0
LINE
  5
B01D
330
A
100
AcDbEntity
  8
0
  6
Continuous
 62
     7
370
     0
100
AcDbLine
 10
-91.19327937713739
 20
-44.96437523910758
 30
0.0
 11
-91.19502930588998
 21
-44.95053557390515
 31
0.0
  0
LINE
  5
B01E
330
A
100
AcDbEntity
  8
0
  6
Continuous
 62
     7
370
     0
100
AcDbLine
 10
-91.19502930588998
 20
-44.95053557390515
 30
0.0
 11
-91.19781138220446
 21
-44.93301418848879
 31
0.0
  0
LINE
  5
B01F
330
A
100
AcDbEntity
  8
0
  6
Continuous
 62
     7
370
     0
100
AcDbLine
 10
-91.19781138220446
 20
-44.93301418848879
 30
0.0
 11
-91.20146906682704
 21
-44.91441365377188
 31
0.0
  0
LINE
  5
B020
330
A
100
AcDbEntity
  8
0
  6
Continuous
 62
     7
370
     0
100
AcDbLine
 10
-91.20146906682704
 20
-44.91441365377188
 30
0.0
 11
-91.2061586911226
 21
-44.89468734877981
 31
0.0
  0
LINE
  5
B021
330
A
100
AcDbEntity
  8
0
  6
Continuous
 62
     7
370
     0
100
AcDbLine
 10
-91.2061586911226
 20
-44.89468734877981
 30
0.0
 11
-91.21191922017748
 21
-44.87426303478197
 31
0.0
  0
LINE
  5
B022
330
A
100
AcDbEntity
  8
0
  6
Continuous
 62
     7
370
     0
100
AcDbLine
 10
-91.21191922017748
 20
-44.87426303478197
 30
0.0
 11
-91.21875442644716
 21
-44.85349730325888
 31
0.0
  0
LINE
  5
B023
330
A
100
AcDbEntity
  8
0
  6
Continuous
 62
     7
370
     0
100
AcDbLine
 10
-91.21875442644716
 20
-44.85349730325888
 30
0.0
 11
-91.22665273412087
 21
-44.8326495284908
 31
0.0
  0
LINE
  5
B024
330
A
100
AcDbEntity
  8
0
  6
Continuous
 62
     7
370
     0
100
AcDbLine
 10
-91.22665273412087
 20
-44.8326495284908
 30
0.0
 11
-91.23559635245943
 21
-44.81190404766789
 31
0.0
  0
LINE
  5
B025
330
A
100
AcDbEntity
  8
0
  6
Continuous
 62
     7
370
     0
100
AcDbLine
 10
-91.23559635245943
 20
-44.81190404766789
 30
0.0
 11
-91.24556424875539
 21
-44.7913964608904
 31
0.0
  0
LINE
  5
B026
330
A
100
AcDbEntity
  8
0
  6
Continuous
 62
     7
370
     0
100
AcDbLine
 10
-91.24556424875539
 20
-44.7913964608904
 30
0.0
 11
-91.25653308726896
 21
-44.77123164120148
 31
0.0
  0
LINE
  5
B027
330
A
100
AcDbEntity
  8
0
  6
Continuous
 62
     7
370
     0
100
AcDbLine
 10
-91.25653308726896
 20
-44.77123164120148
 30
0.0
 11
-91.26847749692718
 21
-44.75149480854729
 31
0.0
  0
LINE
  5
B028
330
A
100
AcDbEntity
  8
0
  6
Continuous
 62
     7
370
     0
100
AcDbLine
 10
-91.26847749692718
 20
-44.75149480854729
 30
0.0
 11
-91.28137014021945
 21
-44.73225816814715
 31
0.0
  0
LINE
  5
B029
330
A
100
AcDbEntity
  8
0
  6
Continuous
 62
     7
370
     0
100
AcDbLine
 10
-91.28137014021945
 20
-44.73225816814715
 30
0.0
 11
-91.29518173541134
 21
-44.71358490883817
 31
0.0
  0
LINE
  5
B02A
330
A
100
AcDbEntity
  8
0
  6
Continuous
 62
     7
370
     0
100
AcDbLine
 10
-91.29518173541134
 20
-44.71358490883817
 30
0.0
 11
-91.30988107820781
 21
-44.69553164809529
 31
0.0
  0
LINE
  5
B02B
330
A
100
AcDbEntity
  8
0
  6
Continuous
 62
     7
370
     0
100
AcDbLine
 10
-91.30988107820781
 20
-44.69553164809529
 30
0.0
 11
-91.32543507480148
 21
-44.67814995321906
 31
0.0
  0
LINE
  5
B02C
330
A
100
AcDbEntity
  8
0
  6
Continuous
 62
     7
370
     0
100
AcDbLine
 10
-91.32543507480148
 20
-44.67814995321906
 30
0.0
 11
-91.34180878774747
 21
-44.66148730239999
 31
0.0
  0
LINE
  5
B02D
330
A
100
AcDbEntity
  8
0
  6
Continuous
 62
     7
370
     0
100
AcDbLine
 10
-91.34180878774747
 20
-44.66148730239999
 30
0.0
 11
-91.35896549325934
 21
-44.64558769873704
 31
0.0
  0
LINE
  5
B02E
330
A
100
AcDbEntity
  8
0
  6
Continuous
 62
     7
370
     0
100
AcDbLine
 10
-91.35896549325934
 20
-44.64558769873704
 30
0.0
 11
-91.37686674809163
 21
-44.63049206462116
 31
0.0
  0
LINE
  5
B02F
330
A
100
AcDbEntity
  8
0
  6
Continuous
 62
     7
370
     0
100
AcDbLine
 10
-91.37686674809163
 20
-44.63049206462116
 30
0.0
 11
-91.39547246437144
 21
-44.61623849442218
 31
0.0
  0
LINE
  5
B030
330
A
100
AcDbEntity
  8
0
  6
Continuous
 62
     7
370
     0
100
AcDbLine
 10
-91.39547246437144
 20
-44.61623849442218
 30
0.0
 11
-91.41474099109041
 21
-44.6028624142789
 31
0.0
  0
LINE
  5
B031
330
A
100
AcDbEntity
  8
0
  6
Continuous
 62
     7
370
     0
100
AcDbLine
 10
-91.41474099109041
 20
-44.6028624142789
 30
0.0
 11
-91.4346292012442
 21
-44.59039668022866
 31
0.0
  0
LINE
  5
B032
330
A
100
AcDbEntity
  8
0
  6
Continuous
 62
     7
370
     0
100
AcDbLine
 10
-91.4346292012442
 20
-44.59039668022866
 30
0.0
 11
-91.43932851124475
 21
-44.58763719989248
 31
0.0
  0
ARC
  5
B033
330
A
100
AcDbEntity
  8
0
  6
Continuous
 62
     7
370
     0
100
AcDbCircle
 10
-99.00513672127591
 20
-46.57077311331348
 30
0.0
 40
7.880251511965532
100
AcDbArc
 50
34.74826744232669
 51
42.46022107792235
  0
LINE
  5
B034
330
A
100
AcDbEntity
  8
0
  6
Continuous
 62
     7
370
     0
100
AcDbLine
 10
-92.53021637489666
 20
-42.0792510550485
 30
0.0
 11
-92.49400311225372
 21
-42.18039013938848
 31
0.0
  0
LINE
  5
B035
330
A
100
AcDbEntity
  8
0
  6
Continuous
 62
     7
370
     0
100
AcDbLine
 10
-92.49400311225372
 20
-42.18039013938848
 30
0.0
 11
-92.48624948942824
 21
-42.25000017491865
 31
0.0
  0
LINE
  5
B036
330
A
100
AcDbEntity
  8
0
  6
Continuous
 62
     7
370
     0
100
AcDbLine
 10
-92.4862494894279
 20
-7.75000017491854
 30
0.0
 11
-92.50270503341051
 21
-7.852155638736661
 31
0.0
  0
LINE
  5
B037
330
A
100
AcDbEntity
  8
0
  6
Continuous
 62
     7
370
     0
100
AcDbLine
 10
-92.50270503341051
 20
-7.852155638736661
 30
0.0
 11
-92.54733707219406
 21
-7.953984042903655
 31
0.0
  0
ARC
  5
B038
330
A
100
AcDbEntity
  8
0
  6
Continuous
 62
     7
370
     0
100
AcDbCircle
 10
-98.63607364896893
 20
-3.679057819088654
 30
0.0
 40
7.439603976047221
100
AcDbArc
 50
317.0404498011127
 51
324.9271540081535
  0
LINE
  5
B039
330
A
100
AcDbEntity
  8
0
  6
Continuous
 62
     7
370
     0
100
AcDbLine
 10
-35.49945450868757
 20
-116.4870462688557
 30
0.0
 11
-35.49934468749007
 21
-116.4874038658833
 31
0.0
  0
LINE
  5
B03A
330
A
100
AcDbEntity
  8
0
  6
Continuous
 62
     7
370
     0
100
AcDbLine
 10
-35.49934468749007
 20
-116.4874038658833
 30
0.0
 11
-35.49901802676209
 21
-116.4884607675793
 31
0.0
  0
LINE
  5
B03B
330
A
100
AcDbEntity
  8
0
  6
Continuous
 62
     7
370
     0
100
AcDbLine
 10
-35.49901802676209
 20
-116.4884607675793
 30
0.0
 11
-35.49847873080137
 21
-116.4901931398634
 31
0.0
  0
LINE
  5
B03C
330
A
100
AcDbEntity
  8
0
  6
Continuous
 62
     7
370
     0
100
AcDbLine
 10
-35.49847873080137
 20
-116.4901931398634
 30
0.0
 11
-35.49773100390576
 21
-116.4925771486553
 31
0.0
  0
LINE
  5
B03D
330
A
100
AcDbEntity
  8
0
  6
Continuous
 62
     7
370
     0
100
AcDbLine
 10
-35.49773100390576
 20
-116.4925771486553
 30
0.0
 11
-35.49676069029647
 21
-116.495642617971
 31
0.0
  0
LINE
  5
B03E
330
A
100
AcDbEntity
  8
0
  6
Continuous
 62
     7
370
     0
100
AcDbLine
 10
-35.49676069029647
 20
-116.495642617971
 30
0.0
 11
-35.49558620678806
 21
-116.4993077995614
 31
0.0
  0
LINE
  5
B03F
330
A
100
AcDbEntity
  8
0
  6
Continuous
 62
     7
370
     0
100
AcDbLine
 10
-35.49558620678806
 20
-116.4993077995614
 30
0.0
 11
-35.4942160653236
 21
-116.503523025269
 31
0.0
  0
LINE
  5
B040
330
A
100
AcDbEntity
  8
0
  6
Continuous
 62
     7
370
     0
100
AcDbLine
 10
-35.4942160653236
 20
-116.503523025269
 30
0.0
 11
-35.49265877784558
 21
-116.5082386269367
 31
0.0
  0
LINE
  5
B041
330
A
100
AcDbEntity
  8
0
  6
Continuous
 62
     7
370
     0
100
AcDbLine
 10
-35.49265877784558
 20
-116.5082386269367
 30
0.0
 11
-35.48976283404341
 21
-116.5168056524257
 31
0.0
  0
LINE
  5
B042
330
A
100
AcDbEntity
  8
0
  6
Continuous
 62
     7
370
     0
100
AcDbLine
 10
-35.48976283404341
 20
-116.5168056524257
 30
0.0
 11
-35.48642252332638
 21
-116.5263842794879
 31
0.0
  0
LINE
  5
B043
330
A
100
AcDbEntity
  8
0
  6
Continuous
 62
     7
370
     0
100
AcDbLine
 10
-35.48642252332638
 20
-116.5263842794879
 30
0.0
 11
-35.48126203106733
 21
-116.5405952725989
 31
0.0
  0
LINE
  5
B044
330
A
100
AcDbEntity
  8
0
  6
Continuous
 62
     7
370
     0
100
AcDbLine
 10
-35.48126203106733
 20
-116.5405952725989
 30
0.0
 11
-35.47538072335953
 21
-116.5560322259121
 31
0.0
  0
LINE
  5
B045
330
A
100
AcDbEntity
  8
0
  6
Continuous
 62
     7
370
     0
100
AcDbLine
 10
-35.47538072335953
 20
-116.5560322259121
 30
0.0
 11
-35.46881967331024
 21
-116.5724133531556
 31
0.0
  0
LINE
  5
B046
330
A
100
AcDbEntity
  8
0
  6
Continuous
 62
     7
370
     0
100
AcDbLine
 10
-35.46881967331024
 20
-116.5724133531556
 30
0.0
 11
-35.45768582908704
 21
-116.5984513932182
 31
0.0
  0
LINE
  5
B047
330
A
100
AcDbEntity
  8
0
  6
Continuous
 62
     7
370
     0
100
AcDbLine
 10
-35.45768582908704
 20
-116.5984513932182
 30
0.0
 11
-35.4428921743347
 21
-116.6302243776075
 31
0.0
  0
LINE
  5
B048
330
A
100
AcDbEntity
  8
0
  6
Continuous
 62
     7
370
     0
100
AcDbLine
 10
-35.4428921743347
 20
-116.6302243776075
 30
0.0
 11
-35.42610479640507
 21
-116.6631262911104
 31
0.0
  0
LINE
  5
B049
330
A
100
AcDbEntity
  8
0
  6
Continuous
 62
     7
370
     0
100
AcDbLine
 10
-35.42610479640507
 20
-116.6631262911104
 30
0.0
 11
-35.40740067784702
 21
-116.6966153577066
 31
0.0
  0
LINE
  5
B04A
330
A
100
AcDbEntity
  8
0
  6
Continuous
 62
     7
370
     0
100
AcDbLine
 10
-35.40740067784702
 20
-116.6966153577066
 30
0.0
 11
-35.38662666988216
 21
-116.7306111845831
 31
0.0
  0
LINE
  5
B04B
330
A
100
AcDbEntity
  8
0
  6
Continuous
 62
     7
370
     0
100
AcDbLine
 10
-35.38662666988216
 20
-116.7306111845831
 30
0.0
 11
-35.36389220184458
 21
-116.7646489341218
 31
0.0
  0
LINE
  5
B04C
330
A
100
AcDbEntity
  8
0
  6
Continuous
 62
     7
370
     0
100
AcDbLine
 10
-35.36389220184458
 20
-116.7646489341218
 30
0.0
 11
-35.33899605175657
 21
-116.7987597964557
 31
0.0
  0
LINE
  5
B04D
330
A
100
AcDbEntity
  8
0
  6
Continuous
 62
     7
370
     0
100
AcDbLine
 10
-35.33899605175657
 20
-116.7987597964557
 30
0.0
 11
-35.31206027349538
 21
-116.8325373067427
 31
0.0
  0
LINE
  5
B04E
330
A
100
AcDbEntity
  8
0
  6
Continuous
 62
     7
370
     0
100
AcDbLine
 10
-35.31206027349538
 20
-116.8325373067427
 30
0.0
 11
-35.28293004291243
 21
-116.8659545877585
 31
0.0
  0
LINE
  5
B04F
330
A
100
AcDbEntity
  8
0
  6
Continuous
 62
     7
370
     0
100
AcDbLine
 10
-35.28293004291243
 20
-116.8659545877585
 30
0.0
 11
-35.25804396601086
 21
-116.892282775638
 31
0.0
  0
LINE
  5
B050
330
A
100
AcDbEntity
  8
0
  6
Continuous
 62
     7
370
     0
100
AcDbLine
 10
-35.25804396601086
 20
-116.892282775638
 30
0.0
 11
-35.2316813330383
 21
-116.9182033769115
 31
0.0
  0
LINE
  5
B051
330
A
100
AcDbEntity
  8
0
  6
Continuous
 62
     7
370
     0
100
AcDbLine
 10
-35.2316813330383
 20
-116.9182033769115
 30
0.0
 11
-35.20390866491243
 21
-116.943545233189
 31
0.0
  0
LINE
  5
B052
330
A
100
AcDbEntity
  8
0
  6
Continuous
 62
     7
370
     0
100
AcDbLine
 10
-35.20390866491243
 20
-116.943545233189
 30
0.0
 11
-35.17450954318156
 21
-116.9683888444174
 31
0.0
  0
LINE
  5
B053
330
A
100
AcDbEntity
  8
0
  6
Continuous
 62
     7
370
     0
100
AcDbLine
 10
-35.17450954318156
 20
-116.9683888444174
 30
0.0
 11
-35.14365164121182
 21
-116.9924764839475
 31
0.0
  0
LINE
  5
B054
330
A
100
AcDbEntity
  8
0
  6
Continuous
 62
     7
370
     0
100
AcDbLine
 10
-35.14365164121182
 20
-116.9924764839475
 30
0.0
 11
-35.11108436579661
 21
-117.0158822716612
 31
0.0
  0
LINE
  5
B055
330
A
100
AcDbEntity
  8
0
  6
Continuous
 62
     7
370
     0
100
AcDbLine
 10
-35.11108436579661
 20
-117.0158822716612
 30
0.0
 11
-35.0770220573387
 21
-117.0383314165325
 31
0.0
  0
LINE
  5
B056
330
A
100
AcDbEntity
  8
0
  6
Continuous
 62
     7
370
     0
100
AcDbLine
 10
-35.0770220573387
 20
-117.0383314165325
 30
0.0
 11
-35.04129939162794
 21
-117.0598160781838
 31
0.0
  0
LINE
  5
B057
330
A
100
AcDbEntity
  8
0
  6
Continuous
 62
     7
370
     0
100
AcDbLine
 10
-35.04129939162794
 20
-117.0598160781838
 30
0.0
 11
-35.0045719260977
 21
-117.0798656789069
 31
0.0
  0
LINE
  5
B058
330
A
100
AcDbEntity
  8
0
  6
Continuous
 62
     7
370
     0
100
AcDbLine
 10
-35.0045719260977
 20
-117.0798656789069
 30
0.0
 11
-34.96640921363996
 21
-117.098655554763
 31
0.0
  0
LINE
  5
B059
330
A
100
AcDbEntity
  8
0
  6
Continuous
 62
     7
370
     0
100
AcDbLine
 10
-34.96640921363996
 20
-117.098655554763
 30
0.0
 11
-34.93999550507692
 21
-117.1105064594807
 31
0.0
  0
LINE
  5
B05A
330
A
100
AcDbEntity
  8
0
  6
Continuous
 62
     7
370
     0
100
AcDbLine
 10
-34.93999550507692
 20
-117.1105064594807
 30
0.0
 11
-34.91295570806426
 21
-117.1217052326332
 31
0.0
  0
LINE
  5
B05B
330
A
100
AcDbEntity
  8
0
  6
Continuous
 62
     7
370
     0
100
AcDbLine
 10
-34.91295570806426
 20
-117.1217052326332
 30
0.0
 11
-34.88532518074396
 21
-117.1322082973029
 31
0.0
  0
LINE
  5
B05C
330
A
100
AcDbEntity
  8
0
  6
Continuous
 62
     7
370
     0
100
AcDbLine
 10
-34.88532518074396
 20
-117.1322082973029
 30
0.0
 11
-34.85685741362579
 21
-117.1420664129779
 31
0.0
  0
LINE
  5
B05D
330
A
100
AcDbEntity
  8
0
  6
Continuous
 62
     7
370
     0
100
AcDbLine
 10
-34.85685741362579
 20
-117.1420664129779
 30
0.0
 11
-34.82781695282643
 21
-117.1511489222896
 31
0.0
  0
LINE
  5
B05E
330
A
100
AcDbEntity
  8
0
  6
Continuous
 62
     7
370
     0
100
AcDbLine
 10
-34.82781695282643
 20
-117.1511489222896
 30
0.0
 11
-34.79825737270039
 21
-117.1594119911625
 31
0.0
  0
LINE
  5
B05F
330
A
100
AcDbEntity
  8
0
  6
Continuous
 62
     7
370
     0
100
AcDbLine
 10
-34.79825737270039
 20
-117.1594119911625
 30
0.0
 11
-34.76798277187652
 21
-117.1668697570703
 31
0.0
  0
LINE
  5
B060
330
A
100
AcDbEntity
  8
0
  6
Continuous
 62
     7
370
     0
100
AcDbLine
 10
-34.76798277187652
 20
-117.1668697570703
 30
0.0
 11
-34.73721947171544
 21
-117.1734341107392
 31
0.0
  0
LINE
  5
B061
330
A
100
AcDbEntity
  8
0
  6
Continuous
 62
     7
370
     0
100
AcDbLine
 10
-34.73721947171544
 20
-117.1734341107392
 30
0.0
 11
-34.70604473022081
 21
-117.1790682065028
 31
0.0
  0
LINE
  5
B062
330
A
100
AcDbEntity
  8
0
  6
Continuous
 62
     7
370
     0
100
AcDbLine
 10
-34.70604473022081
 20
-117.1790682065028
 30
0.0
 11
-34.67453580539575
 21
-117.1837351986947
 31
0.0
  0
LINE
  5
B063
330
A
100
AcDbEntity
  8
0
  6
Continuous
 62
     7
370
     0
100
AcDbLine
 10
-34.67453580539575
 20
-117.1837351986947
 30
0.0
 11
-34.64220170892406
 21
-117.1874584283039
 31
0.0
  0
LINE
  5
B064
330
A
100
AcDbEntity
  8
0
  6
Continuous
 62
     7
370
     0
100
AcDbLine
 10
-34.64220170892406
 20
-117.1874584283039
 30
0.0
 11
-34.60957904016493
 21
-117.1901404219839
 31
0.0
  0
LINE
  5
B065
330
A
100
AcDbEntity
  8
0
  6
Continuous
 62
     7
370
     0
100
AcDbLine
 10
-34.60957904016493
 20
-117.1901404219839
 30
0.0
 11
-34.57676993500866
 21
-117.1917629711522
 31
0.0
  0
LINE
  5
B066
330
A
100
AcDbEntity
  8
0
  6
Continuous
 62
     7
370
     0
100
AcDbLine
 10
-34.57676993500866
 20
-117.1917629711522
 30
0.0
 11
-34.54387652934509
 21
-117.1923078672266
 31
0.0
  0
LINE
  5
B067
330
A
100
AcDbEntity
  8
0
  6
Continuous
 62
     7
370
     0
100
AcDbLine
 10
-34.54387652934509
 20
61.19230751738864
 30
0.0
 11
-34.57364423916397
 21
61.19186321349797
 31
0.0
  0
LINE
  5
B068
330
A
100
AcDbEntity
  8
0
  6
Continuous
 62
     7
370
     0
100
AcDbLine
 10
-34.57364423916397
 20
61.19186321349797
 30
0.0
 11
-34.60333320229734
 21
61.19053725556002
 31
0.0
  0
LINE
  5
B069
330
A
100
AcDbEntity
  8
0
  6
Continuous
 62
     7
370
     0
100
AcDbLine
 10
-34.60333320229734
 20
61.19053725556002
 30
0.0
 11
-34.63286611198362
 21
61.18834007417685
 31
0.0
  0
LINE
  5
B06A
330
A
100
AcDbEntity
  8
0
  6
Continuous
 62
     7
370
     0
100
AcDbLine
 10
-34.63286611198362
 20
61.18834007417685
 30
0.0
 11
-34.66251674405578
 21
61.18524376604945
 31
0.0
  0
LINE
  5
B06B
330
A
100
AcDbEntity
  8
0
  6
Continuous
 62
     7
370
     0
100
AcDbLine
 10
-34.66251674405578
 20
61.18524376604945
 30
0.0
 11
-34.69193422624346
 21
61.18128517757186
 31
0.0
  0
LINE
  5
B06C
330
A
100
AcDbEntity
  8
0
  6
Continuous
 62
     7
370
     0
100
AcDbLine
 10
-34.69193422624346
 20
61.18128517757186
 30
0.0
 11
-34.72104764795074
 21
61.17648757953784
 31
0.0
  0
LINE
  5
B06D
330
A
100
AcDbEntity
  8
0
  6
Continuous
 62
     7
370
     0
100
AcDbLine
 10
-34.72104764795074
 20
61.17648757953784
 30
0.0
 11
-34.75013863601134
 21
61.17080339430605
 31
0.0
  0
LINE
  5
B06E
330
A
100
AcDbEntity
  8
0
  6
Continuous
 62
     7
370
     0
100
AcDbLine
 10
-34.75013863601134
 20
61.17080339430605
 30
0.0
 11
-34.77885817653305
 21
61.16430641741873
 31
0.0
  0
LINE
  5
B06F
330
A
100
AcDbEntity
  8
0
  6
Continuous
 62
     7
370
     0
100
AcDbLine
 10
-34.77885817653305
 20
61.16430641741873
 30
0.0
 11
-34.80714686826093
 21
61.15702961656906
 31
0.0
  0
LINE
  5
B070
330
A
100
AcDbEntity
  8
0
  6
Continuous
 62
     7
370
     0
100
AcDbLine
 10
-34.80714686826093
 20
61.15702961656906
 30
0.0
 11
-34.83429674357501
 21
61.14920611009406
 31
0.0
  0
LINE
  5
B071
330
A
100
AcDbEntity
  8
0
  6
Continuous
 62
     7
370
     0
100
AcDbLine
 10
-34.83429674357501
 20
61.14920611009406
 30
0.0
 11
-34.86099743415639
 21
61.14069201043993
 31
0.0
  0
LINE
  5
B072
330
A
100
AcDbEntity
  8
0
  6
Continuous
 62
     7
370
     0
100
AcDbLine
 10
-34.86099743415639
 20
61.14069201043993
 30
0.0
 11
-34.8872077484308
 21
61.13152190931465
 31
0.0
  0
LINE
  5
B073
330
A
100
AcDbEntity
  8
0
  6
Continuous
 62
     7
370
     0
100
AcDbLine
 10
-34.8872077484308
 20
61.13152190931465
 30
0.0
 11
-34.9258826156314
 21
61.11646673892547
 31
0.0
  0
LINE
  5
B074
330
A
100
AcDbEntity
  8
0
  6
Continuous
 62
     7
370
     0
100
AcDbLine
 10
-34.9258826156314
 20
61.11646673892547
 30
0.0
 11
-34.96335217173123
 21
61.10007410932995
 31
0.0
  0
LINE
  5
B075
330
A
100
AcDbEntity
  8
0
  6
Continuous
 62
     7
370
     0
100
AcDbLine
 10
-34.96335217173123
 20
61.10007410932995
 30
0.0
 11
-34.99977903167871
 21
61.08233682407545
 31
0.0
  0
LINE
  5
B076
330
A
100
AcDbEntity
  8
0
  6
Continuous
 62
     7
370
     0
100
AcDbLine
 10
-34.99977903167871
 20
61.08233682407545
 30
0.0
 11
-35.03491130388579
 21
61.06344748903014
 31
0.0
  0
LINE
  5
B077
330
A
100
AcDbEntity
  8
0
  6
Continuous
 62
     7
370
     0
100
AcDbLine
 10
-35.03491130388579
 20
61.06344748903014
 30
0.0
 11
-35.07049520767362
 21
61.04240913933456
 31
0.0
  0
LINE
  5
B078
330
A
100
AcDbEntity
  8
0
  6
Continuous
 62
     7
370
     0
100
AcDbLine
 10
-35.07049520767362
 20
61.04240913933456
 30
0.0
 11
-35.10476879891462
 21
61.02019602210266
 31
0.0
  0
LINE
  5
B079
330
A
100
AcDbEntity
  8
0
  6
Continuous
 62
     7
370
     0
100
AcDbLine
 10
-35.10476879891462
 20
61.02019602210266
 30
0.0
 11
-35.13755319973495
 21
60.99701119641266
 31
0.0
  0
LINE
  5
B07A
330
A
100
AcDbEntity
  8
0
  6
Continuous
 62
     7
370
     0
100
AcDbLine
 10
-35.13755319973495
 20
60.99701119641266
 30
0.0
 11
-35.16909347322758
 21
60.97275830266302
 31
0.0
  0
LINE
  5
B07B
330
A
100
AcDbEntity
  8
0
  6
Continuous
 62
     7
370
     0
100
AcDbLine
 10
-35.16909347322758
 20
60.97275830266302
 30
0.0
 11
-35.19913413053746
 21
60.94771302178954
 31
0.0
  0
LINE
  5
B07C
330
A
100
AcDbEntity
  8
0
  6
Continuous
 62
     7
370
     0
100
AcDbLine
 10
-35.19913413053746
 20
60.94771302178954
 30
0.0
 11
-35.22789427260966
 21
60.92177268769744
 31
0.0
  0
LINE
  5
B07D
330
A
100
AcDbEntity
  8
0
  6
Continuous
 62
     7
370
     0
100
AcDbLine
 10
-35.22789427260966
 20
60.92177268769744
 30
0.0
 11
-35.25516330724349
 21
60.89520944482025
 31
0.0
  0
LINE
  5
B07E
330
A
100
AcDbEntity
  8
0
  6
Continuous
 62
     7
370
     0
100
AcDbLine
 10
-35.25516330724349
 20
60.89520944482025
 30
0.0
 11
-35.28105565788747
 21
60.86800488488463
 31
0.0
  0
LINE
  5
B07F
330
A
100
AcDbEntity
  8
0
  6
Continuous
 62
     7
370
     0
100
AcDbLine
 10
-35.28105565788747
 20
60.86800488488463
 30
0.0
 11
-35.31169274412093
 21
60.83297768239344
 31
0.0
  0
LINE
  5
B080
330
A
100
AcDbEntity
  8
0
  6
Continuous
 62
     7
370
     0
100
AcDbLine
 10
-35.31169274412093
 20
60.83297768239344
 30
0.0
 11
-35.34015536633376
 21
60.79723622515654
 31
0.0
  0
LINE
  5
B081
330
A
100
AcDbEntity
  8
0
  6
Continuous
 62
     7
370
     0
100
AcDbLine
 10
-35.34015536633376
 20
60.79723622515654
 30
0.0
 11
-35.36633662223221
 21
60.76113033304226
 31
0.0
  0
LINE
  5
B082
330
A
100
AcDbEntity
  8
0
  6
Continuous
 62
     7
370
     0
100
AcDbLine
 10
-35.36633662223221
 20
60.76113033304226
 30
0.0
 11
-35.3904501354898
 21
60.72457688472515
 31
0.0
  0
LINE
  5
B083
330
A
100
AcDbEntity
  8
0
  6
Continuous
 62
     7
370
     0
100
AcDbLine
 10
-35.3904501354898
 20
60.72457688472515
 30
0.0
 11
-35.41230715125426
 21
60.68811822212406
 31
0.0
  0
LINE
  5
B084
330
A
100
AcDbEntity
  8
0
  6
Continuous
 62
     7
370
     0
100
AcDbLine
 10
-35.41230715125426
 20
60.68811822212406
 30
0.0
 11
-35.43207419165492
 21
60.65176333592943
 31
0.0
  0
LINE
  5
B085
330
A
100
AcDbEntity
  8
0
  6
Continuous
 62
     7
370
     0
100
AcDbLine
 10
-35.43207419165492
 20
60.65176333592943
 30
0.0
 11
-35.44955949386974
 21
60.61626313743587
 31
0.0
  0
LINE
  5
B086
330
A
100
AcDbEntity
  8
0
  6
Continuous
 62
     7
370
     0
100
AcDbLine
 10
-35.44955949386974
 20
60.61626313743587
 30
0.0
 11
-35.4574803980496
 21
60.59891221282045
 31
0.0
  0
LINE
  5
B087
330
A
100
AcDbEntity
  8
0
  6
Continuous
 62
     7
370
     0
100
AcDbLine
 10
-35.4574803980496
 20
60.59891221282045
 30
0.0
 11
-35.46480861768794
 21
60.58203060967354
 31
0.0
  0
LINE
  5
B088
330
A
100
AcDbEntity
  8
0
  6
Continuous
 62
     7
370
     0
100
AcDbLine
 10
-35.46480861768794
 20
60.58203060967354
 30
0.0
 11
-35.47225070884372
 21
60.56394658153262
 31
0.0
  0
LINE
  5
B089
330
A
100
AcDbEntity
  8
0
  6
Continuous
 62
     7
370
     0
100
AcDbLine
 10
-35.47225070884372
 20
60.56394658153262
 30
0.0
 11
-35.478919611945
 21
60.54683383055614
 31
0.0
  0
LINE
  5
B08A
330
A
100
AcDbEntity
  8
0
  6
Continuous
 62
     7
370
     0
100
AcDbLine
 10
-35.478919611945
 20
60.54683383055614
 30
0.0
 11
-35.48477054854777
 21
60.53100863139987
 31
0.0
  0
LINE
  5
B08B
330
A
100
AcDbEntity
  8
0
  6
Continuous
 62
     7
370
     0
100
AcDbLine
 10
-35.48477054854777
 20
60.53100863139987
 30
0.0
 11
-35.48863004350301
 21
60.52008845483844
 31
0.0
  0
LINE
  5
B08C
330
A
100
AcDbEntity
  8
0
  6
Continuous
 62
     7
370
     0
100
AcDbLine
 10
-35.48863004350301
 20
60.52008845483844
 30
0.0
 11
-35.49196371805499
 21
60.51031802445304
 31
0.0
  0
LINE
  5
B08D
330
A
100
AcDbEntity
  8
0
  6
Continuous
 62
     7
370
     0
100
AcDbLine
 10
-35.49196371805499
 20
60.51031802445304
 30
0.0
 11
-35.49415718714431
 21
60.50370219608497
 31
0.0
  0
LINE
  5
B08E
330
A
100
AcDbEntity
  8
0
  6
Continuous
 62
     7
370
     0
100
AcDbLine
 10
-35.49415718714431
 20
60.50370219608497
 30
0.0
 11
-35.49599703574336
 21
60.49803049868903
 31
0.0
  0
LINE
  5
B08F
330
A
100
AcDbEntity
  8
0
  6
Continuous
 62
     7
370
     0
100
AcDbLine
 10
-35.49599703574336
 20
60.49803049868903
 30
0.0
 11
-35.49703402292846
 21
60.49478491855573
 31
0.0
  0
LINE
  5
B090
330
A
100
AcDbEntity
  8
0
  6
Continuous
 62
     7
370
     0
100
AcDbLine
 10
-35.49703402292846
 20
60.49478491855573
 30
0.0
 11
-35.49789294155767
 21
60.49206980301694
 31
0.0
  0
LINE
  5
B091
330
A
100
AcDbEntity
  8
0
  6
Continuous
 62
     7
370
     0
100
AcDbLine
 10
-35.49789294155767
 20
60.49206980301694
 30
0.0
 11
-35.49856912053974
 21
60.48991174868324
 31
0.0
  0
LINE
  5
B092
330
A
100
AcDbEntity
  8
0
  6
Continuous
 62
     7
370
     0
100
AcDbLine
 10
-35.49856912053974
 20
60.48991174868324
 30
0.0
 11
-35.49905788878323
 21
60.48833735216515
 31
0.0
  0
LINE
  5
B093
330
A
100
AcDbEntity
  8
0
  6
Continuous
 62
     7
370
     0
100
AcDbLine
 10
-35.49905788878323
 20
60.48833735216515
 30
0.0
 11
-35.49935457519632
 21
60.48737321007315
 31
0.0
  0
LINE
  5
B094
330
A
100
AcDbEntity
  8
0
  6
Continuous
 62
     7
370
     0
100
AcDbLine
 10
-35.49935457519632
 20
60.48737321007315
 30
0.0
 11
-35.49945450868757
 21
60.48704591901794
 31
0.0
  0
LINE
  5
B633
330
A
100
AcDbEntity
  8
0
  6
Continuous
370
     0
100
AcDbLine
 10
0.0
 20
-0.0000000000001563
 30
0.0
 11
0.0
 21
-0.0000000000001563
 31
0.0
  0
LINE
  5
B7CB
330
A
100
AcDbEntity
  8
0
  6
CENTER
 62
     1
100
AcDbLine
 10
8.5
 20
-0.0000000000000426
 30
0.0
 11
8.5
 21
-49.99999999999999
 31
0.0
  0
ARC
  5
B7CC
330
A
100
AcDbEntity
  8
0
  6
CENTER
 62
     1
100
AcDbCircle
 10
0.5
 20
-49.99999999999999
 30
0.0
 40
8.0
100
AcDbArc
 50
202.6198650000018
 51
0.0
  0
ARC
  5
B7CD
330
A
100
AcDbEntity
  8
0
  6
CENTER
 62
     1
100
AcDbCircle
 10
-11.5
 20
-54.99999999999999
 30
0.0
 40
5.0
100
AcDbArc
 50
22.61986500000181
 51
90.0
  0
LINE
  5
B7CE
330
A
100
AcDbEntity
  8
0
  6
CENTER
 62
     1
100
AcDbLine
 10
-11.5
 20
-49.99999999999999
 30
0.0
 11
-32.5
 21
-49.99999999999999
 31
0.0
  0
LINE
  5
B7CF
330
A
100
AcDbEntity
  8
0
  6
CENTER
 62
     1
100
AcDbLine
 10
-32.5
 20
-0.0000000000000426
 30
0.0
 11
-11.5
 21
-0.0000000000000426
 31
0.0
  0
ARC
  5
B7D0
330
A
100
AcDbEntity
  8
0
  6
CENTER
 62
     1
100
AcDbCircle
 10
-11.5
 20
4.999999999999957
 30
0.0
 40
5.0
100
AcDbArc
 50
270.0
 51
337.3801349999982
  0
ARC
  5
B7D1
330
A
100
AcDbEntity
  8
0
  6
CENTER
 62
     1
100
AcDbCircle
 10
0.5
 20
-0.0000000000000426
 30
0.0
 40
8.0
100
AcDbArc
 50
0.0
 51
157.3801349999982
  0
ENDSEC
  0
SECTION
  2
OBJECTS
  0
DICTIONARY
  5
19
330
0
100
AcDbDictionary
281
     1
  3
ACAD_COLOR
350
5829
  3
ACAD_GROUP
350
1A
  3
ACAD_LAYOUT
350
1E
  3
ACAD_MATERIAL
350
57FF
  3
ACAD_MLEADERSTYLE
350
584E
  3
ACAD_MLINESTYLE
350
1B
  3
ACAD_PLOTSETTINGS
350
22
  3
ACAD_PLOTSTYLENAME
350
1F
  3
ACAD_SCALELIST
350
582C
  3
ACAD_TABLESTYLE
350
582A
  3
ACAD_VISUALSTYLE
350
5818
  3
ACAD_WIPEOUT_VARS
350
23
  3
ACDB_RECOMPOSE_DATA
350
AB90
  3
AcDbVariableDictionary
350
AB91
  3
ASE_INDEX_DICTIONARY
350
B60C
  3
DWGPROPS
350
B801
  0
DICTIONARY
  5
5858
330
14
100
AcDbDictionary
280
     1
281
     1
  3
ADSK_XREC_LAYER_RECONCILED
360
5859
  0
DICTIONARY
  5
5864
330
A
100
AcDbDictionary
280
     1
281
     1
  3
ACAD_SORTENTS
360
5865
  0
DICTIONARY
  5
5829
102
{ACAD_REACTORS
330
19
102
}
330
19
100
AcDbDictionary
281
     1
  0
DICTIONARY
  5
1A
102
{ACAD_REACTORS
330
19
102
}
330
19
100
AcDbDictionary
281
     1
  0
DICTIONARY
  5
1E
102
{ACAD_REACTORS
330
19
102
}
330
19
100
AcDbDictionary
281
     1
  3
Layout1
350
21
  3
Model
350
20
  0
DICTIONARY
  5
57FF
102
{ACAD_REACTORS
330
19
102
}
330
19
100
AcDbDictionary
281
     1
  3
ByBlock
350
5808
  3
ByLayer
350
5800
  3
Global
350
5810
  0
DICTIONARY
  5
584E
102
{ACAD_REACTORS
330
19
102
}
330
19
100
AcDbDictionary
281
     1
  3
Standard
350
584F
  0
DICTIONARY
  5
1B
102
{ACAD_REACTORS
330
19
102
}
330
19
100
AcDbDictionary
281
     1
  3
Standard
350
1C
  0
DICTIONARY
  5
22
102
{ACAD_REACTORS
330
19
102
}
330
19
100
AcDbDictionary
281
     1
  0
ACDBDICTIONARYWDFLT
  5
1F
102
{ACAD_REACTORS
330
19
102
}
330
19
100
AcDbDictionary
281
     1
  3
Normal
350
1D
100
AcDbDictionaryWithDefault
340
1D
  0
DICTIONARY
  5
582C
102
{ACAD_REACTORS
330
19
102
}
330
19
100
AcDbDictionary
281
     1
  3
A0
350
582D
  3
A1
350
582E
  3
A2
350
582F
  3
A3
350
5830
  3
A4
350
5831
  3
A5
350
5832
  3
A6
350
5833
  3
A7
350
5834
  3
A8
350
5835
  3
A9
350
5836
  3
B0
350
5837
  3
B1
350
5838
  3
B2
350
5839
  3
B3
350
583A
  3
B4
350
583B
  3
B5
350
583C
  3
B6
350
583D
  3
B7
350
583E
  3
B8
350
583F
  3
B9
350
5840
  3
C0
350
5841
  3
C1
350
5842
  3
C2
350
5843
  3
C3
350
5844
  3
C4
350
5845
  3
C5
350
5846
  3
C6
350
5847
  3
C7
350
5848
  3
C8
350
5849
  3
C9
350
584A
  3
D0
350
584B
  3
D1
350
584C
  3
D2
350
584D
  0
DICTIONARY
  5
582A
102
{ACAD_REACTORS
330
19
102
}
330
19
100
AcDbDictionary
281
     1
  3
Standard
350
582B
  0
DICTIONARY
  5
5818
102
{ACAD_REACTORS
330
19
102
}
330
19
100
AcDbDictionary
281
     1
  3
2dWireframe
350
581E
  3
3D Hidden
350
5820
  3
3dWireframe
350
581F
  3
Basic
350
581D
  3
Brighten
350
5824
  3
ColorChange
350
5828
  3
Conceptual
350
5821
  3
Dim
350
5823
  3
Facepattern
350
5827
  3
Flat
350
5819
  3
FlatWithEdges
350
581A
  3
Gouraud
350
581B
  3
GouraudWithEdges
350
581C
  3
Linepattern
350
5826
  3
Realistic
350
5822
  3
Thicken
350
5825
  0
WIPEOUTVARIABLES
  5
23
330
19
100
AcDbWipeoutVariables
 70
     1
  0
XRECORD
  5
AB90
102
{ACAD_REACTORS
330
19
102
}
330
19
100
AcDbXrecord
280
     1
 90
        1
330
582B
  0
DICTIONARY
  5
AB91
102
{ACAD_REACTORS
330
19
102
}
330
19
100
AcDbDictionary
281
     1
  3
CANNOSCALE
350
AB95
  3
CMLEADERSTYLE
350
AB93
  3
CTABLESTYLE
350
AB92
  3
DIMASSOC
350
B616
  3
INDEXCTL
350
B615
  3
LIGHTINGUNITS
350
AB96
  3
MSLTSCALE
350
AB94
  3
SORTENTS
350
B614
  0
DICTIONARY
  5
B60C
102
{ACAD_REACTORS
330
19
102
}
330
19
100
AcDbDictionary
281
     1
  3
ASEBlockHierarchyIndexRecord
350
B60D
1001
DCO15
1040
1684840282.966
  0
XRECORD
  5
B801
102
{ACAD_REACTORS
330
19
102
}
330
19
100
AcDbXrecord
280
     1
  1
DWGPROPS COOKIE
  2

  3

  4

  6

  7

  8
renzo.ceresoli
  9

300
=
301
=
302
=
303
=
304
=
305
=
306
=
307
=
308
=
309
=
 40
0.1652494560185185
 41
2455301.802361111
 42
2455306.360225058
  1

 90
        0
  0
XRECORD
  5
5859
102
{ACAD_REACTORS
330
5858
102
}
330
5858
100
AcDbXrecord
280
     1
290
     1
  0
SORTENTSTABLE
  5
5865
102
{ACAD_REACTORS
330
5864
102
}
330
5864
100
AcDbSortentsTable
330
A
331
89F0
  5
748E
331
88B3
  5
753E
331
8952
  5
74A6
331
8989
  5
7457
331
8A96
  5
7418
331
8ACD
  5
72FD
331
89F8
  5
7496
331
8A2F
  5
73E1
331
8B0C
  5
733C
331
88BB
  5
7546
331
895A
  5
7428
331
8991
  5
745F
331
8A9E
  5
7420
331
8AD5
  5
7305
331
8999
  5
7467
331
8A00
  5
73B2
331
88C3
  5
754E
331
8962
  5
7430
331
8A37
  5
73E9
331
8B14
  5
7344
331
8B1C
  5
734C
331
8A3F
  5
73F1
331
8AA6
  5
72D6
331
896A
  5
7438
331
89A1
  5
746F
331
88CB
  5
7556
331
8A08
  5
73BA
331
8ADD
  5
730D
331
8B43
  5
7373
331
8AE5
  5
7315
331
8B24
  5
7354
331
8A47
  5
73F9
331
8AAE
  5
72DE
331
8B4B
  5
737B
331
8B53
  5
7383
331
8B5B
  5
738B
331
8833
  5
74C8
331
8872
  5
7507
331
876E
  5
75B1
331
87A5
  5
7604
331
872F
  5
7572
331
87FC
  5
763F
331
8804
  5
7647
331
883B
  5
74D0
331
8776
  5
75B9
331
87AD
  5
760C
331
887A
  5
750F
331
8737
  5
757A
331
880C
  5
764F
331
8843
  5
74D8
331
873F
  5
7582
331
877E
  5
75DD
331
26A0
  5
765E
331
87B5
  5
7614
331
8882
  5
7517
331
888A
  5
751F
331
87BD
  5
761C
331
8814
  5
74A9
331
8747
  5
758A
331
8786
  5
75E5
331
884B
  5
74E0
331
8A10
  5
73C2
331
8972
  5
7440
331
89A9
  5
7477
331
88D3
  5
755E
331
8AED
  5
731D
331
8B2C
  5
735C
331
8A18
  5
73CA
331
8A4F
  5
7401
331
890B
  5
7565
331
897A
  5
7448
331
89B1
  5
747F
331
8AB6
  5
72E6
331
8ABE
  5
72EE
331
8AF5
  5
7325
331
8A20
  5
73D2
331
8943
  5
756C
331
8982
  5
7450
331
8A57
  5
7409
331
8B34
  5
7364
331
8B3C
  5
736C
331
89E9
  5
7487
331
8AC6
  5
72F6
331
894B
  5
749F
331
8AFD
  5
732D
331
8B05
  5
7335
331
8B63
  5
7393
331
8A8F
  5
7411
331
8B6B
  5
739B
331
8B73
  5
73A3
331
8B7B
  5
73AB
331
26A8
  5
7666
331
8853
  5
74E8
331
8892
  5
7527
331
878E
  5
75ED
331
87C5
  5
7624
331
26B0
  5
766E
331
874F
  5
7592
331
881C
  5
74B1
331
885B
  5
74F0
331
889A
  5
752F
331
8796
  5
75F5
331
87CD
  5
762C
331
26B8
  5
7676
331
8757
  5
759A
331
8824
  5
74B9
331
882C
  5
74C1
331
875F
  5
75A2
331
879E
  5
75FD
331
8863
  5
74F8
331
88AA
  5
7535
331
87F5
  5
7638
331
8767
  5
75AA
331
886B
  5
7500
331
898A
  5
7458
331
89F1
  5
748F
331
88B4
  5
753F
331
8953
  5
74A7
331
8A28
  5
73DA
331
8B0D
  5
733D
331
8A30
  5
73E2
331
8A97
  5
7419
331
895B
  5
7429
331
8992
  5
7460
331
88BC
  5
7547
331
89F9
  5
7497
331
8ACE
  5
72FE
331
8AD6
  5
7306
331
8B15
  5
7345
331
8A01
  5
73B3
331
8A38
  5
73EA
331
88C4
  5
754F
331
8963
  5
7431
331
899A
  5
7468
331
8A9F
  5
7421
331
8AA7
  5
72D7
331
8ADE
  5
730E
331
8A09
  5
73BB
331
8A40
  5
73F2
331
8B1D
  5
734D
331
88CC
  5
7557
331
896B
  5
7439
331
89A2
  5
7470
331
8B44
  5
7374
331
8AAF
  5
72DF
331
8AE6
  5
7316
331
8B25
  5
7355
331
8B4C
  5
737C
331
8B54
  5
7384
331
8B5C
  5
738C
331
8873
  5
7508
331
87FD
  5
7640
331
8834
  5
74C9
331
8730
  5
7573
331
876F
  5
75B2
331
87A6
  5
7605
331
887B
  5
7510
331
87AE
  5
760D
331
8805
  5
7648
331
2699
  5
7657
331
8738
  5
757B
331
8777
  5
75BA
331
883C
  5
74D1
331
8844
  5
74D9
331
8883
  5
7518
331
877F
  5
75DE
331
87B6
  5
7615
331
26A1
  5
765F
331
8740
  5
7583
331
880D
  5
7650
331
8815
  5
74AA
331
884C
  5
74E1
331
8787
  5
75E6
331
87BE
  5
761D
331
888B
  5
7520
331
89AA
  5
7478
331
8A11
  5
73C3
331
88D4
  5
755F
331
8973
  5
7441
331
8A48
  5
73FA
331
8B2D
  5
735D
331
8A50
  5
7402
331
8AB7
  5
72E7
331
897B
  5
7449
331
89B2
  5
7480
331
890C
  5
7566
331
8A19
  5
73CB
331
8AEE
  5
731E
331
8AF6
  5
7326
331
8B35
  5
7365
331
8A21
  5
73D3
331
8983
  5
7451
331
8A58
  5
740A
331
8ABF
  5
72EF
331
8944
  5
7498
331
8AFE
  5
732E
331
8B3D
  5
736D
331
894C
  5
74A0
331
89EA
  5
7488
331
8AC7
  5
72F7
331
8B06
  5
7336
331
8B64
  5
7394
331
8B6C
  5
739C
331
8B74
  5
73A4
331
26A9
  5
7667
331
8748
  5
758B
331
881D
  5
74B2
331
8854
  5
74E9
331
8750
  5
7593
331
878F
  5
75EE
331
26B1
  5
766F
331
87C6
  5
7625
331
8893
  5
7528
331
889B
  5
7530
331
87CE
  5
762D
331
8825
  5
74BA
331
8758
  5
759B
331
8797
  5
75F6
331
885C
  5
74F1
331
8864
  5
74F9
331
88AB
  5
7536
331
879F
  5
75FE
331
8760
  5
75A3
331
882D
  5
74C2
331
886C
  5
7501
331
87F6
  5
7639
331
89F2
  5
7490
331
8A29
  5
73DB
331
88B5
  5
7540
331
8954
  5
74A8
331
898B
  5
7459
331
8A90
  5
7412
331
8A98
  5
741A
331
8ACF
  5
72FF
331
8993
  5
7461
331
89FA
  5
73AC
331
88BD
  5
7548
331
895C
  5
742A
331
8A31
  5
73E3
331
8B0E
  5
733E
331
8B16
  5
7346
331
8AA0
  5
7422
331
8AD7
  5
7307
331
899B
  5
7469
331
8A02
  5
73B4
331
88C5
  5
7550
331
8964
  5
7432
331
8A39
  5
73EB
331
8B1E
  5
734E
331
8A41
  5
73F3
331
8AA8
  5
72D8
331
896C
  5
743A
331
89A3
  5
7471
331
88CD
  5
7558
331
8A0A
  5
73BC
331
8ADF
  5
730F
331
8B45
  5
7375
331
8AE7
  5
7317
331
8B26
  5
7356
331
8B4D
  5
737D
331
8B55
  5
7385
331
8B5D
  5
738D
331
8768
  5
75AB
331
8835
  5
74CA
331
8874
  5
7509
331
8770
  5
75B3
331
87A7
  5
7606
331
8731
  5
7574
331
87FE
  5
7641
331
8806
  5
7649
331
883D
  5
74D2
331
8739
  5
757C
331
8778
  5
75BB
331
269A
  5
7658
331
87AF
  5
760E
331
887C
  5
7511
331
8884
  5
7519
331
880E
  5
7651
331
8845
  5
74DA
331
8741
  5
7584
331
8780
  5
75DF
331
26A2
  5
7660
331
87B7
  5
7616
331
888C
  5
7521
331
87BF
  5
761E
331
8816
  5
74AB
331
884D
  5
74E2
331
8A12
  5
73C4
331
8A49
  5
73FB
331
88D5
  5
7560
331
8974
  5
7442
331
89AB
  5
7479
331
8AB0
  5
72E0
331
8AB8
  5
72E8
331
8AEF
  5
731F
331
8A1A
  5
73CC
331
8A51
  5
7403
331
8B2E
  5
735E
331
897C
  5
744A
331
89B3
  5
7481
331
8AC0
  5
72F0
331
8AF7
  5
7327
331
8A22
  5
73D4
331
8945
  5
7499
331
8984
  5
7452
331
8A59
  5
740B
331
8B36
  5
7366
331
8B3E
  5
736E
331
89EB
  5
7489
331
894D
  5
74A1
331
8AFF
  5
732F
331
8B07
  5
7337
331
8B65
  5
7395
331
8B6D
  5
739D
331
8B75
  5
73A5
331
26AA
  5
7668
331
8749
  5
758C
331
8788
  5
75E7
331
8855
  5
74EA
331
8894
  5
7529
331
8790
  5
75EF
331
87C7
  5
7626
331
26B2
  5
7670
331
8751
  5
7594
331
881E
  5
74B3
331
8826
  5
74BB
331
885D
  5
74F2
331
8798
  5
75F7
331
87CF
  5
762E
331
889C
  5
7531
331
8759
  5
759C
331
8761
  5
75A4
331
882E
  5
74C3
331
8865
  5
74FA
331
88AC
  5
7537
331
87F7
  5
763A
331
886D
  5
7502
331
8A2A
  5
73DC
331
8A91
  5
7413
331
898C
  5
745A
331
89F3
  5
7491
331
8AC8
  5
72F8
331
88B6
  5
7541
331
8955
  5
7423
331
8B0F
  5
733F
331
8A32
  5
73E4
331
8A99
  5
741B
331
895D
  5
742B
331
8994
  5
7462
331
88BE
  5
7549
331
89FB
  5
73AD
331
8AD0
  5
7300
331
8AD8
  5
7308
331
8B17
  5
7347
331
8A03
  5
73B5
331
8A3A
  5
73EC
331
88C6
  5
7551
331
8965
  5
7433
331
899C
  5
746A
331
8AA1
  5
72D1
331
8AA9
  5
72D9
331
8AE0
  5
7310
331
89A4
  5
7472
331
8A0B
  5
73BD
331
88CE
  5
7559
331
896D
  5
743B
331
8A42
  5
73F4
331
8B1F
  5
734F
331
8B27
  5
7357
331
8B46
  5
7376
331
8B4E
  5
737E
331
8B56
  5
7386
331
8B5E
  5
738E
331
872A
  5
756D
331
8769
  5
75AC
331
87A0
  5
75FF
331
8875
  5
750A
331
87A8
  5
7607
331
87FF
  5
7642
331
8732
  5
7575
331
8771
  5
75B4
331
8836
  5
74CB
331
887D
  5
7512
331
87B0
  5
760F
331
8807
  5
764A
331
269B
  5
7659
331
873A
  5
757D
331
8779
  5
75BC
331
883E
  5
74D3
331
8846
  5
74DB
331
8885
  5
751A
331
8781
  5
75E0
331
87B8
  5
7617
331
26A3
  5
7661
331
8742
  5
7585
331
880F
  5
7652
331
8817
  5
74AC
331
884E
  5
74E3
331
888D
  5
7522
331
8AB1
  5
72E1
331
8AE8
  5
7318
331
89AC
  5
747A
331
8A13
  5
73C5
331
8975
  5
7443
331
8A4A
  5
73FC
331
8B2F
  5
735F
331
8A52
  5
7404
331
8AB9
  5
72E9
331
897D
  5
744B
331
89B4
  5
7482
331
8A1B
  5
73CD
331
8AF0
  5
7320
331
8AF8
  5
7328
331
8B37
  5
7367
331
8A23
  5
73D5
331
8946
  5
749A
331
8985
  5
7453
331
8A5A
  5
740C
331
8AC1
  5
72F1
331
8B00
  5
7330
331
8B3F
  5
736F
331
894E
  5
74A2
331
89EC
  5
748A
331
8B66
  5
7396
331
8B6E
  5
739E
331
8B76
  5
73A6
331
874A
  5
758D
331
8789
  5
75E8
331
26AB
  5
7669
331
87C0
  5
761F
331
8895
  5
752A
331
881F
  5
74B4
331
8856
  5
74EB
331
8752
  5
7595
331
8791
  5
75F0
331
26B3
  5
7671
331
87C8
  5
7627
331
889D
  5
7532
331
87D0
  5
762F
331
8827
  5
74BC
331
875A
  5
759D
331
8799
  5
75F8
331
885E
  5
74F3
331
8866
  5
74FB
331
88AD
  5
7538
331
8762
  5
75A5
331
882F
  5
74C4
331
886E
  5
7503
331
8AC9
  5
72F9
331
8B08
  5
7338
331
89F4
  5
7492
331
8A2B
  5
73DD
331
88B7
  5
7542
331
8956
  5
7424
331
898D
  5
745B
331
8A92
  5
7414
331
8A9A
  5
741C
331
8AD1
  5
7301
331
8995
  5
7463
331
89FC
  5
73AE
331
88BF
  5
754A
331
895E
  5
742C
331
8A33
  5
73E5
331
8B10
  5
7340
331
8B18
  5
7348
331
8A3B
  5
73ED
331
8AA2
  5
72D2
331
899D
  5
746B
331
8A04
  5
73B6
331
8AD9
  5
7309
331
88C7
  5
7552
331
8966
  5
7434
331
8B20
  5
7350
331
8A43
  5
73F5
331
8AAA
  5
72DA
331
896E
  5
743C
331
89A5
  5
7473
331
88CF
  5
755A
331
8A0C
  5
73BE
331
8AE1
  5
7311
331
8B47
  5
7377
331
8B4F
  5
737F
331
8B57
  5
7387
331
8B5F
  5
738F
331
87A1
  5
7600
331
87F8
  5
763B
331
872B
  5
756E
331
876A
  5
75AD
331
8837
  5
74CC
331
8876
  5
750B
331
8772
  5
75B5
331
87A9
  5
7608
331
8733
  5
7576
331
8800
  5
7643
331
8808
  5
764B
331
883F
  5
74D4
331
873B
  5
757E
331
877A
  5
75BD
331
269C
  5
765A
331
87B1
  5
7610
331
887E
  5
7513
331
8886
  5
751B
331
87B9
  5
7618
331
8810
  5
7653
331
8743
  5
7586
331
8782
  5
75E1
331
8847
  5
74DC
331
26A4
  5
7662
331
888E
  5
7523
331
884F
  5
74E4
331
8AE9
  5
7319
331
8B28
  5
7358
331
8A14
  5
73C6
331
8A4B
  5
73FD
331
8976
  5
7444
331
89AD
  5
747B
331
8AB2
  5
72E2
331
8ABA
  5
72EA
331
8AF1
  5
7321
331
89B5
  5
7483
331
8A1C
  5
73CE
331
897E
  5
744C
331
8A53
  5
7405
331
8B30
  5
7360
331
8B38
  5
7368
331
8AC2
  5
72F2
331
8AF9
  5
7329
331
8A24
  5
73D6
331
8947
  5
749B
331
8986
  5
7454
331
8A5B
  5
740D
331
89ED
  5
748B
331
894F
  5
74A3
331
8B01
  5
7331
331
8B67
  5
7397
331
8B6F
  5
739F
331
8B77
  5
73A7
331
87C1
  5
7620
331
8818
  5
74AD
331
26AC
  5
766A
331
874B
  5
758E
331
878A
  5
75E9
331
8857
  5
74EC
331
8896
  5
752B
331
8792
  5
75F1
331
87C9
  5
7628
331
26B4
  5
7672
331
8753
  5
7596
331
8820
  5
74B5
331
8828
  5
74BD
331
885F
  5
74F4
331
875B
  5
759E
331
879A
  5
75F9
331
87D1
  5
7630
331
88AE
  5
7539
331
8867
  5
74FC
331
8763
  5
75A6
331
87F1
  5
7634
331
886F
  5
7504
331
88B0
  5
753B
331
8B09
  5
7339
331
8A2C
  5
73DE
331
8A93
  5
7415
331
8957
  5
7425
331
898E
  5
745C
331
88B8
  5
7543
331
89F5
  5
7493
331
8ACA
  5
72FA
331
8AD2
  5
7302
331
8B11
  5
7341
331
8A34
  5
73E6
331
8A9B
  5
741D
331
895F
  5
742D
331
8996
  5
7464
331
88C0
  5
754B
331
89FD
  5
73AF
331
8ADA
  5
730A
331
8B19
  5
7349
331
8A05
  5
73B7
331
8A3C
  5
73EE
331
88C8
  5
7553
331
8967
  5
7435
331
899E
  5
746C
331
8AA3
  5
72D3
331
8B40
  5
7370
331
8AAB
  5
72DB
331
8AE2
  5
7312
331
89A6
  5
7474
331
8A0D
  5
73BF
331
896F
  5
743D
331
8A44
  5
73F6
331
8B21
  5
7351
331
8B48
  5
7378
331
8B50
  5
7380
331
8B58
  5
7388
331
87F9
  5
763C
331
8830
  5
74C5
331
872C
  5
756F
331
876B
  5
75AE
331
87A2
  5
7601
331
8877
  5
750C
331
87AA
  5
7609
331
8801
  5
7644
331
8734
  5
7577
331
8773
  5
75B6
331
8838
  5
74CD
331
8840
  5
74D5
331
887F
  5
7514
331
87B2
  5
7611
331
8809
  5
764C
331
269D
  5
765B
331
873C
  5
757F
331
877B
  5
75BE
331
8848
  5
74DD
331
8887
  5
751C
331
8783
  5
75E2
331
87BA
  5
7619
331
26A5
  5
7663
331
8744
  5
7587
331
8811
  5
7654
331
888F
  5
7524
331
88D0
  5
755B
331
8B29
  5
7359
331
8A4C
  5
73FE
331
8AB3
  5
72E3
331
89AE
  5
747C
331
8A15
  5
73C7
331
8AEA
  5
731A
331
8977
  5
7445
331
8B31
  5
7361
331
8A54
  5
7406
331
8ABB
  5
72EB
331
897F
  5
744D
331
8940
  5
7569
331
8A1D
  5
73CF
331
8AF2
  5
7322
331
8AFA
  5
732A
331
8B39
  5
7369
331
8A25
  5
73D7
331
8948
  5
749C
331
8987
  5
7455
331
8A5C
  5
740E
331
8AC3
  5
72F3
331
89EE
  5
748C
331
8B02
  5
7332
331
8B60
  5
7390
331
8B68
  5
7398
331
8B70
  5
73A0
331
8B78
  5
73A8
331
8819
  5
74AE
331
8850
  5
74E5
331
874C
  5
758F
331
878B
  5
75EA
331
26AD
  5
766B
331
87C2
  5
7621
331
8897
  5
752C
331
87CA
  5
7629
331
8821
  5
74B6
331
8754
  5
7597
331
8793
  5
75F2
331
8858
  5
74ED
331
26B5
  5
7673
331
87D2
  5
7631
331
8829
  5
74BE
331
875C
  5
759F
331
879B
  5
75FA
331
8860
  5
74F5
331
8868
  5
74FD
331
87F2
  5
7635
331
88AF
  5
753A
331
8764
  5
75A7
331
8950
  5
74A4
331
88B1
  5
753C
331
8ACB
  5
72FB
331
8B0A
  5
733A
331
89F6
  5
7494
331
8A2D
  5
73DF
331
88B9
  5
7544
331
8958
  5
7426
331
898F
  5
745D
331
8A94
  5
7416
331
8A9C
  5
741E
331
8AD3
  5
7303
331
8997
  5
7465
331
89FE
  5
73B0
331
88C1
  5
754C
331
8960
  5
742E
331
8A35
  5
73E7
331
8B12
  5
7342
331
8B1A
  5
734A
331
8A3D
  5
73EF
331
8AA4
  5
72D4
331
8968
  5
7436
331
899F
  5
746D
331
88C9
  5
7554
331
8A06
  5
73B8
331
8ADB
  5
730B
331
8B41
  5
7371
331
8AE3
  5
7313
331
8B22
  5
7352
331
8A45
  5
73F7
331
8AAC
  5
72DC
331
89A7
  5
7475
331
8A0E
  5
73C0
331
8B49
  5
7379
331
8B51
  5
7381
331
8B59
  5
7389
331
8831
  5
74C6
331
8870
  5
7505
331
876C
  5
75AF
331
87A3
  5
7602
331
872D
  5
7570
331
87FA
  5
763D
331
8839
  5
74CE
331
8878
  5
750D
331
8774
  5
75B7
331
87AB
  5
760A
331
8735
  5
7578
331
8802
  5
7645
331
880A
  5
764D
331
8841
  5
74D6
331
873D
  5
7580
331
877C
  5
75BF
331
269E
  5
765C
331
87B3
  5
7612
331
8880
  5
7515
331
8888
  5
751D
331
87BB
  5
761A
331
8812
  5
7655
331
26A6
  5
7664
331
8745
  5
7588
331
8784
  5
75E3
331
8849
  5
74DE
331
8970
  5
743E
331
88D1
  5
755C
331
8AEB
  5
731B
331
8B2A
  5
735A
331
8A16
  5
73C8
331
8A4D
  5
73FF
331
8909
  5
7563
331
8978
  5
7446
331
89AF
  5
747D
331
8AB4
  5
72E4
331
8ABC
  5
72EC
331
8AF3
  5
7323
331
8A1E
  5
73D0
331
8941
  5
756A
331
8980
  5
744E
331
8A55
  5
7407
331
8B32
  5
7362
331
8B3A
  5
736A
331
8AC4
  5
72F4
331
89E7
  5
7485
331
8949
  5
749D
331
8A26
  5
73D8
331
8AFB
  5
732B
331
8B61
  5
7391
331
89EF
  5
748D
331
8B03
  5
7333
331
8B69
  5
7399
331
8B71
  5
73A1
331
8B79
  5
73A9
331
8851
  5
74E6
331
8890
  5
7525
331
87C3
  5
7622
331
881A
  5
74AF
331
26AE
  5
766C
331
874D
  5
7590
331
878C
  5
75EB
331
8859
  5
74EE
331
8898
  5
752D
331
8794
  5
75F3
331
87CB
  5
762A
331
26B6
  5
7674
331
8755
  5
7598
331
8822
  5
74B7
331
882A
  5
74BF
331
8861
  5
74F6
331
875D
  5
75A0
331
879C
  5
75FB
331
87D3
  5
7632
331
87F3
  5
7636
331
8765
  5
75A8
331
8869
  5
74FE
331
8988
  5
7456
331
88B2
  5
753D
331
8951
  5
74A5
331
8B0B
  5
733B
331
8A2E
  5
73E0
331
8A95
  5
7417
331
8959
  5
7427
331
8990
  5
745E
331
88BA
  5
7545
331
89F7
  5
7495
331
8ACC
  5
72FC
331
8AD4
  5
7304
331
8B13
  5
7343
331
89FF
  5
73B1
331
8A36
  5
73E8
331
8961
  5
742F
331
8998
  5
7466
331
8A9D
  5
741F
331
88C2
  5
754D
331
8ADC
  5
730C
331
8B1B
  5
734B
331
8A07
  5
73B9
331
8A3E
  5
73F0
331
88CA
  5
7555
331
8969
  5
7437
331
89A0
  5
746E
331
8AA5
  5
72D5
331
8B42
  5
7372
331
8AAD
  5
72DD
331
8AE4
  5
7314
331
8A0F
  5
73C1
331
8A46
  5
73F8
331
8B23
  5
7353
331
8B4A
  5
737A
331
8B52
  5
7382
331
8B5A
  5
738A
331
87FB
  5
763E
331
8832
  5
74C7
331
872E
  5
7571
331
876D
  5
75B0
331
87A4
  5
7603
331
8871
  5
7506
331
8879
  5
750E
331
87AC
  5
760B
331
8803
  5
7646
331
8736
  5
7579
331
8775
  5
75B8
331
883A
  5
74CF
331
8842
  5
74D7
331
8881
  5
7516
331
877D
  5
75DC
331
87B4
  5
7613
331
873E
  5
7581
331
880B
  5
764E
331
884A
  5
74DF
331
8889
  5
751E
331
8785
  5
75E4
331
87BC
  5
761B
331
26A7
  5
7665
331
8746
  5
7589
331
8813
  5
7656
331
89A8
  5
7476
331
88D2
  5
755D
331
8971
  5
743F
331
8B2B
  5
735B
331
8A4E
  5
7400
331
8AB5
  5
72E5
331
8979
  5
7447
331
89B0
  5
747E
331
890A
  5
7564
331
8A17
  5
73C9
331
8AEC
  5
731C
331
8AF4
  5
7324
331
8B33
  5
7363
331
8A56
  5
7408
331
8ABD
  5
72ED
331
8981
  5
744F
331
8942
  5
756B
331
8A1F
  5
73D1
331
8AFC
  5
732C
331
8B3B
  5
736B
331
8A27
  5
73D9
331
894A
  5
749E
331
89E8
  5
7486
331
8AC5
  5
72F5
331
8B04
  5
7334
331
8B62
  5
7392
331
8A8E
  5
7410
331
8B6A
  5
739A
331
8B72
  5
73A2
331
8B7A
  5
73AA
331
881B
  5
74B0
331
8852
  5
74E7
331
874E
  5
7591
331
878D
  5
75EC
331
26AF
  5
766D
331
87C4
  5
7623
331
8891
  5
7526
331
8899
  5
752E
331
87CC
  5
762B
331
8823
  5
74B8
331
26B7
  5
7675
331
8756
  5
7599
331
8795
  5
75F4
331
885A
  5
74EF
331
8862
  5
74F7
331
882B
  5
74C0
331
875E
  5
75A1
331
879D
  5
75FC
331
886A
  5
74FF
331
87F4
  5
7637
331
8766
  5
75A9
  0
LAYOUT
  5
21
102
{ACAD_XDICTIONARY
360
B804
102
}
102
{ACAD_REACTORS
330
1E
102
}
330
1E
100
AcDbPlotSettings
  1

  2

  4

  6

 40
0.0
 41
0.0
 42
0.0
 43
0.0
 44
0.0
 45
0.0
 46
0.0
 47
0.0
 48
0.0
 49
0.0
140
0.0
141
0.0
142
1.0
143
1.0
 70
     0
 72
     0
 73
     0
 74
     0
  7

 75
     0
147
1.0
148
0.0
149
0.0
100
AcDbLayout
  1
Layout1
 70
     0
 71
     1
 10
0.0
 20
0.0
 11
12.0
 21
9.0
 12
0.0
 22
0.0
 32
0.0
 14
1.000000000000000E+20
 24
1.000000000000000E+20
 34
1.000000000000000E+20
 15
-1.000000000000000E+20
 25
-1.000000000000000E+20
 35
-1.000000000000000E+20
146
0.0
 13
0.0
 23
0.0
 33
0.0
 16
1.0
 26
0.0
 36
0.0
 17
0.0
 27
1.0
 37
0.0
 76
     0
330
B
  0
LAYOUT
  5
20
102
{ACAD_XDICTIONARY
360
B802
102
}
102
{ACAD_REACTORS
330
1E
102
}
330
1E
100
AcDbPlotSettings
  1

  2

  4

  6

 40
0.0
 41
0.0
 42
0.0
 43
0.0
 44
0.0
 45
0.0
 46
0.0
 47
0.0
 48
0.0
 49
0.0
140
0.0
141
0.0
142
1.0
143
1.0
 70
  1024
 72
     0
 73
     0
 74
     0
  7

 75
     0
147
1.0
148
0.0
149
0.0
100
AcDbLayout
  1
Model
 70
     0
 71
     0
 10
0.0
 20
0.0
 11
0.0
 21
0.0
 12
0.0
 22
0.0
 32
0.0
 14
0.0
 24
0.0
 34
0.0
 15
0.0
 25
0.0
 35
0.0
146
0.0
 13
0.0
 23
0.0
 33
0.0
 16
0.0
 26
0.0
 36
0.0
 17
0.0
 27
0.0
 37
0.0
 76
     0
330
A
331
15
  0
MATERIAL
  5
5808
102
{ACAD_XDICTIONARY
360
5809
102
}
102
{ACAD_REACTORS
330
57FF
102
}
330
57FF
100
AcDbMaterial
  1
ByBlock
 72
     0
 43
0.0208333333333333
 43
0.0
 43
0.0
 43
0.0
 43
0.0
 43
0.0208333333333333
 43
0.0
 43
0.0
 43
0.0
 43
0.0
 43
1.0
 43
0.0
 43
0.0
 43
0.0
 43
0.0
 43
1.0
 77
     0
 47
0.0208333333333333
 47
0.0
 47
0.0
 47
0.0
 47
0.0
 47
0.0208333333333333
 47
0.0
 47
0.0
 47
0.0
 47
0.0
 47
1.0
 47
0.0
 47
0.0
 47
0.0
 47
0.0
 47
1.0
171
     0
 49
0.0208333333333333
 49
0.0
 49
0.0
 49
0.0
 49
0.0
 49
0.0208333333333333
 49
0.0
 49
0.0
 49
0.0
 49
0.0
 49
1.0
 49
0.0
 49
0.0
 49
0.0
 49
0.0
 49
1.0
175
     0
142
0.0208333333333333
142
0.0
142
0.0
142
0.0
142
0.0
142
0.0208333333333333
142
0.0
142
0.0
142
0.0
142
0.0
142
1.0
142
0.0
142
0.0
142
0.0
142
0.0
142
1.0
179
     0
144
0.0208333333333333
144
0.0
144
0.0
144
0.0
144
0.0
144
0.0208333333333333
144
0.0
144
0.0
144
0.0
144
0.0
144
1.0
144
0.0
144
0.0
144
0.0
144
0.0
144
1.0
147
0.0208333333333333
147
0.0
147
0.0
147
0.0
147
0.0
147
0.0208333333333333
147
0.0
147
0.0
147
0.0
147
0.0
147
1.0
147
0.0
147
0.0
147
0.0
147
0.0
147
1.0
  0
MATERIAL
  5
5800
102
{ACAD_XDICTIONARY
360
5801
102
}
102
{ACAD_REACTORS
330
57FF
102
}
330
57FF
100
AcDbMaterial
  1
ByLayer
 72
     0
 43
0.0208333333333333
 43
0.0
 43
0.0
 43
0.0
 43
0.0
 43
0.0208333333333333
 43
0.0
 43
0.0
 43
0.0
 43
0.0
 43
1.0
 43
0.0
 43
0.0
 43
0.0
 43
0.0
 43
1.0
 77
     0
 47
0.0208333333333333
 47
0.0
 47
0.0
 47
0.0
 47
0.0
 47
0.0208333333333333
 47
0.0
 47
0.0
 47
0.0
 47
0.0
 47
1.0
 47
0.0
 47
0.0
 47
0.0
 47
0.0
 47
1.0
171
     0
 49
0.0208333333333333
 49
0.0
 49
0.0
 49
0.0
 49
0.0
 49
0.0208333333333333
 49
0.0
 49
0.0
 49
0.0
 49
0.0
 49
1.0
 49
0.0
 49
0.0
 49
0.0
 49
0.0
 49
1.0
175
     0
142
0.0208333333333333
142
0.0
142
0.0
142
0.0
142
0.0
142
0.0208333333333333
142
0.0
142
0.0
142
0.0
142
0.0
142
1.0
142
0.0
142
0.0
142
0.0
142
0.0
142
1.0
179
     0
144
0.0208333333333333
144
0.0
144
0.0
144
0.0
144
0.0
144
0.0208333333333333
144
0.0
144
0.0
144
0.0
144
0.0
144
1.0
144
0.0
144
0.0
144
0.0
144
0.0
144
1.0
147
0.0208333333333333
147
0.0
147
0.0
147
0.0
147
0.0
147
0.0208333333333333
147
0.0
147
0.0
147
0.0
147
0.0
147
1.0
147
0.0
147
0.0
147
0.0
147
0.0
147
1.0
  0
MATERIAL
  5
5810
102
{ACAD_XDICTIONARY
360
5811
102
}
102
{ACAD_REACTORS
330
57FF
102
}
330
57FF
100
AcDbMaterial
  1
Global
 72
     0
 43
0.0208333333333333
 43
0.0
 43
0.0
 43
0.0
 43
0.0
 43
0.0208333333333333
 43
0.0
 43
0.0
 43
0.0
 43
0.0
 43
1.0
 43
0.0
 43
0.0
 43
0.0
 43
0.0
 43
1.0
 77
     0
 47
0.0208333333333333
 47
0.0
 47
0.0
 47
0.0
 47
0.0
 47
0.0208333333333333
 47
0.0
 47
0.0
 47
0.0
 47
0.0
 47
1.0
 47
0.0
 47
0.0
 47
0.0
 47
0.0
 47
1.0
171
     0
 49
0.0208333333333333
 49
0.0
 49
0.0
 49
0.0
 49
0.0
 49
0.0208333333333333
 49
0.0
 49
0.0
 49
0.0
 49
0.0
 49
1.0
 49
0.0
 49
0.0
 49
0.0
 49
0.0
 49
1.0
175
     0
142
0.0208333333333333
142
0.0
142
0.0
142
0.0
142
0.0
142
0.0208333333333333
142
0.0
142
0.0
142
0.0
142
0.0
142
1.0
142
0.0
142
0.0
142
0.0
142
0.0
142
1.0
179
     0
144
0.0208333333333333
144
0.0
144
0.0
144
0.0
144
0.0
144
0.0208333333333333
144
0.0
144
0.0
144
0.0
144
0.0
144
1.0
144
0.0
144
0.0
144
0.0
144
0.0
144
1.0
147
0.0208333333333333
147
0.0
147
0.0
147
0.0
147
0.0
147
0.0208333333333333
147
0.0
147
0.0
147
0.0
147
0.0
147
1.0
147
0.0
147
0.0
147
0.0
147
0.0
147
1.0
  0
MLEADERSTYLE
  5
584F
102
{ACAD_REACTORS
330
584E
102
}
330
584E
100
AcDbMLeaderStyle
170
     2
171
     1
172
     0
 90
        2
 40
0.0
 41
0.0
173
     1
 91
-1056964608
340
11
 92
       -2
290
     1
 42
2.0
291
     1
 43
0.36
  3
Standard
 44
4.0
300

342
17
174
     1
178
     6
175
     1
176
     0
 93
-1056964608
 45
4.0
292
     0
297
     0
 46
4.0
 94
-1056964608
 47
1.0
 49
1.0
140
1.0
293
     1
141
0.0
294
     1
177
     0
142
1.0
295
     0
296
     0
143
0.125
1001
ACAD_MLEADERVER
1070
     2
  0
MLINESTYLE
  5
1C
102
{ACAD_REACTORS
330
1B
102
}
330
1B
100
AcDbMlineStyle
  2
STANDARD
 70
     0
  3

 62
     0
 51
90.0
 52
90.0
 71
     2
 49
0.5
 62
   256
  6
BYLAYER
 49
-0.5
 62
   256
  6
BYLAYER
  0
ACDBPLACEHOLDER
  5
1D
102
{ACAD_REACTORS
330
1F
102
}
330
1F
  0
SCALE
  5
582D
102
{ACAD_REACTORS
330
582C
102
}
330
582C
100
AcDbScale
 70
     0
300
1:1
140
1.0
141
1.0
290
     1
  0
SCALE
  5
582E
102
{ACAD_REACTORS
330
582C
102
}
330
582C
100
AcDbScale
 70
     0
300
1:2
140
1.0
141
2.0
290
     0
  0
SCALE
  5
582F
102
{ACAD_REACTORS
330
582C
102
}
330
582C
100
AcDbScale
 70
     0
300
1:4
140
1.0
141
4.0
290
     0
  0
SCALE
  5
5830
102
{ACAD_REACTORS
330
582C
102
}
330
582C
100
AcDbScale
 70
     0
300
1:5
140
1.0
141
5.0
290
     0
  0
SCALE
  5
5831
102
{ACAD_REACTORS
330
582C
102
}
330
582C
100
AcDbScale
 70
     0
300
1:8
140
1.0
141
8.0
290
     0
  0
SCALE
  5
5832
102
{ACAD_REACTORS
330
582C
102
}
330
582C
100
AcDbScale
 70
     0
300
1:10
140
1.0
141
10.0
290
     0
  0
SCALE
  5
5833
102
{ACAD_REACTORS
330
582C
102
}
330
582C
100
AcDbScale
 70
     0
300
1:16
140
1.0
141
16.0
290
     0
  0
SCALE
  5
5834
102
{ACAD_REACTORS
330
582C
102
}
330
582C
100
AcDbScale
 70
     0
300
1:20
140
1.0
141
20.0
290
     0
  0
SCALE
  5
5835
102
{ACAD_REACTORS
330
582C
102
}
330
582C
100
AcDbScale
 70
     0
300
1:30
140
1.0
141
30.0
290
     0
  0
SCALE
  5
5836
102
{ACAD_REACTORS
330
582C
102
}
330
582C
100
AcDbScale
 70
     0
300
1:40
140
1.0
141
40.0
290
     0
  0
SCALE
  5
5837
102
{ACAD_REACTORS
330
582C
102
}
330
582C
100
AcDbScale
 70
     0
300
1:50
140
1.0
141
50.0
290
     0
  0
SCALE
  5
5838
102
{ACAD_REACTORS
330
582C
102
}
330
582C
100
AcDbScale
 70
     0
300
1:100
140
1.0
141
100.0
290
     0
  0
SCALE
  5
5839
102
{ACAD_REACTORS
330
582C
102
}
330
582C
100
AcDbScale
 70
     0
300
2:1
140
2.0
141
1.0
290
     0
  0
SCALE
  5
583A
102
{ACAD_REACTORS
330
582C
102
}
330
582C
100
AcDbScale
 70
     0
300
4:1
140
4.0
141
1.0
290
     0
  0
SCALE
  5
583B
102
{ACAD_REACTORS
330
582C
102
}
330
582C
100
AcDbScale
 70
     0
300
8:1
140
8.0
141
1.0
290
     0
  0
SCALE
  5
583C
102
{ACAD_REACTORS
330
582C
102
}
330
582C
100
AcDbScale
 70
     0
300
10:1
140
10.0
141
1.0
290
     0
  0
SCALE
  5
583D
102
{ACAD_REACTORS
330
582C
102
}
330
582C
100
AcDbScale
 70
     0
300
100:1
140
100.0
141
1.0
290
     0
  0
SCALE
  5
583E
102
{ACAD_REACTORS
330
582C
102
}
330
582C
100
AcDbScale
 70
     0
300
1/128" = 1'-0"
140
0.0078125
141
12.0
290
     0
  0
SCALE
  5
583F
102
{ACAD_REACTORS
330
582C
102
}
330
582C
100
AcDbScale
 70
     0
300
1/64" = 1'-0"
140
0.015625
141
12.0
290
     0
  0
SCALE
  5
5840
102
{ACAD_REACTORS
330
582C
102
}
330
582C
100
AcDbScale
 70
     0
300
1/32" = 1'-0"
140
0.03125
141
12.0
290
     0
  0
SCALE
  5
5841
102
{ACAD_REACTORS
330
582C
102
}
330
582C
100
AcDbScale
 70
     0
300
1/16" = 1'-0"
140
0.0625
141
12.0
290
     0
  0
SCALE
  5
5842
102
{ACAD_REACTORS
330
582C
102
}
330
582C
100
AcDbScale
 70
     0
300
3/32" = 1'-0"
140
0.09375
141
12.0
290
     0
  0
SCALE
  5
5843
102
{ACAD_REACTORS
330
582C
102
}
330
582C
100
AcDbScale
 70
     0
300
1/8" = 1'-0"
140
0.125
141
12.0
290
     0
  0
SCALE
  5
5844
102
{ACAD_REACTORS
330
582C
102
}
330
582C
100
AcDbScale
 70
     0
300
3/16" = 1'-0"
140
0.1875
141
12.0
290
     0
  0
SCALE
  5
5845
102
{ACAD_REACTORS
330
582C
102
}
330
582C
100
AcDbScale
 70
     0
300
1/4" = 1'-0"
140
0.25
141
12.0
290
     0
  0
SCALE
  5
5846
102
{ACAD_REACTORS
330
582C
102
}
330
582C
100
AcDbScale
 70
     0
300
3/8" = 1'-0"
140
0.375
141
12.0
290
     0
  0
SCALE
  5
5847
102
{ACAD_REACTORS
330
582C
102
}
330
582C
100
AcDbScale
 70
     0
300
1/2" = 1'-0"
140
0.5
141
12.0
290
     0
  0
SCALE
  5
5848
102
{ACAD_REACTORS
330
582C
102
}
330
582C
100
AcDbScale
 70
     0
300
3/4" = 1'-0"
140
0.75
141
12.0
290
     0
  0
SCALE
  5
5849
102
{ACAD_REACTORS
330
582C
102
}
330
582C
100
AcDbScale
 70
     0
300
1" = 1'-0"
140
1.0
141
12.0
290
     0
  0
SCALE
  5
584A
102
{ACAD_REACTORS
330
582C
102
}
330
582C
100
AcDbScale
 70
     0
300
1-1/2" = 1'-0"
140
1.5
141
12.0
290
     0
  0
SCALE
  5
584B
102
{ACAD_REACTORS
330
582C
102
}
330
582C
100
AcDbScale
 70
     0
300
3" = 1'-0"
140
3.0
141
12.0
290
     0
  0
SCALE
  5
584C
102
{ACAD_REACTORS
330
582C
102
}
330
582C
100
AcDbScale
 70
     0
300
6" = 1'-0"
140
6.0
141
12.0
290
     0
  0
SCALE
  5
584D
102
{ACAD_REACTORS
330
582C
102
}
330
582C
100
AcDbScale
 70
     0
300
1'-0" = 1'-0"
140
12.0
141
12.0
290
     0
  0
TABLESTYLE
  5
582B
102
{ACAD_XDICTIONARY
360
AB8E
102
}
102
{ACAD_REACTORS
330
582A
102
}
330
582A
100
AcDbTableStyle
  3
Standard
 70
     0
 71
     0
 40
1.5
 41
1.5
280
     0
281
     0
  7
Standard
140
4.5
170
     2
 62
     0
 63
     7
283
     0
274
    -2
284
     1
 64
     0
275
    -2
285
     1
 65
     0
276
    -2
286
     1
 66
     0
277
    -2
287
     1
 67
     0
278
    -2
288
     1
 68
     0
279
    -2
289
     1
 69
     0
  7
Standard
140
6.0
170
     5
 62
     0
 63
     7
283
     0
274
    -2
284
     1
 64
     0
275
    -2
285
     1
 65
     0
276
    -2
286
     1
 66
     0
277
    -2
287
     1
 67
     0
278
    -2
288
     1
 68
     0
279
    -2
289
     1
 69
     0
  7
Standard
140
4.5
170
     5
 62
     0
 63
     7
283
     0
274
    -2
284
     1
 64
     0
275
    -2
285
     1
 65
     0
276
    -2
286
     1
 66
     0
277
    -2
287
     1
 67
     0
278
    -2
288
     1
 68
     0
279
    -2
289
     1
 69
     0
  0
VISUALSTYLE
  5
581E
102
{ACAD_REACTORS
330
5818
102
}
330
5818
100
AcDbVisualStyle
  2
2dWireframe
 70
     4
 71
     0
 72
     2
 73
     0
 90
        0
 40
-0.6
 41
-30.0
 62
     5
 63
     7
 74
     1
 91
        4
 64
     7
 65
   257
 75
     1
175
     1
 42
1.0
 92
        0
 66
   257
 43
1.0
 76
     1
 77
     6
 78
     2
 67
     7
 79
     5
170
     0
171
     0
290
     0
174
     0
 93
        1
 44
0.0
173
     0
291
     0
 45
0.0
1001
ACAD
1000
AcDbSavedByObjectVersion
1070
     0
1000
AcDbSavedByObjectVersion
1070
     0
1000
AcDbSavedByObjectVersion
1070
     0
  0
VISUALSTYLE
  5
5820
102
{ACAD_REACTORS
330
5818
102
}
330
5818
100
AcDbVisualStyle
  2
3D Hidden
 70
     6
 71
     1
 72
     2
 73
     2
 90
        0
 40
-0.6
 41
-30.0
 62
     5
 63
     7
 74
     2
 91
        2
 64
     7
 65
   257
 75
     2
175
     1
 42
40.0
 92
        0
 66
   257
 43
1.0
 76
     1
 77
     6
 78
     2
 67
     7
 79
     3
170
     0
171
     0
290
     0
174
     0
 93
        1
 44
0.0
173
     0
291
     0
 45
0.0
1001
ACAD
1000
AcDbSavedByObjectVersion
1070
     0
1000
AcDbSavedByObjectVersion
1070
     0
1000
AcDbSavedByObjectVersion
1070
     0
  0
VISUALSTYLE
  5
581F
102
{ACAD_REACTORS
330
5818
102
}
330
5818
100
AcDbVisualStyle
  2
3dWireframe
 70
     5
 71
     0
 72
     2
 73
     0
 90
        0
 40
-0.6
 41
-30.0
 62
     5
 63
     7
 74
     1
 91
        4
 64
     7
 65
   257
 75
     1
175
     1
 42
1.0
 92
        0
 66
   257
 43
1.0
 76
     1
 77
     6
 78
     2
 67
     7
 79
     5
170
     0
171
     0
290
     0
174
     0
 93
        1
 44
0.0
173
     0
291
     0
 45
0.0
1001
ACAD
1000
AcDbSavedByObjectVersion
1070
     0
1000
AcDbSavedByObjectVersion
1070
     0
1000
AcDbSavedByObjectVersion
1070
     0
  0
VISUALSTYLE
  5
581D
102
{ACAD_REACTORS
330
5818
102
}
330
5818
100
AcDbVisualStyle
  2
Basic
 70
     7
 71
     1
 72
     0
 73
     1
 90
        0
 40
-0.6
 41
-30.0
 62
     5
 63
     7
 74
     0
 91
        4
 64
     7
 65
   257
 75
     1
175
     1
 42
1.0
 92
        8
 66
     7
 43
1.0
 76
     1
 77
     6
 78
     2
 67
     7
 79
     5
170
     0
171
     0
290
     0
174
     0
 93
        1
 44
0.0
173
     0
291
     1
 45
0.0
1001
ACAD
1000
AcDbSavedByObjectVersion
1070
     0
1000
AcDbSavedByObjectVersion
1070
     0
1000
AcDbSavedByObjectVersion
1070
     0
  0
VISUALSTYLE
  5
5824
102
{ACAD_REACTORS
330
5818
102
}
330
5818
100
AcDbVisualStyle
  2
Brighten
 70
    12
 71
     2
 72
     2
 73
     0
 90
        0
 40
-0.6
 41
-30.0
 62
     5
 63
     7
 74
     1
 91
        4
 64
     7
 65
   257
 75
     1
175
     1
 42
1.0
 92
        8
 66
     7
 43
1.0
 76
     1
 77
     6
 78
     2
 67
     7
 79
     5
170
     0
171
     0
290
     0
174
     0
 93
        1
 44
50.0
173
     0
291
     1
 45
0.0
1001
ACAD
1000
AcDbSavedByObjectVersion
1070
     0
1000
AcDbSavedByObjectVersion
1070
     0
1000
AcDbSavedByObjectVersion
1070
     0
  0
VISUALSTYLE
  5
5828
102
{ACAD_REACTORS
330
5818
102
}
330
5818
100
AcDbVisualStyle
  2
ColorChange
 70
    16
 71
     2
 72
     2
 73
     3
 90
        0
 40
-0.6
 41
-30.0
 62
     5
 63
     8
 74
     1
 91
        4
 64
     7
 65
   257
 75
     1
175
     1
 42
1.0
 92
        8
 66
     8
 43
1.0
 76
     1
 77
     6
 78
     2
 67
     7
 79
     5
170
     0
171
     0
290
     0
174
     0
 93
        1
 44
0.0
173
     0
291
     1
 45
0.0
1001
ACAD
1000
AcDbSavedByObjectVersion
1070
     0
1000
AcDbSavedByObjectVersion
1070
     0
1000
AcDbSavedByObjectVersion
1070
     0
  0
VISUALSTYLE
  5
5821
102
{ACAD_REACTORS
330
5818
102
}
330
5818
100
AcDbVisualStyle
  2
Conceptual
 70
     9
 71
     3
 72
     2
 73
     0
 90
        0
 40
-0.6
 41
-30.0
 62
     5
 63
     7
 74
     2
 91
        2
 64
     7
 65
   257
 75
     1
175
     1
 42
40.0
 92
        8
 66
     7
 43
1.0
 76
     1
 77
     6
 78
     2
 67
     7
 79
     3
170
     0
171
     0
290
     0
174
     0
 93
        1
 44
0.0
173
     0
291
     0
 45
0.0
1001
ACAD
1000
AcDbSavedByObjectVersion
1070
     0
1000
AcDbSavedByObjectVersion
1070
     0
1000
AcDbSavedByObjectVersion
1070
     0
  0
VISUALSTYLE
  5
5823
102
{ACAD_REACTORS
330
5818
102
}
330
5818
100
AcDbVisualStyle
  2
Dim
 70
    11
 71
     2
 72
     2
 73
     0
 90
        0
 40
-0.6
 41
-30.0
 62
     5
 63
     7
 74
     1
 91
        4
 64
     7
 65
   257
 75
     1
175
     1
 42
1.0
 92
        8
 66
     7
 43
1.0
 76
     1
 77
     6
 78
     2
 67
     7
 79
     5
170
     0
171
     0
290
     0
174
     0
 93
        1
 44
-50.0
173
     0
291
     1
 45
0.0
1001
ACAD
1000
AcDbSavedByObjectVersion
1070
     0
1000
AcDbSavedByObjectVersion
1070
     0
1000
AcDbSavedByObjectVersion
1070
     0
  0
VISUALSTYLE
  5
5827
102
{ACAD_REACTORS
330
5818
102
}
330
5818
100
AcDbVisualStyle
  2
Facepattern
 70
    15
 71
     2
 72
     2
 73
     0
 90
        0
 40
-0.6
 41
-30.0
 62
     5
 63
     7
 74
     1
 91
        4
 64
     7
 65
   257
 75
     1
175
     1
 42
1.0
 92
        8
 66
     7
 43
1.0
 76
     1
 77
     6
 78
     2
 67
     7
 79
     5
170
     0
171
     0
290
     0
174
     0
 93
        1
 44
0.0
173
     0
291
     1
 45
0.0
1001
ACAD
1000
AcDbSavedByObjectVersion
1070
     0
1000
AcDbSavedByObjectVersion
1070
     0
1000
AcDbSavedByObjectVersion
1070
     0
  0
VISUALSTYLE
  5
5819
102
{ACAD_REACTORS
330
5818
102
}
330
5818
100
AcDbVisualStyle
  2
Flat
 70
     0
 71
     2
 72
     1
 73
     1
 90
        2
 40
-0.6
 41
30.0
 62
     5
 63
     7
 74
     0
 91
        4
 64
     7
 65
   257
 75
     1
175
     1
 42
1.0
 92
        8
 66
     7
 43
1.0
 76
     1
 77
     6
 78
     2
 67
     7
 79
     5
170
     0
171
     0
290
     0
174
     0
 93
       13
 44
0.0
173
     0
291
     1
 45
0.0
1001
ACAD
1000
AcDbSavedByObjectVersion
1070
     0
1000
AcDbSavedByObjectVersion
1070
     0
1000
AcDbSavedByObjectVersion
1070
     0
  0
VISUALSTYLE
  5
581A
102
{ACAD_REACTORS
330
5818
102
}
330
5818
100
AcDbVisualStyle
  2
FlatWithEdges
 70
     1
 71
     2
 72
     1
 73
     1
 90
        2
 40
-0.6
 41
30.0
 62
     5
 63
     7
 74
     1
 91
        4
 64
     7
 65
   257
 75
     1
175
     1
 42
1.0
 92
        0
 66
   257
 43
1.0
 76
     1
 77
     6
 78
     2
 67
     7
 79
     5
170
     0
171
     0
290
     0
174
     0
 93
       13
 44
0.0
173
     0
291
     1
 45
0.0
1001
ACAD
1000
AcDbSavedByObjectVersion
1070
     0
1000
AcDbSavedByObjectVersion
1070
     0
1000
AcDbSavedByObjectVersion
1070
     0
  0
VISUALSTYLE
  5
581B
102
{ACAD_REACTORS
330
5818
102
}
330
5818
100
AcDbVisualStyle
  2
Gouraud
 70
     2
 71
     2
 72
     2
 73
     1
 90
        2
 40
-0.6
 41
30.0
 62
     5
 63
     7
 74
     0
 91
        4
 64
     7
 65
   257
 75
     1
175
     1
 42
1.0
 92
        0
 66
     7
 43
1.0
 76
     1
 77
     6
 78
     2
 67
     7
 79
     5
170
     0
171
     0
290
     0
174
     0
 93
       13
 44
0.0
173
     0
291
     1
 45
0.0
1001
ACAD
1000
AcDbSavedByObjectVersion
1070
     0
1000
AcDbSavedByObjectVersion
1070
     0
1000
AcDbSavedByObjectVersion
1070
     0
  0
VISUALSTYLE
  5
581C
102
{ACAD_REACTORS
330
5818
102
}
330
5818
100
AcDbVisualStyle
  2
GouraudWithEdges
 70
     3
 71
     2
 72
     2
 73
     1
 90
        2
 40
-0.6
 41
30.0
 62
     5
 63
     7
 74
     1
 91
        4
 64
     7
 65
   257
 75
     1
175
     1
 42
1.0
 92
        0
 66
   257
 43
1.0
 76
     1
 77
     6
 78
     2
 67
     7
 79
     5
170
     0
171
     0
290
     0
174
     0
 93
       13
 44
0.0
173
     0
291
     1
 45
0.0
1001
ACAD
1000
AcDbSavedByObjectVersion
1070
     0
1000
AcDbSavedByObjectVersion
1070
     0
1000
AcDbSavedByObjectVersion
1070
     0
  0
VISUALSTYLE
  5
5826
102
{ACAD_REACTORS
330
5818
102
}
330
5818
100
AcDbVisualStyle
  2
Linepattern
 70
    14
 71
     2
 72
     2
 73
     0
 90
        0
 40
-0.6
 41
-30.0
 62
     5
 63
     7
 74
     1
 91
        4
 64
     7
 65
   257
 75
     7
175
     7
 42
1.0
 92
        8
 66
     7
 43
1.0
 76
     1
 77
     6
 78
     2
 67
     7
 79
     5
170
     0
171
     0
290
     0
174
     0
 93
        1
 44
0.0
173
     0
291
     1
 45
0.0
1001
ACAD
1000
AcDbSavedByObjectVersion
1070
     0
1000
AcDbSavedByObjectVersion
1070
     0
1000
AcDbSavedByObjectVersion
1070
     0
  0
VISUALSTYLE
  5
5822
102
{ACAD_REACTORS
330
5818
102
}
330
5818
100
AcDbVisualStyle
  2
Realistic
 70
     8
 71
     2
 72
     2
 73
     0
 90
        0
 40
-0.6
 41
-30.0
 62
     5
 63
     7
 74
     1
 91
        0
 64
     7
 65
   257
 75
     1
175
     1
 42
1.0
 92
        8
 66
     8
 43
1.0
 76
     1
 77
     6
 78
     2
 67
     7
 79
     5
170
     0
171
     0
290
     0
174
     0
 93
       13
 44
0.0
173
     0
291
     0
 45
0.0
1001
ACAD
1000
AcDbSavedByObjectVersion
1070
     0
1000
AcDbSavedByObjectVersion
1070
     0
1000
AcDbSavedByObjectVersion
1070
     0
  0
VISUALSTYLE
  5
5825
102
{ACAD_REACTORS
330
5818
102
}
330
5818
100
AcDbVisualStyle
  2
Thicken
 70
    13
 71
     2
 72
     2
 73
     0
 90
        0
 40
-0.6
 41
-30.0
 62
     5
 63
     7
 74
     1
 91
        4
 64
     7
 65
   257
 75
     1
175
     1
 42
1.0
 92
       12
 66
     7
 43
1.0
 76
     1
 77
     6
 78
     2
 67
     7
 79
     5
170
     0
171
     0
290
     0
174
     0
 93
        1
 44
0.0
173
     0
291
     1
 45
0.0
1001
ACAD
1000
AcDbSavedByObjectVersion
1070
     0
1000
AcDbSavedByObjectVersion
1070
     0
1000
AcDbSavedByObjectVersion
1070
     0
  0
DICTIONARYVAR
  5
AB95
102
{ACAD_REACTORS
330
AB91
102
}
330
AB91
100
DictionaryVariables
280
     0
  1
1:1
  0
DICTIONARYVAR
  5
AB93
102
{ACAD_REACTORS
330
AB91
102
}
330
AB91
100
DictionaryVariables
280
     0
  1
STANDARD
  0
DICTIONARYVAR
  5
AB92
102
{ACAD_REACTORS
330
AB91
102
}
330
AB91
100
DictionaryVariables
280
     0
  1
STANDARD
  0
DICTIONARYVAR
  5
B616
102
{ACAD_REACTORS
330
AB91
102
}
330
AB91
100
DictionaryVariables
280
     0
  1
1
  0
DICTIONARYVAR
  5
B615
102
{ACAD_REACTORS
330
AB91
102
}
330
AB91
100
DictionaryVariables
280
     0
  1
0
  0
DICTIONARYVAR
  5
AB96
102
{ACAD_REACTORS
330
AB91
102
}
330
AB91
100
DictionaryVariables
280
     0
  1
0
  0
DICTIONARYVAR
  5
AB94
102
{ACAD_REACTORS
330
AB91
102
}
330
AB91
100
DictionaryVariables
280
     0
  1
0
  0
DICTIONARYVAR
  5
B614
102
{ACAD_REACTORS
330
AB91
102
}
330
AB91
100
DictionaryVariables
280
     0
  1
127
  0
XRECORD
  5
B60D
102
{ACAD_REACTORS
330
B60C
102
}
330
B60C
100
AcDbXrecord
280
     1
  0
DICTIONARY
  5
B804
330
21
100
AcDbDictionary
280
     1
281
     1
  3
ACAD_XREC_ROUNDTRIP
360
B805
  0
DICTIONARY
  5
B802
330
20
100
AcDbDictionary
280
     1
281
     1
  3
ACAD_XREC_ROUNDTRIP
360
B803
  0
DICTIONARY
  5
5809
330
5808
100
AcDbDictionary
280
     1
281
     1
  3
ACAD_XREC_ROUNDTRIP
360
B61E
  3
BUMPTILE
360
580B
  3
DIFFUSETILE
360
580A
  3
OPACITYTILE
360
580E
  3
REFLECTIONTILE
360
580D
  3
REFRACTIONTILE
360
580F
  3
SPECULARTILE
360
580C
  0
DICTIONARY
  5
5801
330
5800
100
AcDbDictionary
280
     1
281
     1
  3
ACAD_XREC_ROUNDTRIP
360
B61D
  3
BUMPTILE
360
5803
  3
DIFFUSETILE
360
5802
  3
OPACITYTILE
360
5806
  3
REFLECTIONTILE
360
5805
  3
REFRACTIONTILE
360
5807
  3
SPECULARTILE
360
5804
  0
DICTIONARY
  5
5811
330
5810
100
AcDbDictionary
280
     1
281
     1
  3
ACAD_XREC_ROUNDTRIP
360
B61F
  3
BUMPTILE
360
5813
  3
DIFFUSETILE
360
5812
  3
OPACITYTILE
360
5816
  3
REFLECTIONTILE
360
5815
  3
REFRACTIONTILE
360
5817
  3
SPECULARTILE
360
5814
  0
DICTIONARY
  5
AB8E
330
582B
100
AcDbDictionary
280
     1
281
     1
  3
ACAD_ROUNDTRIP_2008_TABLESTYLE_CELLSTYLEMAP
360
B800
  3
ACAD_XREC_ROUNDTRIP
360
B806
  0
XRECORD
  5
B805
102
{ACAD_REACTORS
330
B804
102
}
330
B804
100
AcDbXrecord
280
     1
102
SHADEPLOT
 70
     0
102
SHADEPLOTRESLEVEL
 70
     2
102
SHADEPLOTCUSTOMDPI
 70
   300
  0
XRECORD
  5
B803
102
{ACAD_REACTORS
330
B802
102
}
330
B802
100
AcDbXrecord
280
     1
102
SHADEPLOT
 70
     0
102
SHADEPLOTRESLEVEL
 70
     2
102
SHADEPLOTCUSTOMDPI
 70
   300
  0
XRECORD
  5
B61E
102
{ACAD_REACTORS
330
5809
102
}
330
5809
100
AcDbXrecord
280
     1
102
MATERIAL
148
0.0
149
0.0
149
0.0
 93
        0
 94
      127
282
     0
 72
     0
 77
     0
171
     0
175
     0
179
     0
273
     0
  0
XRECORD
  5
580B
102
{ACAD_REACTORS
330
5809
102
}
330
5809
100
AcDbXrecord
280
     1
270
     1
271
     1
  0
XRECORD
  5
580A
102
{ACAD_REACTORS
330
5809
102
}
330
5809
100
AcDbXrecord
280
     1
270
     1
271
     1
  0
XRECORD
  5
580E
102
{ACAD_REACTORS
330
5809
102
}
330
5809
100
AcDbXrecord
280
     1
270
     1
271
     1
  0
XRECORD
  5
580D
102
{ACAD_REACTORS
330
5809
102
}
330
5809
100
AcDbXrecord
280
     1
270
     1
271
     1
  0
XRECORD
  5
580F
102
{ACAD_REACTORS
330
5809
102
}
330
5809
100
AcDbXrecord
280
     1
270
     1
271
     1
  0
XRECORD
  5
580C
102
{ACAD_REACTORS
330
5809
102
}
330
5809
100
AcDbXrecord
280
     1
270
     1
271
     1
  0
XRECORD
  5
B61D
102
{ACAD_REACTORS
330
5801
102
}
330
5801
100
AcDbXrecord
280
     1
102
MATERIAL
148
0.0
149
0.0
149
0.0
 93
        0
 94
      127
282
     0
 72
     0
 77
     0
171
     0
175
     0
179
     0
273
     0
  0
XRECORD
  5
5803
102
{ACAD_REACTORS
330
5801
102
}
330
5801
100
AcDbXrecord
280
     1
270
     1
271
     1
  0
XRECORD
  5
5802
102
{ACAD_REACTORS
330
5801
102
}
330
5801
100
AcDbXrecord
280
     1
270
     1
271
     1
  0
XRECORD
  5
5806
102
{ACAD_REACTORS
330
5801
102
}
330
5801
100
AcDbXrecord
280
     1
270
     1
271
     1
  0
XRECORD
  5
5805
102
{ACAD_REACTORS
330
5801
102
}
330
5801
100
AcDbXrecord
280
     1
270
     1
271
     1
  0
XRECORD
  5
5807
102
{ACAD_REACTORS
330
5801
102
}
330
5801
100
AcDbXrecord
280
     1
270
     1
271
     1
  0
XRECORD
  5
5804
102
{ACAD_REACTORS
330
5801
102
}
330
5801
100
AcDbXrecord
280
     1
270
     1
271
     1
  0
XRECORD
  5
B61F
102
{ACAD_REACTORS
330
5811
102
}
330
5811
100
AcDbXrecord
280
     1
102
MATERIAL
148
0.0
149
0.0
149
0.0
 93
        0
 94
      127
282
     0
 72
     0
 77
     0
171
     0
175
     0
179
     0
273
     0
  0
XRECORD
  5
5813
102
{ACAD_REACTORS
330
5811
102
}
330
5811
100
AcDbXrecord
280
     1
270
     1
271
     1
  0
XRECORD
  5
5812
102
{ACAD_REACTORS
330
5811
102
}
330
5811
100
AcDbXrecord
280
     1
270
     1
271
     1
  0
XRECORD
  5
5816
102
{ACAD_REACTORS
330
5811
102
}
330
5811
100
AcDbXrecord
280
     1
270
     1
271
     1
  0
XRECORD
  5
5815
102
{ACAD_REACTORS
330
5811
102
}
330
5811
100
AcDbXrecord
280
     1
270
     1
271
     1
  0
XRECORD
  5
5817
102
{ACAD_REACTORS
330
5811
102
}
330
5811
100
AcDbXrecord
280
     1
270
     1
271
     1
  0
XRECORD
  5
5814
102
{ACAD_REACTORS
330
5811
102
}
330
5811
100
AcDbXrecord
280
     1
270
     1
271
     1
  0
CELLSTYLEMAP
  5
B800
102
{ACAD_REACTORS
330
AB8E
102
}
330
AB8E
100
AcDbCellStyleMap
 90
        3
300
CELLSTYLE
  1
TABLEFORMAT_BEGIN
 90
        5
170
     1
 91
        0
 92
    32768
 62
   257
 93
        1
300
CONTENTFORMAT
  1
CONTENTFORMAT_BEGIN
 90
        0
 91
        0
 92
      512
 93
        0
300

 40
0.0
140
1.0
 94
        5
 62
     0
340
17
144
6.0
309
CONTENTFORMAT_END
171
     1
301
MARGIN
  1
CELLMARGIN_BEGIN
 40
1.5
 40
1.5
 40
1.5
 40
1.5
 40
0.18
 40
0.18
309
CELLMARGIN_END
 94
        6
 95
        1
302
GRIDFORMAT
  1
GRIDFORMAT_BEGIN
 90
        0
 91
        1
 62
     0
 92
       -2
340
0
 93
        0
 40
1.125
309
GRIDFORMAT_END
 95
        2
302
GRIDFORMAT
  1
GRIDFORMAT_BEGIN
 90
        0
 91
        1
 62
     0
 92
       -2
340
0
 93
        0
 40
1.125
309
GRIDFORMAT_END
 95
        4
302
GRIDFORMAT
  1
GRIDFORMAT_BEGIN
 90
        0
 91
        1
 62
     0
 92
       -2
340
0
 93
        0
 40
1.125
309
GRIDFORMAT_END
 95
        8
302
GRIDFORMAT
  1
GRIDFORMAT_BEGIN
 90
        0
 91
        1
 62
     0
 92
       -2
340
0
 93
        0
 40
1.125
309
GRIDFORMAT_END
 95
       16
302
GRIDFORMAT
  1
GRIDFORMAT_BEGIN
 90
        0
 91
        1
 62
     0
 92
       -2
340
0
 93
        0
 40
1.125
309
GRIDFORMAT_END
 95
       32
302
GRIDFORMAT
  1
GRIDFORMAT_BEGIN
 90
        0
 91
        1
 62
     0
 92
       -2
340
0
 93
        0
 40
1.125
309
GRIDFORMAT_END
309
TABLEFORMAT_END
  1
CELLSTYLE_BEGIN
 90
        1
 91
        1
300
_TITLE
309
CELLSTYLE_END
300
CELLSTYLE
  1
TABLEFORMAT_BEGIN
 90
        5
170
     1
 91
        0
 92
        0
 62
   257
 93
        1
300
CONTENTFORMAT
  1
CONTENTFORMAT_BEGIN
 90
        0
 91
        0
 92
      512
 93
        0
300

 40
0.0
140
1.0
 94
        5
 62
     0
340
17
144
4.5
309
CONTENTFORMAT_END
171
     1
301
MARGIN
  1
CELLMARGIN_BEGIN
 40
1.5
 40
1.5
 40
1.5
 40
1.5
 40
0.18
 40
0.18
309
CELLMARGIN_END
 94
        6
 95
        1
302
GRIDFORMAT
  1
GRIDFORMAT_BEGIN
 90
        0
 91
        1
 62
     0
 92
       -2
340
0
 93
        0
 40
1.125
309
GRIDFORMAT_END
 95
        2
302
GRIDFORMAT
  1
GRIDFORMAT_BEGIN
 90
        0
 91
        1
 62
     0
 92
       -2
340
0
 93
        0
 40
1.125
309
GRIDFORMAT_END
 95
        4
302
GRIDFORMAT
  1
GRIDFORMAT_BEGIN
 90
        0
 91
        1
 62
     0
 92
       -2
340
0
 93
        0
 40
1.125
309
GRIDFORMAT_END
 95
        8
302
GRIDFORMAT
  1
GRIDFORMAT_BEGIN
 90
        0
 91
        1
 62
     0
 92
       -2
340
0
 93
        0
 40
1.125
309
GRIDFORMAT_END
 95
       16
302
GRIDFORMAT
  1
GRIDFORMAT_BEGIN
 90
        0
 91
        1
 62
     0
 92
       -2
340
0
 93
        0
 40
1.125
309
GRIDFORMAT_END
 95
       32
302
GRIDFORMAT
  1
GRIDFORMAT_BEGIN
 90
        0
 91
        1
 62
     0
 92
       -2
340
0
 93
        0
 40
1.125
309
GRIDFORMAT_END
309
TABLEFORMAT_END
  1
CELLSTYLE_BEGIN
 90
        2
 91
        1
300
_HEADER
309
CELLSTYLE_END
300
CELLSTYLE
  1
TABLEFORMAT_BEGIN
 90
        5
170
     1
 91
        0
 92
        0
 62
   257
 93
        1
300
CONTENTFORMAT
  1
CONTENTFORMAT_BEGIN
 90
        0
 91
        0
 92
      512
 93
        0
300

 40
0.0
140
1.0
 94
        2
 62
     0
340
17
144
4.5
309
CONTENTFORMAT_END
171
     1
301
MARGIN
  1
CELLMARGIN_BEGIN
 40
1.5
 40
1.5
 40
1.5
 40
1.5
 40
0.18
 40
0.18
309
CELLMARGIN_END
 94
        6
 95
        1
302
GRIDFORMAT
  1
GRIDFORMAT_BEGIN
 90
        0
 91
        1
 62
     0
 92
       -2
340
0
 93
        0
 40
1.125
309
GRIDFORMAT_END
 95
        2
302
GRIDFORMAT
  1
GRIDFORMAT_BEGIN
 90
        0
 91
        1
 62
     0
 92
       -2
340
0
 93
        0
 40
1.125
309
GRIDFORMAT_END
 95
        4
302
GRIDFORMAT
  1
GRIDFORMAT_BEGIN
 90
        0
 91
        1
 62
     0
 92
       -2
340
0
 93
        0
 40
1.125
309
GRIDFORMAT_END
 95
        8
302
GRIDFORMAT
  1
GRIDFORMAT_BEGIN
 90
        0
 91
        1
 62
     0
 92
       -2
340
0
 93
        0
 40
1.125
309
GRIDFORMAT_END
 95
       16
302
GRIDFORMAT
  1
GRIDFORMAT_BEGIN
 90
        0
 91
        1
 62
     0
 92
       -2
340
0
 93
        0
 40
1.125
309
GRIDFORMAT_END
 95
       32
302
GRIDFORMAT
  1
GRIDFORMAT_BEGIN
 90
        0
 91
        1
 62
     0
 92
       -2
340
0
 93
        0
 40
1.125
309
GRIDFORMAT_END
309
TABLEFORMAT_END
  1
CELLSTYLE_BEGIN
 90
        3
 91
        2
300
_DATA
309
CELLSTYLE_END
  0
XRECORD
  5
B806
102
{ACAD_REACTORS
330
AB8E
102
}
330
AB8E
100
AcDbXrecord
280
     1
102
ACAD_ROUNDTRIP_PRE2007_TABLESTYLE
 90
      512
 91
        0
  1

 92
      512
 93
        0
  2

 94
      512
 95
        0
  3

  0
ENDSEC
  0
EOF
