  0
SECTION
  2
HEADER
  9
$ACADVER
  1
AC1015
  9
$ACADMAINTVER
 70
     6
  9
$DWGCODEPAGE
  3
ANSI_1252
  9
$INSBASE
 10
0.0
 20
0.0
 30
0.0
  9
$EXTMIN
 10
-125.0399997640506
 20
-163.1394882161285
 30
-0.0000000000000158
  9
$EXTMAX
 10
102.586758466482
 20
97.46269745520841
 30
0.0000000000000147
  9
$LIMMIN
 10
-66.34999999999982
 20
-2008.85
  9
$LIMMAX
 10
3734.350000000001
 20
346.85
  9
$ORTHOMODE
 70
     0
  9
$REGENMODE
 70
     1
  9
$FILLMODE
 70
     1
  9
$QTEXTMODE
 70
     0
  9
$MIRRTEXT
 70
     1
  9
$LTSCALE
 40
10.0
  9
$ATTMODE
 70
     1
  9
$TEXTSIZE
 40
0.2
  9
$TRACEWID
 40
0.05
  9
$TEXTSTYLE
  7
Standard
  9
$CLAYER
  8
0
  9
$CELTYPE
  6
Continuous
  9
$CECOLOR
 62
   256
  9
$CELTSCALE
 40
1.0
  9
$DISPSILH
 70
     0
  9
$DIMSCALE
 40
1.0
  9
$DIMASZ
 40
1.25
  9
$DIMEXO
 40
0.0
  9
$DIMDLI
 40
0.38
  9
$DIMRND
 40
0.0
  9
$DIMDLE
 40
0.0
  9
$DIMEXE
 40
0.75
  9
$DIMTP
 40
0.0
  9
$DIMTM
 40
0.0
  9
$DIMTXT
 40
2.5
  9
$DIMCEN
 40
0.09
  9
$DIMTSZ
 40
0.0
  9
$DIMTOL
 70
     0
  9
$DIMLIM
 70
     0
  9
$DIMTIH
 70
     0
  9
$DIMTOH
 70
     0
  9
$DIMSE1
 70
     0
  9
$DIMSE2
 70
     0
  9
$DIMTAD
 70
     1
  9
$DIMZIN
 70
     0
  9
$DIMBLK
  1

  9
$DIMASO
 70
     1
  9
$DIMSHO
 70
     1
  9
$DIMPOST
  1

  9
$DIMAPOST
  1

  9
$DIMALT
 70
     0
  9
$DIMALTD
 70
     2
  9
$DIMALTF
 40
25.4
  9
$DIMLFAC
 40
1.0
  9
$DIMTOFL
 70
     0
  9
$DIMTVP
 40
0.0
  9
$DIMTIX
 70
     0
  9
$DIMSOXD
 70
     0
  9
$DIMSAH
 70
     0
  9
$DIMBLK1
  1

  9
$DIMBLK2
  1

  9
$DIMSTYLE
  2
Standard
  9
$DIMCLRD
 70
     7
  9
$DIMCLRE
 70
     7
  9
$DIMCLRT
 70
     7
  9
$DIMTFAC
 40
0.8
  9
$DIMGAP
 40
1.25
  9
$DIMJUST
 70
     0
  9
$DIMSD1
 70
     0
  9
$DIMSD2
 70
     0
  9
$DIMTOLJ
 70
     1
  9
$DIMTZIN
 70
     0
  9
$DIMALTZ
 70
     0
  9
$DIMALTTZ
 70
     0
  9
$DIMUPT
 70
     0
  9
$DIMDEC
 70
     2
  9
$DIMTDEC
 70
     4
  9
$DIMALTU
 70
     2
  9
$DIMALTTD
 70
     2
  9
$DIMTXSTY
  7
Standard
  9
$DIMAUNIT
 70
     0
  9
$DIMADEC
 70
     0
  9
$DIMALTRND
 40
0.0
  9
$DIMAZIN
 70
     0
  9
$DIMDSEP
 70
     0
  9
$DIMATFIT
 70
     3
  9
$DIMFRAC
 70
     0
  9
$DIMLDRBLK
  1

  9
$DIMLUNIT
 70
     2
  9
$DIMLWD
 70
     0
  9
$DIMLWE
 70
     0
  9
$DIMTMOVE
 70
     0
  9
$LUNITS
 70
     2
  9
$LUPREC
 70
     4
  9
$SKETCHINC
 40
0.1
  9
$FILLETRAD
 40
0.0
  9
$AUNITS
 70
     0
  9
$AUPREC
 70
     0
  9
$MENU
  1
acad
  9
$ELEVATION
 40
0.0
  9
$PELEVATION
 40
0.0
  9
$THICKNESS
 40
0.0
  9
$LIMCHECK
 70
     0
  9
$CHAMFERA
 40
0.0
  9
$CHAMFERB
 40
0.0
  9
$CHAMFERC
 40
0.0
  9
$CHAMFERD
 40
0.0
  9
$SKPOLY
 70
     0
  9
$TDCREATE
 40
2455303.727916667
  9
$TDUCREATE
 40
2455303.644583333
  9
$TDUPDATE
 40
2455306.431187917
  9
$TDUUPDATE
 40
2455306.347854584
  9
$TDINDWG
 40
0.0288028356
  9
$TDUSRTIMER
 40
2455827.301698021
  9
$USRTIMER
 70
     1
  9
$ANGBASE
 50
0.0
  9
$ANGDIR
 70
     0
  9
$PDMODE
 70
     0
  9
$PDSIZE
 40
0.0
  9
$PLINEWID
 40
0.0
  9
$SPLFRAME
 70
     0
  9
$SPLINETYPE
 70
     6
  9
$SPLINESEGS
 70
     8
  9
$HANDSEED
  5
6A7D
  9
$SURFTAB1
 70
     6
  9
$SURFTAB2
 70
     6
  9
$SURFTYPE
 70
     6
  9
$SURFU
 70
     6
  9
$SURFV
 70
     6
  9
$UCSBASE
  2

  9
$UCSNAME
  2

  9
$UCSORG
 10
0.0
 20
0.0
 30
0.0
  9
$UCSXDIR
 10
1.0
 20
0.0
 30
0.0
  9
$UCSYDIR
 10
0.0
 20
1.0
 30
0.0
  9
$UCSORTHOREF
  2

  9
$UCSORTHOVIEW
 70
     0
  9
$UCSORGTOP
 10
0.0
 20
0.0
 30
0.0
  9
$UCSORGBOTTOM
 10
0.0
 20
0.0
 30
0.0
  9
$UCSORGLEFT
 10
0.0
 20
0.0
 30
0.0
  9
$UCSORGRIGHT
 10
0.0
 20
0.0
 30
0.0
  9
$UCSORGFRONT
 10
0.0
 20
0.0
 30
0.0
  9
$UCSORGBACK
 10
0.0
 20
0.0
 30
0.0
  9
$PUCSBASE
  2

  9
$PUCSNAME
  2

  9
$PUCSORG
 10
0.0
 20
0.0
 30
0.0
  9
$PUCSXDIR
 10
1.0
 20
0.0
 30
0.0
  9
$PUCSYDIR
 10
0.0
 20
1.0
 30
0.0
  9
$PUCSORTHOREF
  2

  9
$PUCSORTHOVIEW
 70
     0
  9
$PUCSORGTOP
 10
0.0
 20
0.0
 30
0.0
  9
$PUCSORGBOTTOM
 10
0.0
 20
0.0
 30
0.0
  9
$PUCSORGLEFT
 10
0.0
 20
0.0
 30
0.0
  9
$PUCSORGRIGHT
 10
0.0
 20
0.0
 30
0.0
  9
$PUCSORGFRONT
 10
0.0
 20
0.0
 30
0.0
  9
$PUCSORGBACK
 10
0.0
 20
0.0
 30
0.0
  9
$USERI1
 70
     0
  9
$USERI2
 70
     0
  9
$USERI3
 70
     0
  9
$USERI4
 70
     0
  9
$USERI5
 70
     0
  9
$USERR1
 40
0.0
  9
$USERR2
 40
0.0
  9
$USERR3
 40
0.0
  9
$USERR4
 40
0.0
  9
$USERR5
 40
0.0
  9
$WORLDVIEW
 70
     1
  9
$SHADEDGE
 70
     3
  9
$SHADEDIF
 70
    70
  9
$TILEMODE
 70
     1
  9
$MAXACTVP
 70
    16
  9
$PINSBASE
 10
0.0
 20
0.0
 30
0.0
  9
$PLIMCHECK
 70
     0
  9
$PEXTMIN
 10
1.000000000000000E+20
 20
1.000000000000000E+20
 30
1.000000000000000E+20
  9
$PEXTMAX
 10
-1.000000000000000E+20
 20
-1.000000000000000E+20
 30
-1.000000000000000E+20
  9
$PLIMMIN
 10
0.0
 20
0.0
  9
$PLIMMAX
 10
12.0
 20
9.0
  9
$UNITMODE
 70
     0
  9
$VISRETAIN
 70
     0
  9
$PLINEGEN
 70
     1
  9
$PSLTSCALE
 70
     0
  9
$TREEDEPTH
 70
  3020
  9
$CMLSTYLE
  2
Standard
  9
$CMLJUST
 70
     0
  9
$CMLSCALE
 40
1.0
  9
$PROXYGRAPHICS
 70
     0
  9
$MEASUREMENT
 70
     1
  9
$CELWEIGHT
370
     0
  9
$ENDCAPS
280
     0
  9
$JOINSTYLE
280
     0
  9
$LWDISPLAY
290
     0
  9
$INSUNITS
 70
     0
  9
$HYPERLINKBASE
  1

  9
$STYLESHEET
  1

  9
$XEDIT
290
     1
  9
$CEPSNTYPE
380
     0
  9
$PSTYLEMODE
290
     1
  9
$FINGERPRINTGUID
  2

  9
$VERSIONGUID
  2
{47131DF3-2BD9-46ED-8C0C-633B044B28EB}
  9
$EXTNAMES
290
     1
  9
$PSVPSCALE
 40
0.0
  9
$OLESTARTUP
290
     0
  0
ENDSEC
  0
SECTION
  2
CLASSES
  0
CLASS
  1
IMAGE
  2
AcDbRasterImage
  3
ISM
 90
      127
280
     0
281
     1
  0
CLASS
  1
DICTIONARYVAR
  2
AcDbDictionaryVar
  3
ObjectDBX Classes
 90
        0
280
     0
281
     0
  0
CLASS
  1
RASTERVARIABLES
  2
AcDbRasterVariables
  3
ISM
 90
        0
280
     0
281
     0
  0
CLASS
  1
IMAGEDEF
  2
AcDbRasterImageDef
  3
ISM
 90
        0
280
     0
281
     0
  0
CLASS
  1
IMAGEDEF_REACTOR
  2
AcDbRasterImageDefReactor
  3
ISM
 90
        1
280
     0
281
     0
  0
CLASS
  1
IDBUFFER
  2
AcDbIdBuffer
  3
ObjectDBX Classes
 90
        0
280
     0
281
     0
  0
CLASS
  1
SPATIAL_FILTER
  2
AcDbSpatialFilter
  3
ObjectDBX Classes
 90
        0
280
     0
281
     0
  0
CLASS
  1
SORTENTSTABLE
  2
AcDbSortentsTable
  3
ObjectDBX Classes
 90
        0
280
     0
281
     0
  0
CLASS
  1
LAYER_INDEX
  2
AcDbLayerIndex
  3
ObjectDBX Classes
 90
        0
280
     0
281
     0
  0
CLASS
  1
SPATIAL_INDEX
  2
AcDbSpatialIndex
  3
AutoCAD 2000
 90
        0
280
     0
281
     0
  0
CLASS
  1
OBJECT_PTR
  2
CAseDLPNTableRecord
  3
ASE-LPNTableRecord
 90
        1
280
     0
281
     0
  0
CLASS
  1
LAYOUT
  2
AcDbLayout
  3
ObjectDBX Classes
 90
        0
280
     0
281
     0
  0
CLASS
  1
PLOTSETTINGS
  2
AcDbPlotSettings
  3
ObjectDBX Classes
 90
        0
280
     0
281
     0
  0
CLASS
  1
ACDBDICTIONARYWDFLT
  2
AcDbDictionaryWithDefault
  3
ObjectDBX Classes
 90
        0
280
     0
281
     0
  0
CLASS
  1
ACDBPLACEHOLDER
  2
AcDbPlaceHolder
  3
ObjectDBX Classes
 90
        0
280
     0
281
     0
  0
CLASS
  1
VBA_PROJECT
  2
AcDbVbaProject
  3
ObjectDBX Classes
 90
        0
280
     0
281
     0
  0
CLASS
  1
WIPEOUT
  2
AcDbWipeout
  3
WipeOut|AutoCAD Express Tool|expresstools@autodesk.com
 90
      127
280
     0
281
     1
  0
CLASS
  1
WIPEOUTVARIABLES
  2
AcDbWipeoutVariables
  3
WipeOut|AutoCAD Express Tool|expresstools@autodesk.com
 90
        0
280
     0
281
     0
  0
CLASS
  1
RTEXT
  2
RText
  3
RText|AutoCAD Express Tool|expresstools@autodesk.com
 90
        0
280
     0
281
     1
  0
CLASS
  1
ARCALIGNEDTEXT
  2
AcDbArcAlignedText
  3
ATEXT|AutoCAD Express Tool|expresstools@autodesk.com
 90
        0
280
     0
281
     1
  0
CLASS
  1
MATERIAL
  2
AcDbMaterial
  3
ObjectDBX Classes
 90
     1153
280
     0
281
     0
  0
CLASS
  1
VISUALSTYLE
  2
AcDbVisualStyle
  3
ObjectDBX Classes
 90
     4095
280
     0
281
     0
  0
CLASS
  1
TABLESTYLE
  2
AcDbTableStyle
  3
ObjectDBX Classes
 90
     4095
280
     0
281
     0
  0
CLASS
  1
SCALE
  2
AcDbScale
  3
ObjectDBX Classes
 90
     1153
280
     0
281
     0
  0
CLASS
  1
MLEADERSTYLE
  2
AcDbMLeaderStyle
  3
ACDB_MLEADERSTYLE_CLASS
 90
     4095
280
     0
281
     0
  0
CLASS
  1
CELLSTYLEMAP
  2
AcDbCellStyleMap
  3
ObjectDBX Classes
 90
     1152
280
     0
281
     0
  0
ENDSEC
  0
SECTION
  2
TABLES
  0
TABLE
  2
VPORT
  5
7
330
0
100
AcDbSymbolTable
 70
     1
  0
VPORT
  5
15
330
7
100
AcDbSymbolTableRecord
100
AcDbViewportTableRecord
  2
*ACTIVE
 70
     0
 10
0.0
 20
0.0
 11
1.0
 21
1.0
 12
39.84902962474177
 22
12.93643643350003
 13
0.0
 23
0.0
 14
1.0
 24
1.0
 15
0.0
 25
0.0
 16
0.0
 26
0.0
 36
1.0
 17
0.0
 27
0.0
 37
0.0
 40
231.3265863053922
 41
1.509293680297398
 42
50.0
 43
0.0
 44
0.0
 50
0.0
 51
0.0
 71
    16
 72
   100
 73
     1
 74
     1
 75
     0
 76
     1
 77
     0
 78
     0
281
     0
 65
     0
110
0.0
120
0.0
130
0.0
111
1.0
121
0.0
131
0.0
112
0.0
122
1.0
132
0.0
 79
     0
146
0.0
  0
ENDTAB
  0
TABLE
  2
LTYPE
  5
4
330
0
100
AcDbSymbolTable
 70
     5
  0
LTYPE
  5
11
330
4
100
AcDbSymbolTableRecord
100
AcDbLinetypeTableRecord
  2
ByBlock
 70
     0
  3

 72
    65
 73
     0
 40
0.0
  0
LTYPE
  5
12
330
4
100
AcDbSymbolTableRecord
100
AcDbLinetypeTableRecord
  2
ByLayer
 70
     0
  3

 72
    65
 73
     0
 40
0.0
  0
LTYPE
  5
13
330
4
100
AcDbSymbolTableRecord
100
AcDbLinetypeTableRecord
  2
Continuous
 70
     0
  3
Solid line
 72
    65
 73
     0
 40
0.0
  0
LTYPE
  5
1E4
330
4
100
AcDbSymbolTableRecord
100
AcDbLinetypeTableRecord
  2
CENTER
 70
     0
  3
____ _ ____ _ ____ _ ____ _ ____ _ ____ _ ____
 72
    65
 73
     4
 40
2.0
 49
1.25
 74
     0
 49
-0.25
 74
     0
 49
0.25
 74
     0
 49
-0.25
 74
     0
  0
LTYPE
  5
6407
330
4
100
AcDbSymbolTableRecord
100
AcDbLinetypeTableRecord
  2
________________
 70
     0
  3

 72
    65
 73
     0
 40
0.0
  0
LTYPE
  5
6415
330
4
100
AcDbSymbolTableRecord
100
AcDbLinetypeTableRecord
  2
_..__..__..__.._
 70
     0
  3

 72
    65
 73
     2
 40
1.8
 49
0.8999999999999999
 74
     0
 49
-0.8999999999999999
 74
     0
  0
LTYPE
  5
6490
330
4
100
AcDbSymbolTableRecord
100
AcDbLinetypeTableRecord
  2
______....__....
 70
     0
  3

 72
    65
 73
     4
 40
7.2
 49
2.7
 74
     0
 49
-1.8
 74
     0
 49
0.8999999999999999
 74
     0
 49
-1.8
 74
     0
  0
ENDTAB
  0
TABLE
  2
LAYER
  5
2
330
0
100
AcDbSymbolTable
 70
     2
  0
LAYER
  5
14
102
{ACAD_XDICTIONARY
360
5E41
102
}
330
2
100
AcDbSymbolTableRecord
100
AcDbLayerTableRecord
  2
0
 70
     0
 62
     7
  6
Continuous
370
    -3
390
1D
  0
LAYER
  5
6402
330
2
100
AcDbSymbolTableRecord
100
AcDbLayerTableRecord
  2
Defpoints
 70
     0
 62
     7
  6
Continuous
290
     0
370
    -3
390
1D
  0
ENDTAB
  0
TABLE
  2
STYLE
  5
3
330
0
100
AcDbSymbolTable
 70
     1
  0
STYLE
  5
17
330
3
100
AcDbSymbolTableRecord
100
AcDbTextStyleTableRecord
  2
Standard
 70
     0
 40
0.0
 41
1.0
 50
0.0
 71
     0
 42
0.0
  3
I011000D.TTF
  4

1001
ACAD
1000
IsonormD
1071
        0
  0
ENDTAB
  0
TABLE
  2
VIEW
  5
5
330
0
100
AcDbSymbolTable
 70
     0
  0
ENDTAB
  0
TABLE
  2
UCS
  5
6
330
0
100
AcDbSymbolTable
 70
     0
  0
ENDTAB
  0
TABLE
  2
APPID
  5
8
330
0
100
AcDbSymbolTable
 70
     6
  0
APPID
  5
16
330
8
100
AcDbSymbolTableRecord
100
AcDbRegAppTableRecord
  2
ACAD
 70
     0
  0
APPID
  5
26
330
8
100
AcDbSymbolTableRecord
100
AcDbRegAppTableRecord
  2
TopSolid'Draft
 70
     0
  0
APPID
  5
319D
330
8
100
AcDbSymbolTableRecord
100
AcDbRegAppTableRecord
  2
ACAD_MLEADERVER
 70
     0
  0
APPID
  5
5E45
330
8
100
AcDbSymbolTableRecord
100
AcDbRegAppTableRecord
  2
DCO15
 70
     0
  0
APPID
  5
6333
330
8
100
AcDbSymbolTableRecord
100
AcDbRegAppTableRecord
  2
ACAD_EXEMPT_FROM_CAD_STANDARDS
 70
     0
  0
APPID
  5
6A52
330
8
100
AcDbSymbolTableRecord
100
AcDbRegAppTableRecord
  2
ACAD_DSTYLE_DIMRADIAL_EXTENSION
 70
     0
  0
ENDTAB
  0
TABLE
  2
DIMSTYLE
  5
9
330
0
100
AcDbSymbolTable
 70
     1
100
AcDbDimStyleTable
  0
DIMSTYLE
105
18
102
{ACAD_REACTORS
102
}
330
9
100
AcDbSymbolTableRecord
100
AcDbDimStyleTableRecord
  2
Standard
 70
     0
 41
1.25
 42
0.0
 44
0.75
 73
     0
 74
     0
 77
     1
140
2.5
146
0.8
147
1.25
176
     7
177
     7
178
     7
271
     2
340
17
  0
ENDTAB
  0
TABLE
  2
BLOCK_RECORD
  5
1
330
0
100
AcDbSymbolTable
 70
     8
  0
BLOCK_RECORD
  5
A
102
{ACAD_XDICTIONARY
360
31A7
102
}
330
1
100
AcDbSymbolTableRecord
100
AcDbBlockTableRecord
  2
*MODEL_SPACE
340
20
  0
BLOCK_RECORD
  5
B
330
1
100
AcDbSymbolTableRecord
100
AcDbBlockTableRecord
  2
*PAPER_SPACE
340
21
  0
BLOCK_RECORD
  5
6404
330
1
100
AcDbSymbolTableRecord
100
AcDbBlockTableRecord
  2
D_FRAME_DRAWING@15
340
0
102
{BLKREFS
331
0
102
}
  0
BLOCK_RECORD
  5
6412
330
1
100
AcDbSymbolTableRecord
100
AcDbBlockTableRecord
  2
D_FRAME_VIEW@403
340
0
102
{BLKREFS
331
0
102
}
  0
BLOCK_RECORD
  5
6494
330
1
100
AcDbSymbolTableRecord
100
AcDbBlockTableRecord
  2
D_FRAME_VIEW@460
340
0
102
{BLKREFS
331
0
102
}
  0
BLOCK_RECORD
  5
64F0
330
1
100
AcDbSymbolTableRecord
100
AcDbBlockTableRecord
  2
*D3
340
0
  0
BLOCK_RECORD
  5
64FE
330
1
100
AcDbSymbolTableRecord
100
AcDbBlockTableRecord
  2
D_FRAME_VIEW@413
340
0
102
{BLKREFS
331
0
102
}
  0
BLOCK_RECORD
  5
668C
330
1
100
AcDbSymbolTableRecord
100
AcDbBlockTableRecord
  2
D_FRAME_VIEW@415
340
0
102
{BLKREFS
331
0
102
}
  0
BLOCK_RECORD
  5
6724
330
1
100
AcDbSymbolTableRecord
100
AcDbBlockTableRecord
  2
D_FRAME_VIEW@454
340
0
102
{BLKREFS
331
0
102
}
  0
BLOCK_RECORD
  5
6A54
330
1
100
AcDbSymbolTableRecord
100
AcDbBlockTableRecord
  2
*D7
340
0
  0
ENDTAB
  0
ENDSEC
  0
SECTION
  2
BLOCKS
  0
BLOCK
  5
D
330
A
100
AcDbEntity
  8
0
100
AcDbBlockBegin
  2
*MODEL_SPACE
 70
     0
 10
0.0
 20
0.0
 30
0.0
  3
*MODEL_SPACE
  1

  0
ENDBLK
  5
E
330
A
100
AcDbEntity
  8
0
100
AcDbBlockEnd
  0
BLOCK
  5
F
330
B
100
AcDbEntity
 67
     1
  8
0
100
AcDbBlockBegin
  2
*PAPER_SPACE
 70
     0
 10
0.0
 20
0.0
 30
0.0
  3
*PAPER_SPACE
  1

  0
ENDBLK
  5
10
330
B
100
AcDbEntity
 67
     1
  8
0
100
AcDbBlockEnd
  0
BLOCK
  5
6405
330
6404
100
AcDbEntity
  8
0
100
AcDbBlockBegin
  2
D_FRAME_DRAWING@15
 70
     0
 10
0.0
 20
0.0
 30
0.0
  3
D_FRAME_DRAWING@15
  1

  0
LINE
  5
6406
330
6404
100
AcDbEntity
  8
0
  6
________________
 62
     7
370
     9
100
AcDbLine
 10
0.0
 20
0.0
 30
0.0
 11
210.0
 21
0.0
 31
0.0
  0
LINE
  5
6408
330
6404
100
AcDbEntity
  8
0
  6
________________
 62
     7
370
     9
100
AcDbLine
 10
210.0
 20
0.0
 30
0.0
 11
210.0
 21
297.0
 31
0.0
  0
LINE
  5
6409
330
6404
100
AcDbEntity
  8
0
  6
________________
 62
     7
370
     9
100
AcDbLine
 10
210.0
 20
297.0
 30
0.0
 11
0.0
 21
297.0
 31
0.0
  0
LINE
  5
640A
330
6404
100
AcDbEntity
  8
0
  6
________________
 62
     7
370
     9
100
AcDbLine
 10
0.0
 20
297.0
 30
0.0
 11
0.0
 21
0.0
 31
0.0
  0
LINE
  5
640B
330
6404
100
AcDbEntity
  8
0
  6
________________
 62
     7
370
     9
100
AcDbLine
 10
5.0
 20
5.0
 30
0.0
 11
204.9999999999999
 21
5.0
 31
0.0
  0
LINE
  5
640C
330
6404
100
AcDbEntity
  8
0
  6
________________
 62
     7
370
     9
100
AcDbLine
 10
205.0
 20
5.0
 30
0.0
 11
205.0
 21
292.0
 31
0.0
  0
LINE
  5
640D
330
6404
100
AcDbEntity
  8
0
  6
________________
 62
     7
370
     9
100
AcDbLine
 10
205.0
 20
292.0
 30
0.0
 11
5.000000000000032
 21
292.0
 31
0.0
  0
LINE
  5
640E
330
6404
100
AcDbEntity
  8
0
  6
________________
 62
     7
370
     9
100
AcDbLine
 10
5.0
 20
292.0
 30
0.0
 11
5.0
 21
5.000000000000004
 31
0.0
  0
ENDBLK
  5
640F
330
6404
100
AcDbEntity
  8
0
100
AcDbBlockEnd
  0
BLOCK
  5
6413
330
6412
100
AcDbEntity
  8
0
100
AcDbBlockBegin
  2
D_FRAME_VIEW@403
 70
     0
 10
0.0
 20
0.0
 30
0.0
  3
D_FRAME_VIEW@403
  1

  0
ARC
  5
6414
330
6412
100
AcDbEntity
  8
0
  6
_..__..__..__.._
 62
   253
370
     9
100
AcDbCircle
 10
-72.49999999999999
 20
160.5
 30
0.0
 40
3.000000000000003
210
0.0
220
0.0
230
-1.0
100
AcDbArc
 50
0.0
 51
269.9999999999999
  0
ARC
  5
6416
330
6412
100
AcDbEntity
  8
0
  6
_..__..__..__.._
 62
   253
370
     9
100
AcDbCircle
 10
-72.49999999999999
 20
250.5
 30
0.0
 40
3.000000000000003
210
0.0
220
0.0
230
-1.0
100
AcDbArc
 50
0.0
 51
270.0
  0
ARC
  5
6417
330
6412
100
AcDbEntity
  8
0
  6
_..__..__..__.._
 62
   253
370
     9
100
AcDbCircle
 10
72.49999999999999
 20
160.5
 30
0.0
 40
3.000000000000003
100
AcDbArc
 50
180.0
 51
270.0
  0
ARC
  5
6418
330
6412
100
AcDbEntity
  8
0
  6
_..__..__..__.._
 62
   253
370
     9
100
AcDbCircle
 10
72.49999999999999
 20
160.5
 30
0.0
 40
5.999999999999988
100
AcDbArc
 50
34.41150866976899
 51
145.588491330231
  0
LINE
  5
6419
330
6412
100
AcDbEntity
  8
0
  6
_..__..__..__.._
 62
   253
370
     9
100
AcDbLine
 10
77.44999999999986
 20
163.8907963666371
 30
0.0
 11
77.44999999999986
 21
157.1092036333629
 31
0.0
  0
ARC
  5
641A
330
6412
100
AcDbEntity
  8
0
  6
_..__..__..__.._
 62
   253
370
     9
100
AcDbCircle
 10
72.49999999999999
 20
160.5
 30
0.0
 40
6.000000000000016
100
AcDbArc
 50
214.411508669769
 51
325.588491330231
  0
LINE
  5
641B
330
6412
100
AcDbEntity
  8
0
  6
_..__..__..__.._
 62
   253
370
     9
100
AcDbLine
 10
67.55000000000008
 20
157.1092036333629
 30
0.0
 11
67.55000000000008
 21
163.8907963666371
 31
0.0
  0
ARC
  5
641C
330
6412
100
AcDbEntity
  8
0
  6
_..__..__..__.._
 62
   253
370
     9
100
AcDbCircle
 10
72.49999999999999
 20
160.5
 30
0.0
 40
5.999999999999999
100
AcDbArc
 50
145.588491330231
 51
214.411508669769
  0
ARC
  5
641D
330
6412
100
AcDbEntity
  8
0
  6
_..__..__..__.._
 62
   253
370
     9
100
AcDbCircle
 10
72.49999999999999
 20
160.5
 30
0.0
 40
5.999999999999992
100
AcDbArc
 50
325.588491330231
 51
34.41150866976903
  0
CIRCLE
  5
641E
330
6412
100
AcDbEntity
  8
0
  6
_..__..__..__.._
 62
   253
370
     9
100
AcDbCircle
 10
-72.49999999999999
 20
160.5
 30
0.0
 40
4.99999999999938
210
0.0
220
0.0
230
-1.0
  0
ARC
  5
641F
330
6412
100
AcDbEntity
  8
0
  6
_..__..__..__.._
 62
   253
370
     9
100
AcDbCircle
 10
72.49999999999999
 20
250.5
 30
0.0
 40
3.000000000000003
100
AcDbArc
 50
180.0
 51
270.0
  0
ARC
  5
6420
330
6412
100
AcDbEntity
  8
0
  6
_..__..__..__.._
 62
   253
370
     9
100
AcDbCircle
 10
72.49999999999999
 20
250.5
 30
0.0
 40
6.0
100
AcDbArc
 50
34.41150866976615
 51
145.5884913302338
  0
LINE
  5
6421
330
6412
100
AcDbEntity
  8
0
  6
_..__..__..__.._
 62
   253
370
     9
100
AcDbLine
 10
77.44999999999914
 20
253.8907963666362
 30
0.0
 11
77.44999999999914
 21
247.1092036333638
 31
0.0
  0
ARC
  5
6422
330
6412
100
AcDbEntity
  8
0
  6
_..__..__..__.._
 62
   253
370
     9
100
AcDbCircle
 10
72.49999999999999
 20
250.5
 30
0.0
 40
5.999999999999996
100
AcDbArc
 50
214.4115086697661
 51
325.5884913302338
  0
LINE
  5
6423
330
6412
100
AcDbEntity
  8
0
  6
_..__..__..__.._
 62
   253
370
     9
100
AcDbLine
 10
67.55000000000081
 20
247.1092036333638
 30
0.0
 11
67.55000000000081
 21
253.8907963666362
 31
0.0
  0
ARC
  5
6424
330
6412
100
AcDbEntity
  8
0
  6
_..__..__..__.._
 62
   253
370
     9
100
AcDbCircle
 10
72.49999999999999
 20
250.5
 30
0.0
 40
5.999999999999988
100
AcDbArc
 50
325.5884913302338
 51
34.41150866976619
  0
ARC
  5
6425
330
6412
100
AcDbEntity
  8
0
  6
_..__..__..__.._
 62
   253
370
     9
100
AcDbCircle
 10
72.49999999999999
 20
250.5
 30
0.0
 40
6.000000000000012
100
AcDbArc
 50
145.5884913302339
 51
214.4115086697662
  0
CIRCLE
  5
6426
330
6412
100
AcDbEntity
  8
0
  6
_..__..__..__.._
 62
   253
370
     9
100
AcDbCircle
 10
-72.49999999999999
 20
250.5
 30
0.0
 40
4.99999999999999
210
0.0
220
0.0
230
-1.0
  0
LINE
  5
6427
330
6412
100
AcDbEntity
  8
0
  6
_..__..__..__.._
 62
   253
370
     9
100
AcDbLine
 10
72.50000000012673
 20
163.500000000106
 30
0.0
 11
72.35421776939629
 21
163.4964558301262
 31
0.0
  0
CIRCLE
  5
6428
330
6412
100
AcDbEntity
  8
0
  6
_..__..__..__.._
 62
   253
370
     9
100
AcDbCircle
 10
-72.50000000009877
 20
160.4999999999328
 30
0.0
 40
5.649999999999988
210
0.0
220
0.0
230
-1.0
  0
LINE
  5
6429
330
6412
100
AcDbEntity
  8
0
  6
_..__..__..__.._
 62
   253
370
     9
100
AcDbLine
 10
75.62580649415432
 20
159.7999999996625
 30
0.0
 11
73.86548322440025
 21
159.7999999999082
 31
0.0
  0
LINE
  5
642A
330
6412
100
AcDbEntity
  8
0
  6
_..__..__..__.._
 62
   253
370
     9
100
AcDbLine
 10
73.19999999994941
 20
157.3741935057849
 30
0.0
 11
73.19999999993998
 21
159.1345167755372
 31
0.0
  0
LINE
  5
642B
330
6412
100
AcDbEntity
  8
0
  6
_..__..__..__.._
 62
   253
370
     9
100
AcDbLine
 10
73.19999999998467
 20
159.7999999999528
 30
0.0
 11
73.19999999993998
 21
159.1345167755372
 31
0.0
  0
LINE
  5
642C
330
6412
100
AcDbEntity
  8
0
  6
_..__..__..__.._
 62
   253
370
     9
100
AcDbLine
 10
73.86548322440025
 20
159.7999999999082
 30
0.0
 11
73.19999999998467
 21
159.7999999999528
 31
0.0
  0
ARC
  5
642D
330
6412
100
AcDbEntity
  8
0
  6
_..__..__..__.._
 62
   253
370
     9
100
AcDbCircle
 10
-72.50000000003163
 20
160.4999999999998
 30
0.0
 40
1.53445248742356
210
0.0
220
0.0
230
-1.0
100
AcDbArc
 50
242.8585518038115
 51
297.1414482038795
  0
ARC
  5
642E
330
6412
100
AcDbEntity
  8
0
  6
_..__..__..__.._
 62
   253
370
     9
100
AcDbCircle
 10
-72.50000000003163
 20
160.4999999999998
 30
0.0
 40
1.534452487423579
210
0.0
220
0.0
230
-1.0
100
AcDbArc
 50
152.8585518038115
 51
207.1414482038799
  0
LINE
  5
642F
330
6412
100
AcDbEntity
  8
0
  6
_..__..__..__.._
 62
   253
370
     9
100
AcDbLine
 10
73.20000000007862
 20
161.1999999999528
 30
0.0
 11
73.86548322449421
 21
161.1999999999082
 31
0.0
  0
LINE
  5
6430
330
6412
100
AcDbEntity
  8
0
  6
_..__..__..__.._
 62
   253
370
     9
100
AcDbLine
 10
75.62580649424672
 20
161.1999999996626
 30
0.0
 11
73.86548322449421
 21
161.1999999999082
 31
0.0
  0
LINE
  5
6431
330
6412
100
AcDbEntity
  8
0
  6
_..__..__..__.._
 62
   253
370
     9
100
AcDbLine
 10
71.79999999994
 20
159.1345167756312
 30
0.0
 11
71.79999999998465
 21
159.8000000000468
 31
0.0
  0
LINE
  5
6432
330
6412
100
AcDbEntity
  8
0
  6
_..__..__..__.._
 62
   253
370
     9
100
AcDbLine
 10
71.79999999994942
 20
157.3741935058773
 30
0.0
 11
71.79999999994
 21
159.1345167756312
 31
0.0
  0
LINE
  5
6433
330
6412
100
AcDbEntity
  8
0
  6
_..__..__..__.._
 62
   253
370
     9
100
AcDbLine
 10
73.2000000001233
 20
161.8654832243684
 30
0.0
 11
73.20000000007862
 21
161.1999999999528
 31
0.0
  0
LINE
  5
6434
330
6412
100
AcDbEntity
  8
0
  6
_..__..__..__.._
 62
   253
370
     9
100
AcDbLine
 10
71.79999999998465
 20
159.8000000000468
 30
0.0
 11
71.13451677556905
 21
159.8000000000915
 31
0.0
  0
LINE
  5
6435
330
6412
100
AcDbEntity
  8
0
  6
_..__..__..__.._
 62
   253
370
     9
100
AcDbLine
 10
73.20000000036902
 20
163.6258064938675
 30
0.0
 11
73.2000000001233
 21
161.8654832243684
 31
0.0
  0
ARC
  5
6436
330
6412
100
AcDbEntity
  8
0
  6
_..__..__..__.._
 62
   253
370
     9
100
AcDbCircle
 10
-72.50000000003163
 20
160.4999999999998
 30
0.0
 40
1.534452487423585
210
0.0
220
0.0
230
-1.0
100
AcDbArc
 50
62.85855180381164
 51
117.14144820388
  0
LINE
  5
6437
330
6412
100
AcDbEntity
  8
0
  6
_..__..__..__.._
 62
   253
370
     9
100
AcDbLine
 10
69.37419350607169
 20
159.8000000000822
 30
0.0
 11
71.13451677556905
 21
159.8000000000915
 31
0.0
  0
ARC
  5
6438
330
6412
100
AcDbEntity
  8
0
  6
_..__..__..__.._
 62
   253
370
     9
100
AcDbCircle
 10
-72.50000000003163
 20
160.4999999999998
 30
0.0
 40
1.534452487423567
210
0.0
220
0.0
230
-1.0
100
AcDbArc
 50
332.8585518038114
 51
27.1414482038798
  0
LINE
  5
6439
330
6412
100
AcDbEntity
  8
0
  6
_..__..__..__.._
 62
   253
370
     9
100
AcDbLine
 10
69.3741935061641
 20
161.2000000000822
 30
0.0
 11
71.13451677566303
 21
161.2000000000914
 31
0.0
  0
LINE
  5
643A
330
6412
100
AcDbEntity
  8
0
  6
_..__..__..__.._
 62
   253
370
     9
100
AcDbLine
 10
71.13451677566303
 20
161.2000000000914
 30
0.0
 11
71.80000000007863
 21
161.2000000000468
 31
0.0
  0
LINE
  5
643B
330
6412
100
AcDbEntity
  8
0
  6
_..__..__..__.._
 62
   253
370
     9
100
AcDbLine
 10
71.80000000036901
 20
163.6258064939599
 30
0.0
 11
71.80000000012329
 21
161.8654832244624
 31
0.0
  0
LINE
  5
643C
330
6412
100
AcDbEntity
  8
0
  6
_..__..__..__.._
 62
   253
370
     9
100
AcDbLine
 10
71.80000000007863
 20
161.2000000000468
 30
0.0
 11
71.80000000012329
 21
161.8654832244624
 31
0.0
  0
ARC
  5
643D
330
6412
100
AcDbEntity
  8
0
  6
_..__..__..__.._
 62
   253
370
     9
100
AcDbCircle
 10
-72.50000000015922
 20
160.4999999998724
 30
0.0
 40
3.203227472126506
210
0.0
220
0.0
230
-1.0
100
AcDbArc
 50
347.3773163356162
 51
12.62268367206912
  0
ARC
  5
643E
330
6412
100
AcDbEntity
  8
0
  6
_..__..__..__.._
 62
   253
370
     9
100
AcDbCircle
 10
-72.50000000015922
 20
160.4999999998724
 30
0.0
 40
3.203227472126493
210
0.0
220
0.0
230
-1.0
100
AcDbArc
 50
77.37731633561606
 51
102.622683672069
  0
ARC
  5
643F
330
6412
100
AcDbEntity
  8
0
  6
_..__..__..__.._
 62
   253
370
     9
100
AcDbCircle
 10
-72.50000000015922
 20
160.4999999998724
 30
0.0
 40
3.203227472126493
210
0.0
220
0.0
230
-1.0
100
AcDbArc
 50
257.3773163356161
 51
282.622683672069
  0
ARC
  5
6440
330
6412
100
AcDbEntity
  8
0
  6
_..__..__..__.._
 62
   253
370
     9
100
AcDbCircle
 10
-72.50000000015922
 20
160.4999999998724
 30
0.0
 40
3.203227472126493
210
0.0
220
0.0
230
-1.0
100
AcDbArc
 50
167.377316335616
 51
192.6226836720691
  0
CIRCLE
  5
6441
330
6412
100
AcDbEntity
  8
0
  6
_..__..__..__.._
 62
   253
370
     9
100
AcDbCircle
 10
-72.50000000004977
 20
250.4999999998997
 30
0.0
 40
5.650000000000016
210
0.0
220
0.0
230
-1.0
  0
LINE
  5
6442
330
6412
100
AcDbEntity
  8
0
  6
_..__..__..__.._
 62
   253
370
     9
100
AcDbLine
 10
75.62580649410616
 20
249.7999999996288
 30
0.0
 11
73.86548322435038
 21
249.7999999998761
 31
0.0
  0
LINE
  5
6443
330
6412
100
AcDbEntity
  8
0
  6
_..__..__..__.._
 62
   253
370
     9
100
AcDbLine
 10
73.1999999999013
 20
247.374193505751
 30
0.0
 11
73.19999999989012
 21
249.1345167755051
 31
0.0
  0
LINE
  5
6444
330
6412
100
AcDbEntity
  8
0
  6
_..__..__..__.._
 62
   253
370
     9
100
AcDbLine
 10
73.19999999993479
 20
249.7999999999207
 30
0.0
 11
73.19999999989012
 21
249.1345167755051
 31
0.0
  0
LINE
  5
6445
330
6412
100
AcDbEntity
  8
0
  6
_..__..__..__.._
 62
   253
370
     9
100
AcDbLine
 10
73.86548322435038
 20
249.7999999998761
 30
0.0
 11
73.19999999993479
 21
249.7999999999207
 31
0.0
  0
ARC
  5
6446
330
6412
100
AcDbEntity
  8
0
  6
_..__..__..__.._
 62
   253
370
     9
100
AcDbCircle
 10
-72.49999999998177
 20
250.4999999999677
 30
0.0
 40
1.534452487423567
210
0.0
220
0.0
230
-1.0
100
AcDbArc
 50
242.8585518038105
 51
297.1414482038791
  0
ARC
  5
6447
330
6412
100
AcDbEntity
  8
0
  6
_..__..__..__.._
 62
   253
370
     9
100
AcDbCircle
 10
-72.49999999998177
 20
250.4999999999677
 30
0.0
 40
1.534452487423579
210
0.0
220
0.0
230
-1.0
100
AcDbArc
 50
152.8585518038105
 51
207.1414482038789
  0
LINE
  5
6448
330
6412
100
AcDbEntity
  8
0
  6
_..__..__..__.._
 62
   253
370
     9
100
AcDbLine
 10
73.20000000002874
 20
251.1999999999207
 30
0.0
 11
73.86548322444433
 21
251.1999999998761
 31
0.0
  0
LINE
  5
6449
330
6412
100
AcDbEntity
  8
0
  6
_..__..__..__.._
 62
   253
370
     9
100
AcDbLine
 10
75.62580649419856
 20
251.1999999996288
 30
0.0
 11
73.86548322444433
 21
251.1999999998761
 31
0.0
  0
LINE
  5
644A
330
6412
100
AcDbEntity
  8
0
  6
_..__..__..__.._
 62
   253
370
     9
100
AcDbLine
 10
71.79999999989013
 20
249.1345167755991
 30
0.0
 11
71.79999999993478
 21
249.8000000000146
 31
0.0
  0
LINE
  5
644B
330
6412
100
AcDbEntity
  8
0
  6
_..__..__..__.._
 62
   253
370
     9
100
AcDbLine
 10
71.7999999999013
 20
247.3741935058434
 30
0.0
 11
71.79999999989013
 21
249.1345167755991
 31
0.0
  0
LINE
  5
644C
330
6412
100
AcDbEntity
  8
0
  6
_..__..__..__.._
 62
   253
370
     9
100
AcDbLine
 10
73.2000000000734
 20
251.8654832243363
 30
0.0
 11
73.20000000002874
 21
251.1999999999207
 31
0.0
  0
LINE
  5
644D
330
6412
100
AcDbEntity
  8
0
  6
_..__..__..__.._
 62
   253
370
     9
100
AcDbLine
 10
71.79999999993478
 20
249.8000000000146
 30
0.0
 11
71.1345167755192
 21
249.8000000000593
 31
0.0
  0
LINE
  5
644E
330
6412
100
AcDbEntity
  8
0
  6
_..__..__..__.._
 62
   253
370
     9
100
AcDbLine
 10
73.2000000003208
 20
253.6258064938336
 30
0.0
 11
73.2000000000734
 21
251.8654832243363
 31
0.0
  0
ARC
  5
644F
330
6412
100
AcDbEntity
  8
0
  6
_..__..__..__.._
 62
   253
370
     9
100
AcDbCircle
 10
-72.49999999998177
 20
250.4999999999677
 30
0.0
 40
1.534452487423579
210
0.0
220
0.0
230
-1.0
100
AcDbArc
 50
62.85855180381037
 51
117.1414482038789
  0
LINE
  5
6450
330
6412
100
AcDbEntity
  8
0
  6
_..__..__..__.._
 62
   253
370
     9
100
AcDbLine
 10
69.37419350602356
 20
249.8000000000482
 30
0.0
 11
71.1345167755192
 21
249.8000000000593
 31
0.0
  0
ARC
  5
6451
330
6412
100
AcDbEntity
  8
0
  6
_..__..__..__.._
 62
   253
370
     9
100
AcDbCircle
 10
-72.49999999998177
 20
250.4999999999677
 30
0.0
 40
1.534452487423592
210
0.0
220
0.0
230
-1.0
100
AcDbArc
 50
332.8585518038106
 51
27.14144820387901
  0
LINE
  5
6452
330
6412
100
AcDbEntity
  8
0
  6
_..__..__..__.._
 62
   253
370
     9
100
AcDbLine
 10
71.80000000032081
 20
253.625806493926
 30
0.0
 11
71.80000000007338
 21
251.8654832244302
 31
0.0
  0
LINE
  5
6453
330
6412
100
AcDbEntity
  8
0
  6
_..__..__..__.._
 62
   253
370
     9
100
AcDbLine
 10
71.80000000002875
 20
251.2000000000146
 30
0.0
 11
71.80000000007338
 21
251.8654832244302
 31
0.0
  0
LINE
  5
6454
330
6412
100
AcDbEntity
  8
0
  6
_..__..__..__.._
 62
   253
370
     9
100
AcDbLine
 10
69.37419350611594
 20
251.2000000000483
 30
0.0
 11
71.13451677561315
 21
251.2000000000593
 31
0.0
  0
LINE
  5
6455
330
6412
100
AcDbEntity
  8
0
  6
_..__..__..__.._
 62
   253
370
     9
100
AcDbLine
 10
71.13451677561315
 20
251.2000000000593
 30
0.0
 11
71.80000000002875
 21
251.2000000000146
 31
0.0
  0
ARC
  5
6456
330
6412
100
AcDbEntity
  8
0
  6
_..__..__..__.._
 62
   253
370
     9
100
AcDbCircle
 10
-72.50000000011106
 20
250.4999999998385
 30
0.0
 40
3.203227472126505
210
0.0
220
0.0
230
-1.0
100
AcDbArc
 50
347.3773163356152
 51
12.62268367206815
  0
ARC
  5
6457
330
6412
100
AcDbEntity
  8
0
  6
_..__..__..__.._
 62
   253
370
     9
100
AcDbCircle
 10
-72.50000000011106
 20
250.4999999998385
 30
0.0
 40
3.203227472126505
210
0.0
220
0.0
230
-1.0
100
AcDbArc
 50
77.37731633561515
 51
102.6226836720681
  0
ARC
  5
6458
330
6412
100
AcDbEntity
  8
0
  6
_..__..__..__.._
 62
   253
370
     9
100
AcDbCircle
 10
-72.50000000011106
 20
250.4999999998385
 30
0.0
 40
3.203227472126502
210
0.0
220
0.0
230
-1.0
100
AcDbArc
 50
257.377316335615
 51
282.6226836720681
  0
ARC
  5
6459
330
6412
100
AcDbEntity
  8
0
  6
_..__..__..__.._
 62
   253
370
     9
100
AcDbCircle
 10
-72.50000000011106
 20
250.4999999998385
 30
0.0
 40
3.203227472126505
210
0.0
220
0.0
230
-1.0
100
AcDbArc
 50
167.3773163356151
 51
192.6226836720681
  0
CIRCLE
  5
645A
330
6412
100
AcDbEntity
  8
0
  6
_..__..__..__.._
 62
   253
370
     9
100
AcDbCircle
 10
72.49999999999999
 20
160.5000000000315
 30
0.0
 40
3.199999999999994
  0
CIRCLE
  5
645B
330
6412
100
AcDbEntity
  8
0
  6
_..__..__..__.._
 62
   253
370
     9
100
AcDbCircle
 10
72.49999999999999
 20
250.5
 30
0.0
 40
3.199999999999994
  0
CIRCLE
  5
645C
330
6412
100
AcDbEntity
  8
0
  6
_..__..__..__.._
 62
   253
370
     9
100
AcDbCircle
 10
72.49999999999999
 20
160.5000000000315
 30
0.0
 40
6.199999999999997
  0
CIRCLE
  5
645D
330
6412
100
AcDbEntity
  8
0
  6
_..__..__..__.._
 62
   253
370
     9
100
AcDbCircle
 10
72.49999999999999
 20
250.5
 30
0.0
 40
6.199999999999997
  0
LINE
  5
645E
330
6412
100
AcDbEntity
  8
0
  6
_..__..__..__.._
 62
   253
370
     9
100
AcDbLine
 10
90.99999999999994
 20
229.4999999999999
 30
0.0
 11
90.99999999999994
 21
181.5000000000001
 31
0.0
  0
ARC
  5
645F
330
6412
100
AcDbEntity
  8
0
  6
_..__..__..__.._
 62
   253
370
     9
100
AcDbCircle
 10
-83.99999999999996
 20
229.4999999999999
 30
0.0
 40
7.000000000000006
210
0.0
220
0.0
230
-1.0
100
AcDbArc
 50
90.00000000000006
 51
180.0
  0
ARC
  5
6460
330
6412
100
AcDbEntity
  8
0
  6
_..__..__..__.._
 62
   253
370
     9
100
AcDbCircle
 10
-83.99999999999996
 20
181.5000000000001
 30
0.0
 40
7.000000000000006
210
0.0
220
0.0
230
-1.0
100
AcDbArc
 50
180.0
 51
270.0000000000001
  0
ARC
  5
6461
330
6412
100
AcDbEntity
  8
0
  6
_..__..__..__.._
 62
   253
370
     9
100
AcDbCircle
 10
104.4999999999999
 20
262.4999999999998
 30
0.0
 40
2.000000000000002
100
AcDbArc
 50
359.9999999999987
 51
90.0
  0
LINE
  5
6462
330
6412
100
AcDbEntity
  8
0
  6
_..__..__..__.._
 62
   253
370
     9
100
AcDbLine
 10
40.50000000000001
 20
146.5000000000002
 30
0.0
 11
104.4999999999999
 21
146.5000000000002
 31
0.0
  0
ARC
  5
6463
330
6412
100
AcDbEntity
  8
0
  6
_..__..__..__.._
 62
   253
370
     9
100
AcDbCircle
 10
40.50000000000001
 20
148.5000000000002
 30
0.0
 40
2.000000000000002
100
AcDbArc
 50
179.9999999999988
 51
270.0
  0
CIRCLE
  5
6464
330
6412
100
AcDbEntity
  8
0
  6
_..__..__..__.._
 62
   253
370
     9
100
AcDbCircle
 10
-72.49999999999999
 20
160.5000000000001
 30
0.0
 40
7.999999999999951
210
0.0
220
0.0
230
-1.0
  0
LINE
  5
6465
330
6412
100
AcDbEntity
  8
0
  6
_..__..__..__.._
 62
   253
370
     9
100
AcDbLine
 10
60.99999999999999
 20
236.4999999999999
 30
0.0
 11
83.99999999999996
 21
236.4999999999999
 31
0.0
  0
ARC
  5
6466
330
6412
100
AcDbEntity
  8
0
  6
_..__..__..__.._
 62
   253
370
     9
100
AcDbCircle
 10
-60.99999999999999
 20
229.4999999999999
 30
0.0
 40
6.999999999999992
210
0.0
220
0.0
230
-1.0
100
AcDbArc
 50
0.0
 51
90.0
  0
LINE
  5
6467
330
6412
100
AcDbEntity
  8
0
  6
_..__..__..__.._
 62
   253
370
     9
100
AcDbLine
 10
106.4999999999999
 20
148.5000000000002
 30
0.0
 11
106.4999999999999
 21
262.4999999999997
 31
0.0
  0
LINE
  5
6468
330
6412
100
AcDbEntity
  8
0
  6
_..__..__..__.._
 62
   253
370
     9
100
AcDbLine
 10
83.99999999999996
 20
174.5000000000001
 30
0.0
 11
60.99999999999999
 21
174.5000000000001
 31
0.0
  0
ARC
  5
6469
330
6412
100
AcDbEntity
  8
0
  6
_..__..__..__.._
 62
   253
370
     9
100
AcDbCircle
 10
104.4999999999999
 20
148.5000000000002
 30
0.0
 40
2.000000000000002
100
AcDbArc
 50
270.0
 51
0.0
  0
CIRCLE
  5
646A
330
6412
100
AcDbEntity
  8
0
  6
_..__..__..__.._
 62
   253
370
     9
100
AcDbCircle
 10
-72.49999999999999
 20
250.4999999999998
 30
0.0
 40
7.999999999999951
210
0.0
220
0.0
230
-1.0
  0
LINE
  5
646B
330
6412
100
AcDbEntity
  8
0
  6
_..__..__..__.._
 62
   253
370
     9
100
AcDbLine
 10
104.4999999999999
 20
264.4999999999997
 30
0.0
 11
40.50000000000001
 21
264.4999999999997
 31
0.0
  0
ARC
  5
646C
330
6412
100
AcDbEntity
  8
0
  6
_..__..__..__.._
 62
   253
370
     9
100
AcDbCircle
 10
40.50000000000001
 20
262.4999999999997
 30
0.0
 40
2.000000000000002
100
AcDbArc
 50
90.0
 51
180.0
  0
LINE
  5
646D
330
6412
100
AcDbEntity
  8
0
  6
_..__..__..__.._
 62
   253
370
     9
100
AcDbLine
 10
53.99999999999999
 20
181.5000000000001
 30
0.0
 11
53.99999999999999
 21
229.4999999999999
 31
0.0
  0
ARC
  5
646E
330
6412
100
AcDbEntity
  8
0
  6
_..__..__..__.._
 62
   253
370
     9
100
AcDbCircle
 10
-60.99999999999999
 20
181.5000000000001
 30
0.0
 40
7.000000000000006
210
0.0
220
0.0
230
-1.0
100
AcDbArc
 50
270.0
 51
0.0
  0
LINE
  5
646F
330
6412
100
AcDbEntity
  8
0
  6
_..__..__..__.._
 62
   253
370
     9
100
AcDbLine
 10
38.50000000000001
 20
262.4999999999997
 30
0.0
 11
38.50000000000001
 21
148.5000000000002
 31
0.0
  0
LINE
  5
6470
330
6412
100
AcDbEntity
  8
0
  6
________________
 62
     7
370
     9
100
AcDbLine
 10
89.99999999999997
 20
181.5
 30
0.0
 11
89.99999999999997
 21
229.5
 31
0.0
  0
LINE
  5
6471
330
6412
100
AcDbEntity
  8
0
  6
________________
 62
   253
370
     9
100
AcDbLine
 10
89.99999999999997
 20
229.5
 30
0.0
 11
91.49999999999997
 21
229.5
 31
0.0
  0
LINE
  5
6472
330
6412
100
AcDbEntity
  8
0
  6
________________
 62
   253
370
     9
100
AcDbLine
 10
91.49999999999997
 20
229.5
 30
0.0
 11
91.49999999999997
 21
181.5
 31
0.0
  0
LINE
  5
6473
330
6412
100
AcDbEntity
  8
0
  6
________________
 62
   253
370
     9
100
AcDbLine
 10
89.99999999999997
 20
181.5
 30
0.0
 11
91.49999999999997
 21
181.5
 31
0.0
  0
ARC
  5
6474
330
6412
100
AcDbEntity
  8
0
  6
________________
 62
   253
370
     9
100
AcDbCircle
 10
-60.99999999999997
 20
229.5
 30
0.0
 40
7.500000000000006
210
0.0
220
0.0
230
-1.0
100
AcDbArc
 50
359.9999999999999
 51
90.0
  0
LINE
  5
6475
330
6412
100
AcDbEntity
  8
0
  6
________________
 62
   253
370
     9
100
AcDbLine
 10
60.99999999999997
 20
237.0
 30
0.0
 11
60.99999999999997
 21
235.5
 31
0.0
  0
ARC
  5
6476
330
6412
100
AcDbEntity
  8
0
  6
________________
 62
     7
370
     9
100
AcDbCircle
 10
60.99999999999997
 20
229.5
 30
0.0
 40
6.000000000000005
100
AcDbArc
 50
90.0
 51
180.0
  0
LINE
  5
6477
330
6412
100
AcDbEntity
  8
0
  6
________________
 62
   253
370
     9
100
AcDbLine
 10
53.49999999999996
 20
229.5
 30
0.0
 11
54.99999999999996
 21
229.5
 31
0.0
  0
ARC
  5
6478
330
6412
100
AcDbEntity
  8
0
  6
________________
 62
     7
370
     9
100
AcDbCircle
 10
83.99999999999997
 20
229.5
 30
0.0
 40
5.999999999999991
100
AcDbArc
 50
0.0
 51
90.0
  0
LINE
  5
6479
330
6412
100
AcDbEntity
  8
0
  6
________________
 62
   253
370
     9
100
AcDbLine
 10
83.99999999999997
 20
235.5
 30
0.0
 11
83.99999999999997
 21
237.0
 31
0.0
  0
ARC
  5
647A
330
6412
100
AcDbEntity
  8
0
  6
________________
 62
   253
370
     9
100
AcDbCircle
 10
-83.99999999999997
 20
229.5
 30
0.0
 40
7.500000000000006
210
0.0
220
0.0
230
-1.0
100
AcDbArc
 50
90.0
 51
180.0
  0
LINE
  5
647B
330
6412
100
AcDbEntity
  8
0
  6
________________
 62
   253
370
     9
100
AcDbLine
 10
60.99999999999997
 20
237.0
 30
0.0
 11
83.99999999999997
 21
237.0
 31
0.0
  0
LINE
  5
647C
330
6412
100
AcDbEntity
  8
0
  6
________________
 62
     7
370
     9
100
AcDbLine
 10
83.99999999999997
 20
235.5
 30
0.0
 11
60.99999999999997
 21
235.5
 31
0.0
  0
ARC
  5
647D
330
6412
100
AcDbEntity
  8
0
  6
________________
 62
     7
370
     9
100
AcDbCircle
 10
83.99999999999997
 20
181.5
 30
0.0
 40
6.000000000000005
100
AcDbArc
 50
270.0
 51
0.0000000000000568
  0
ARC
  5
647E
330
6412
100
AcDbEntity
  8
0
  6
________________
 62
   253
370
     9
100
AcDbCircle
 10
-83.99999999999997
 20
181.5
 30
0.0
 40
7.499999999999993
210
0.0
220
0.0
230
-1.0
100
AcDbArc
 50
179.9999999999999
 51
270.0
  0
LINE
  5
647F
330
6412
100
AcDbEntity
  8
0
  6
________________
 62
   253
370
     9
100
AcDbLine
 10
83.99999999999997
 20
175.5
 30
0.0
 11
83.99999999999997
 21
174.0
 31
0.0
  0
LINE
  5
6480
330
6412
100
AcDbEntity
  8
0
  6
________________
 62
   253
370
     9
100
AcDbLine
 10
83.99999999999997
 20
174.0
 30
0.0
 11
60.99999999999997
 21
174.0
 31
0.0
  0
LINE
  5
6481
330
6412
100
AcDbEntity
  8
0
  6
________________
 62
   253
370
     9
100
AcDbLine
 10
60.99999999999997
 20
174.0
 30
0.0
 11
60.99999999999997
 21
175.5
 31
0.0
  0
LINE
  5
6482
330
6412
100
AcDbEntity
  8
0
  6
________________
 62
     7
370
     9
100
AcDbLine
 10
60.99999999999997
 20
175.5
 30
0.0
 11
83.99999999999997
 21
175.5
 31
0.0
  0
ARC
  5
6483
330
6412
100
AcDbEntity
  8
0
  6
________________
 62
   253
370
     9
100
AcDbCircle
 10
-60.99999999999997
 20
181.5
 30
0.0
 40
7.500000000000006
210
0.0
220
0.0
230
-1.0
100
AcDbArc
 50
270.0
 51
0.0
  0
LINE
  5
6484
330
6412
100
AcDbEntity
  8
0
  6
________________
 62
   253
370
     9
100
AcDbLine
 10
53.49999999999998
 20
181.5
 30
0.0
 11
54.99999999999998
 21
181.5
 31
0.0
  0
ARC
  5
6485
330
6412
100
AcDbEntity
  8
0
  6
________________
 62
     7
370
     9
100
AcDbCircle
 10
60.99999999999997
 20
181.5
 30
0.0
 40
6.000000000000005
100
AcDbArc
 50
180.0
 51
270.0
  0
LINE
  5
6486
330
6412
100
AcDbEntity
  8
0
  6
________________
 62
   253
370
     9
100
AcDbLine
 10
53.49999999999998
 20
181.5
 30
0.0
 11
53.49999999999996
 21
229.5
 31
0.0
  0
LINE
  5
6487
330
6412
100
AcDbEntity
  8
0
  6
________________
 62
     7
370
     9
100
AcDbLine
 10
54.99999999999996
 20
229.5
 30
0.0
 11
54.99999999999996
 21
181.5
 31
0.0
  0
LINE
  5
6488
330
6412
100
AcDbEntity
  8
0
  6
________________
 62
     7
370
     9
100
AcDbLine
 10
107.5
 20
265.5
 30
0.0
 11
107.5
 21
145.5
 31
0.0
  0
LINE
  5
6489
330
6412
100
AcDbEntity
  8
0
  6
________________
 62
     7
370
     9
100
AcDbLine
 10
107.5
 20
145.5
 30
0.0
 11
37.49999999999998
 21
145.5
 31
0.0
  0
LINE
  5
648A
330
6412
100
AcDbEntity
  8
0
  6
________________
 62
     7
370
     9
100
AcDbLine
 10
37.49999999999998
 20
265.5
 30
0.0
 11
107.5
 21
265.5
 31
0.0
  0
LINE
  5
648B
330
6412
100
AcDbEntity
  8
0
  6
________________
 62
     7
370
     9
100
AcDbLine
 10
37.49999999999998
 20
145.5
 30
0.0
 11
37.49999999999998
 21
265.5
 31
0.0
  0
CIRCLE
  5
648C
330
6412
100
AcDbEntity
  8
0
  6
_..__..__..__.._
 62
   253
370
     9
100
AcDbCircle
 10
-72.49999999999999
 20
250.5
 30
0.0
 40
2.500000000000002
210
0.0
220
0.0
230
-1.0
  0
CIRCLE
  5
648D
330
6412
100
AcDbEntity
  8
0
  6
_..__..__..__.._
 62
   253
370
     9
100
AcDbCircle
 10
-72.49999999999999
 20
160.5
 30
0.0
 40
2.500000000000002
210
0.0
220
0.0
230
-1.0
  0
ENDBLK
  5
648E
330
6412
100
AcDbEntity
  8
0
100
AcDbBlockEnd
  0
BLOCK
  5
6495
330
6494
100
AcDbEntity
  8
0
100
AcDbBlockBegin
  2
D_FRAME_VIEW@460
 70
     0
 10
0.0
 20
0.0
 30
0.0
  3
D_FRAME_VIEW@460
  1

  0
LINE
  5
6496
330
6494
100
AcDbEntity
  8
0
  6
________________
 62
     7
370
     9
100
AcDbLine
 10
237.2733875418194
 20
166.4999999999993
 30
0.0
 11
237.2733875418194
 21
154.5000000000007
 31
0.0
  0
LINE
  5
6497
330
6494
100
AcDbEntity
  8
0
  6
________________
 62
     7
370
     9
100
AcDbLine
 10
244.7733875418193
 20
163.8907963666371
 30
0.0
 11
241.1733875418191
 21
163.8907963666371
 31
0.0
  0
LINE
  5
6498
330
6494
100
AcDbEntity
  8
0
  6
________________
 62
     7
370
     9
100
AcDbLine
 10
241.1733875418191
 20
163.8907963666367
 30
0.0
 11
241.1733875418191
 21
157.1092036333636
 31
0.0
  0
LINE
  5
6499
330
6494
100
AcDbEntity
  8
0
  6
________________
 62
     7
370
     9
100
AcDbLine
 10
241.1733875418191
 20
157.1092036333629
 30
0.0
 11
244.7733875418193
 21
157.1092036333629
 31
0.0
  0
LINE
  5
649A
330
6494
100
AcDbEntity
  8
0
  6
________________
 62
     7
370
     9
100
AcDbLine
 10
237.27338754182
 20
256.4999999999945
 30
0.0
 11
237.27338754182
 21
244.5000000000055
 31
0.0
  0
LINE
  5
649B
330
6494
100
AcDbEntity
  8
0
  6
________________
 62
     7
370
     9
100
AcDbLine
 10
244.7733875418193
 20
253.8907963666362
 30
0.0
 11
241.1733875418182
 21
253.8907963666362
 31
0.0
  0
LINE
  5
649C
330
6494
100
AcDbEntity
  8
0
  6
________________
 62
     7
370
     9
100
AcDbLine
 10
241.1733875418182
 20
253.8907963666338
 30
0.0
 11
241.1733875418182
 21
247.1092036333683
 31
0.0
  0
LINE
  5
649D
330
6494
100
AcDbEntity
  8
0
  6
________________
 62
     7
370
     9
100
AcDbLine
 10
241.1733875418182
 20
247.1092036333638
 30
0.0
 11
244.7733875418193
 21
247.1092036333638
 31
0.0
  0
LINE
  5
649E
330
6494
100
AcDbEntity
  8
0
  6
________________
 62
     7
370
     9
100
AcDbLine
 10
227.2833875420325
 20
154.8499999999085
 30
0.0
 11
227.2833875416115
 21
166.1499999999085
 31
0.0
  0
LINE
  5
649F
330
6494
100
AcDbEntity
  8
0
  6
________________
 62
     7
370
     9
100
AcDbLine
 10
226.3118917800735
 20
157.2967725277458
 30
0.0
 11
226.3118917800706
 21
157.3741935058787
 31
0.0
  0
ARC
  5
64A0
330
6494
100
AcDbEntity
  8
0
  6
________________
 62
     7
370
     9
100
AcDbCircle
 10
-237.907975347573
 20
160.4811382596537
 30
0.0
 40
12.00509307786473
210
0.0
220
0.0
230
-1.0
100
AcDbArc
 50
345.0009979427627
 51
356.7474374240009
  0
LINE
  5
64A1
330
6494
100
AcDbEntity
  8
0
  6
________________
 62
     7
370
     9
100
AcDbLine
 10
225.9222208665525
 20
159.7999999999048
 30
0.0
 11
226.3118917798637
 21
159.8000000000822
 31
0.0
  0
LINE
  5
64A2
330
6494
100
AcDbEntity
  8
0
  6
________________
 62
     7
370
     9
100
AcDbLine
 10
226.3118917799802
 20
159.8000000000822
 30
0.0
 11
226.3118917799281
 21
161.2000000000818
 31
0.0
  0
LINE
  5
64A3
330
6494
100
AcDbEntity
  8
0
  6
________________
 62
     7
370
     9
100
AcDbLine
 10
226.3118917798084
 20
161.2000000000822
 30
0.0
 11
225.9222208665003
 21
161.1999999999048
 31
0.0
  0
ARC
  5
64A4
330
6494
100
AcDbEntity
  8
0
  6
________________
 62
     7
370
     9
100
AcDbCircle
 10
-237.9079984043035
 20
160.5188580372997
 30
0.0
 40
12.00511630759682
210
0.0
220
0.0
230
-1.0
100
AcDbArc
 50
3.252573976381869
 51
14.99899064847281
  0
LINE
  5
64A5
330
6494
100
AcDbEntity
  8
0
  6
________________
 62
     7
370
     9
100
AcDbLine
 10
226.3118917798377
 20
163.6258064939599
 30
0.0
 11
226.3118917798348
 21
163.7032274719988
 31
0.0
  0
LINE
  5
64A6
330
6494
100
AcDbEntity
  8
0
  6
________________
 62
     7
370
     9
100
AcDbLine
 10
227.2833875420326
 20
244.8499999998752
 30
0.0
 11
227.283387541606
 21
256.1499999998752
 31
0.0
  0
LINE
  5
64A7
330
6494
100
AcDbEntity
  8
0
  6
________________
 62
     7
370
     9
100
AcDbLine
 10
226.3118917800724
 20
247.296772527712
 30
0.0
 11
226.3118917800695
 21
247.3741935058449
 31
0.0
  0
ARC
  5
64A8
330
6494
100
AcDbEntity
  8
0
  6
________________
 62
     7
370
     9
100
AcDbCircle
 10
-237.9079753475707
 20
250.481138259626
 30
0.0
 40
12.00509307786557
210
0.0
220
0.0
230
-1.0
100
AcDbArc
 50
345.0009979427334
 51
356.7474374239708
  0
LINE
  5
64A9
330
6494
100
AcDbEntity
  8
0
  6
________________
 62
     7
370
     9
100
AcDbLine
 10
225.9222208665498
 20
249.7999999998707
 30
0.0
 11
226.3118917798598
 21
249.8000000000482
 31
0.0
  0
LINE
  5
64AA
330
6494
100
AcDbEntity
  8
0
  6
________________
 62
     7
370
     9
100
AcDbLine
 10
226.3118917799779
 20
249.8000000000482
 30
0.0
 11
226.311891779925
 21
251.2000000000479
 31
0.0
  0
LINE
  5
64AB
330
6494
100
AcDbEntity
  8
0
  6
________________
 62
     7
370
     9
100
AcDbLine
 10
226.3118917798038
 20
251.2000000000483
 30
0.0
 11
225.922220866497
 21
251.1999999998708
 31
0.0
  0
ARC
  5
64AC
330
6494
100
AcDbEntity
  8
0
  6
________________
 62
     7
370
     9
100
AcDbCircle
 10
-237.9079984043005
 20
250.5188580372716
 30
0.0
 40
12.00511630759693
210
0.0
220
0.0
230
-1.0
100
AcDbArc
 50
3.252573976353279
 51
14.99899064844423
  0
LINE
  5
64AD
330
6494
100
AcDbEntity
  8
0
  6
________________
 62
     7
370
     9
100
AcDbLine
 10
226.3118917798334
 20
253.625806493926
 30
0.0
 11
226.3118917798305
 21
253.703227471965
 31
0.0
  0
LINE
  5
64AE
330
6494
100
AcDbEntity
  8
0
  6
________________
 62
     7
370
     9
100
AcDbLine
 10
227.3733875418194
 20
265.4999999999947
 30
0.0
 11
235.3733875418194
 21
265.4999999999947
 31
0.0
  0
LINE
  5
64AF
330
6494
100
AcDbEntity
  8
0
  6
________________
 62
     7
370
     9
100
AcDbLine
 10
227.3733875418194
 20
265.4999999999947
 30
0.0
 11
227.3733875418194
 21
145.5000000000368
 31
0.0
  0
LINE
  5
64B0
330
6494
100
AcDbEntity
  8
0
  6
________________
 62
     7
370
     9
100
AcDbLine
 10
227.3733875418194
 20
145.5000000000367
 30
0.0
 11
235.3733875418194
 21
145.5000000000367
 31
0.0
  0
LINE
  5
64B1
330
6494
100
AcDbEntity
  8
0
  6
________________
 62
     7
370
     9
100
AcDbLine
 10
235.3733875418194
 20
265.4999999999947
 30
0.0
 11
235.3733875418194
 21
145.5000000000368
 31
0.0
  0
LINE
  5
64B2
330
6494
100
AcDbEntity
  8
0
  6
________________
 62
   253
370
     9
100
AcDbLine
 10
236.7733875418194
 20
262.4999999999943
 30
0.0
 11
235.3733875418194
 21
262.4999999999943
 31
0.0
  0
LINE
  5
64B3
330
6494
100
AcDbEntity
  8
0
  6
________________
 62
   253
370
     9
100
AcDbLine
 10
236.7733875418194
 20
148.5000000000469
 30
0.0
 11
235.3733875418194
 21
148.5000000000469
 31
0.0
  0
LINE
  5
64B4
330
6494
100
AcDbEntity
  8
0
  6
________________
 62
     7
370
     9
100
AcDbLine
 10
236.7733875418194
 20
262.4999999999943
 30
0.0
 11
236.7733875418194
 21
148.5000000000469
 31
0.0
  0
LINE
  5
64B5
330
6494
100
AcDbEntity
  8
0
  6
________________
 62
     7
370
     9
100
AcDbLine
 10
236.7733875418194
 20
146.5000000000478
 30
0.0
 11
235.3733875418194
 21
146.5000000000478
 31
0.0
  0
LINE
  5
64B6
330
6494
100
AcDbEntity
  8
0
  6
________________
 62
     7
370
     9
100
AcDbLine
 10
236.7733875418194
 20
148.5000000000469
 30
0.0
 11
236.7733875418194
 21
146.5000000000469
 31
0.0
  0
LINE
  5
64B7
330
6494
100
AcDbEntity
  8
0
  6
________________
 62
     7
370
     9
100
AcDbLine
 10
236.7733875418194
 20
264.4999999999933
 30
0.0
 11
235.3733875418194
 21
264.4999999999933
 31
0.0
  0
LINE
  5
64B8
330
6494
100
AcDbEntity
  8
0
  6
________________
 62
     7
370
     9
100
AcDbLine
 10
236.7733875418194
 20
264.4999999999943
 30
0.0
 11
236.7733875418194
 21
262.4999999999943
 31
0.0
  0
LINE
  5
64B9
330
6494
100
AcDbEntity
  8
0
  6
________________
 62
     7
370
     9
100
AcDbLine
 10
246.1733875418193
 20
264.4999999999997
 30
0.0
 11
244.7733875418193
 21
264.4999999999997
 31
0.0
  0
LINE
  5
64BA
330
6494
100
AcDbEntity
  8
0
  6
________________
 62
     7
370
     9
100
AcDbLine
 10
244.7733875418193
 20
264.4999999999997
 30
0.0
 11
244.7733875418193
 21
262.4999999999997
 31
0.0
  0
LINE
  5
64BB
330
6494
100
AcDbEntity
  8
0
  6
________________
 62
     7
370
     9
100
AcDbLine
 10
246.1733875418193
 20
146.5000000000002
 30
0.0
 11
244.7733875418193
 21
146.5000000000002
 31
0.0
  0
LINE
  5
64BC
330
6494
100
AcDbEntity
  8
0
  6
________________
 62
     7
370
     9
100
AcDbLine
 10
244.7733875418193
 20
148.5000000000002
 30
0.0
 11
244.7733875418193
 21
146.5000000000001
 31
0.0
  0
LINE
  5
64BD
330
6494
100
AcDbEntity
  8
0
  6
________________
 62
   253
370
     9
100
AcDbLine
 10
246.1733875418193
 20
262.4999999999997
 30
0.0
 11
244.7733875418193
 21
262.4999999999997
 31
0.0
  0
LINE
  5
64BE
330
6494
100
AcDbEntity
  8
0
  6
________________
 62
   253
370
     9
100
AcDbLine
 10
246.1733875418193
 20
148.5000000000002
 30
0.0
 11
244.7733875418193
 21
148.5000000000002
 31
0.0
  0
LINE
  5
64BF
330
6494
100
AcDbEntity
  8
0
  6
________________
 62
     7
370
     9
100
AcDbLine
 10
244.7733875418193
 20
262.4999999999997
 30
0.0
 11
244.7733875418193
 21
148.5000000000002
 31
0.0
  0
LINE
  5
64C0
330
6494
100
AcDbEntity
  8
0
  6
________________
 62
     7
370
     9
100
AcDbLine
 10
254.1733875418193
 20
265.5
 30
0.0
 11
246.1733875418193
 21
265.5
 31
0.0
  0
LINE
  5
64C1
330
6494
100
AcDbEntity
  8
0
  6
________________
 62
     7
370
     9
100
AcDbLine
 10
254.1733875418193
 20
145.5
 30
0.0
 11
254.1733875418193
 21
265.5
 31
0.0
  0
LINE
  5
64C2
330
6494
100
AcDbEntity
  8
0
  6
________________
 62
     7
370
     9
100
AcDbLine
 10
254.1733875418193
 20
145.5
 30
0.0
 11
246.1733875418193
 21
145.5
 31
0.0
  0
LINE
  5
64C3
330
6494
100
AcDbEntity
  8
0
  6
________________
 62
     7
370
     9
100
AcDbLine
 10
246.1733875418193
 20
145.5
 30
0.0
 11
246.1733875418193
 21
265.5
 31
0.0
  0
LINE
  5
64C4
330
6494
100
AcDbEntity
  8
0
  6
________________
 62
     7
370
     9
100
AcDbLine
 10
237.2733875418194
 20
166.4999999999998
 30
0.0
 11
236.7733875418194
 21
165.9999999999998
 31
0.0
  0
LINE
  5
64C5
330
6494
100
AcDbEntity
  8
0
  6
________________
 62
     7
370
     9
100
AcDbLine
 10
236.7733875418194
 20
155.0000000000002
 30
0.0
 11
237.2733875418194
 21
154.5000000000003
 31
0.0
  0
LINE
  5
64C6
330
6494
100
AcDbEntity
  8
0
  6
________________
 62
     7
370
     9
100
AcDbLine
 10
244.7733875418193
 20
166.4999999999998
 30
0.0
 11
237.2733875418194
 21
166.4999999999998
 31
0.0
  0
LINE
  5
64C7
330
6494
100
AcDbEntity
  8
0
  6
________________
 62
     7
370
     9
100
AcDbLine
 10
237.2733875418194
 20
154.5000000000003
 30
0.0
 11
244.7733875418193
 21
154.5000000000003
 31
0.0
  0
LINE
  5
64C8
330
6494
100
AcDbEntity
  8
0
  6
________________
 62
     7
370
     9
100
AcDbLine
 10
237.27338754182
 20
256.4999999999983
 30
0.0
 11
236.7733875418194
 21
255.9999999999976
 31
0.0
  0
LINE
  5
64C9
330
6494
100
AcDbEntity
  8
0
  6
________________
 62
     7
370
     9
100
AcDbLine
 10
236.7733875418194
 20
245.0000000000024
 30
0.0
 11
237.27338754182
 21
244.5000000000018
 31
0.0
  0
LINE
  5
64CA
330
6494
100
AcDbEntity
  8
0
  6
________________
 62
     7
370
     9
100
AcDbLine
 10
244.7733875418193
 20
256.4999999999983
 30
0.0
 11
237.27338754182
 21
256.4999999999983
 31
0.0
  0
LINE
  5
64CB
330
6494
100
AcDbEntity
  8
0
  6
________________
 62
     7
370
     9
100
AcDbLine
 10
237.27338754182
 20
244.5000000000018
 30
0.0
 11
244.7733875418193
 21
244.5000000000018
 31
0.0
  0
LINE
  5
64CC
330
6494
100
AcDbEntity
  8
0
  6
________________
 62
     7
370
     9
100
AcDbLine
 10
227.2833875420325
 20
154.8499999999085
 30
0.0
 11
227.3733875418194
 21
154.8499999999119
 31
0.0
  0
LINE
  5
64CD
330
6494
100
AcDbEntity
  8
0
  6
________________
 62
     7
370
     9
100
AcDbLine
 10
227.3733875418194
 20
166.1499999999119
 30
0.0
 11
227.2833875416115
 21
166.1499999999085
 31
0.0
  0
ARC
  5
64CE
330
6494
100
AcDbEntity
  8
0
  6
________________
 62
     7
370
     9
100
AcDbCircle
 10
237.8833614866759
 20
160.4749935441608
 30
0.0
 40
12.00000000000002
100
AcDbArc
 50
195.3581440287683
 51
207.9531519882804
  0
ARC
  5
64CF
330
6494
100
AcDbEntity
  8
0
  6
________________
 62
     7
370
     9
100
AcDbCircle
 10
237.883361486674
 20
160.5250064564461
 30
0.0
 40
11.99999999999998
100
AcDbArc
 50
152.0468480159885
 51
164.6418559755006
  0
LINE
  5
64D0
330
6494
100
AcDbEntity
  8
0
  6
________________
 62
     7
370
     9
100
AcDbLine
 10
227.2833875420326
 20
244.8499999998752
 30
0.0
 11
227.3733875418194
 21
244.8499999998786
 31
0.0
  0
LINE
  5
64D1
330
6494
100
AcDbEntity
  8
0
  6
________________
 62
     7
370
     9
100
AcDbLine
 10
227.3733875418194
 20
256.1499999998786
 30
0.0
 11
227.283387541606
 21
256.1499999998752
 31
0.0
  0
ARC
  5
64D2
330
6494
100
AcDbEntity
  8
0
  6
________________
 62
     7
370
     9
100
AcDbCircle
 10
237.8833614866733
 20
250.4749935441328
 30
0.0
 40
12.0
100
AcDbArc
 50
195.358144028797
 51
207.9531519883091
  0
ARC
  5
64D3
330
6494
100
AcDbEntity
  8
0
  6
________________
 62
     7
370
     9
100
AcDbCircle
 10
237.8833614866714
 20
250.525006456418
 30
0.0
 40
12.00000000000002
100
AcDbArc
 50
152.0468480160172
 51
164.6418559755293
  0
ENDBLK
  5
64D4
330
6494
100
AcDbEntity
  8
0
100
AcDbBlockEnd
  0
BLOCK
  5
64F1
330
64F0
100
AcDbEntity
  8
0
100
AcDbBlockBegin
  2
*D3
 70
     1
 10
0.0
 20
0.0
 30
0.0
  3
*D3
  1

  0
LINE
  5
64F2
330
64F0
100
AcDbEntity
  8
0
 62
     7
370
    -2
100
AcDbLine
 10
447.6664052422251
 20
81.1406855713962
 30
0.0
 11
447.6664052422251
 21
99.14068557138995
 31
0.0
  0
LINE
  5
64F3
330
64F0
100
AcDbEntity
  8
0
 62
     7
370
    -2
100
AcDbLine
 10
455.666405242225
 20
81.14068557139024
 30
0.0
 11
455.666405242225
 21
99.14068557138995
 31
0.0
  0
LINE
  5
64F4
330
64F0
100
AcDbEntity
  8
0
 62
     7
370
    -2
100
AcDbLine
 10
450.1664052422251
 20
98.39068557138995
 30
0.0
 11
453.166405242225
 21
98.39068557138995
 31
0.0
  0
SOLID
  5
64F5
330
64F0
100
AcDbEntity
  8
0
 62
     7
100
AcDbTrace
 10
450.1664052422251
 20
98.80735223805662
 30
0.0
 11
450.1664052422251
 21
97.97401890472328
 31
0.0
 12
447.6664052422251
 22
98.39068557138995
 32
0.0
 13
447.6664052422251
 23
98.39068557138995
 33
0.0
  0
SOLID
  5
64F6
330
64F0
100
AcDbEntity
  8
0
 62
     7
100
AcDbTrace
 10
453.166405242225
 20
97.97401890472328
 30
0.0
 11
453.166405242225
 21
98.80735223805662
 31
0.0
 12
455.666405242225
 22
98.39068557138995
 32
0.0
 13
455.666405242225
 23
98.39068557138995
 33
0.0
  0
MTEXT
  5
64F7
330
64F0
100
AcDbEntity
  8
0
  6
Continuous
 62
     7
100
AcDbMText
 10
451.6664052422256
 20
100.89068557139
 30
0.0
 40
2.5
 41
0.0
 71
     5
 72
     1
  1
\A1;8
 73
     1
 44
1.0
  0
POINT
  5
64F8
330
64F0
100
AcDbEntity
  8
Defpoints
 62
     0
100
AcDbPoint
 10
447.6664052422251
 20
81.1406855713962
 30
0.0
  0
POINT
  5
64F9
330
64F0
100
AcDbEntity
  8
Defpoints
 62
     0
100
AcDbPoint
 10
455.666405242225
 20
81.14068557139024
 30
0.0
  0
POINT
  5
64FA
330
64F0
100
AcDbEntity
  8
Defpoints
 62
     0
100
AcDbPoint
 10
455.666405242225
 20
98.39068557138978
 30
0.0
  0
ENDBLK
  5
64FB
330
64F0
100
AcDbEntity
  8
0
100
AcDbBlockEnd
  0
BLOCK
  5
64FF
330
64FE
100
AcDbEntity
  8
0
100
AcDbBlockBegin
  2
D_FRAME_VIEW@413
 70
     0
 10
0.0
 20
0.0
 30
0.0
  3
D_FRAME_VIEW@413
  1

  0
HATCH
  5
6500
330
64FE
100
AcDbEntity
  8
0
 62
   253
100
AcDbHatch
 10
0.0
 20
0.0
 30
0.0
210
0.0
220
0.0
230
1.0
  2

 70
     0
 71
     1
 91
        2
 92
        3
 72
     0
 73
     1
 93
       32
 10
148.3266124581805
 20
248.0
 10
143.3266124581805
 20
248.0
 10
142.3266124581805
 20
248.0
 10
142.3266124581805
 20
253.0
 10
143.3266124581805
 20
253.0
 10
148.3266124581805
 20
253.0
 10
148.8266124581805
 20
253.5
 10
148.8266124581805
 20
265.5
 10
140.8266124581805
 20
265.5
 10
140.8266124581805
 20
237.0
 10
140.8312364575808
 20
236.8823113564083
 10
140.8450799472878
 20
236.7653483024397
 10
140.868057577584
 20
236.6498319542162
 10
140.9000276837378
 20
236.5364745084376
 10
140.9407931594136
 20
236.4259748514524
 10
140.9901026718979
 20
236.3190142503907
 10
141.0476522116494
 20
236.2162521529261
 10
141.1130869666181
 20
236.1183221215613
 10
141.1860035097805
 20
236.0258279275047
 10
141.2659522864007
 20
235.9393398282202
 10
141.3524403856852
 20
235.8593910516
 10
141.4449345797418
 20
235.7864745084376
 10
141.5428646111066
 20
235.7210397534689
 10
141.6456267085712
 20
235.6634902137175
 10
141.7525873096329
 20
235.6141807012331
 10
141.8630869666181
 20
235.5734152255573
 10
141.9764444123967
 20
235.5414451194035
 10
142.0919607606202
 20
235.5184674891073
 10
142.2089238145887
 20
235.5046239994003
 10
142.3266124581805
 20
235.5
 10
148.8266124581805
 20
235.5
 10
148.8266124581805
 20
247.5
 97
        0
 92
        3
 72
     0
 73
     1
 93
       32
 10
148.8266124581805
 20
157.5
 10
148.3266124581805
 20
158.0
 10
143.3266124581805
 20
158.0
 10
142.3266124581805
 20
158.0
 10
142.3266124581805
 20
163.0
 10
143.3266124581805
 20
163.0
 10
148.3266124581805
 20
163.0
 10
148.8266124581805
 20
163.5
 10
148.8266124581805
 20
175.5
 10
142.3266124581805
 20
175.5
 10
142.2089238145887
 20
175.4953760005997
 10
142.0919607606202
 20
175.4815325108927
 10
141.9764444123967
 20
175.4585548805965
 10
141.8630869666181
 20
175.4265847744427
 10
141.7525873096329
 20
175.385819298767
 10
141.6456267085712
 20
175.3365097862826
 10
141.5428646111066
 20
175.2789602465312
 10
141.4449345797418
 20
175.2135254915624
 10
141.3524403856852
 20
175.1406089484001
 10
141.2659522864007
 20
175.0606601717798
 10
141.1860035097805
 20
174.9741720724953
 10
141.1130869666181
 20
174.8816778784387
 10
141.0476522116494
 20
174.7837478470739
 10
140.9901026718979
 20
174.6809857496093
 10
140.9407931594136
 20
174.5740251485476
 10
140.9000276837378
 20
174.4635254915624
 10
140.868057577584
 20
174.3501680457839
 10
140.8450799472878
 20
174.2346516975604
 10
140.8312364575808
 20
174.1176886435918
 10
140.8266124581805
 20
174.0
 10
140.8266124581805
 20
145.5
 10
148.8266124581805
 20
145.5
 97
        0
 75
     0
 76
     0
 52
0.0
 41
1.0
 77
     0
 78
     2
 53
45.0
 43
0.0
 44
0.0
 45
-3.75
 46
3.75
 79
     0
 53
45.0
 43
-2.5
 44
0.0
 45
-3.75
 46
3.75
 79
     0
 98
        1
 10
0.0
 20
0.0
  0
HATCH
  5
6501
330
64FE
100
AcDbEntity
  8
0
 62
   253
100
AcDbHatch
 10
0.0
 20
0.0
 30
0.0
210
0.0
220
0.0
230
1.0
  2

 70
     0
 71
     1
 91
        4
 92
        3
 72
     0
 73
     1
 93
        4
 10
148.8266124581804
 20
174.5
 10
148.8266124581804
 20
168.5000000000001
 10
150.2266124581804
 20
168.5
 10
150.2266124581804
 20
174.5
 97
        0
 92
        3
 72
     0
 73
     1
 93
        4
 10
148.8266124581804
 20
146.5000000000001
 10
150.2266124581804
 20
146.5
 10
150.2266224581964
 20
152.5
 10
148.8266124581804
 20
152.5
 97
        0
 92
        3
 72
     0
 73
     1
 93
        4
 10
150.2266124581804
 20
264.4999999999999
 10
148.8266124581804
 20
264.4999999999999
 10
148.8266124581804
 20
258.4999999999999
 10
150.2266124581804
 20
258.4999999999999
 97
        0
 92
        3
 72
     0
 73
     1
 93
        4
 10
150.2266124581804
 20
236.4999999999999
 10
150.2266224581964
 20
242.4999999999999
 10
148.8266124581804
 20
242.4999999999999
 10
148.8266124581804
 20
236.4999999999999
 97
        0
 75
     0
 76
     0
 52
0.0
 41
1.0
 77
     0
 78
     1
 53
45.0
 43
0.0
 44
0.0
 45
-1.25
 46
1.25
 79
     0
 98
        1
 10
0.0
 20
0.0
  0
HATCH
  5
6502
330
64FE
100
AcDbEntity
  8
0
 62
   253
100
AcDbHatch
 10
0.0
 20
0.0
 30
0.0
210
0.0
220
0.0
230
1.0
  2

 70
     0
 71
     1
 91
        4
 92
        3
 72
     0
 73
     1
 93
        4
 10
158.2266124581803
 20
174.5000000000349
 10
158.2266124581793
 20
168.5000000000401
 10
159.6266124581803
 20
168.5000000000389
 10
159.6266124581803
 20
174.5000000000349
 97
        0
 92
        3
 72
     0
 73
     1
 93
        4
 10
158.2266124581803
 20
146.5000000000478
 10
159.6266124581803
 20
146.5000000000472
 10
159.6266224581963
 20
152.5000000000426
 10
158.2266124581803
 20
152.5000000000432
 97
        0
 92
        3
 72
     0
 73
     1
 93
        4
 10
159.6266124581803
 20
264.4999999999933
 10
158.2266124581803
 20
264.499999999994
 10
158.2266124581793
 20
258.4999999999986
 10
159.6266124581803
 20
258.4999999999973
 97
        0
 92
        3
 72
     0
 73
     1
 93
        4
 10
159.6266124581803
 20
236.5000000000063
 10
159.6266224581963
 20
242.500000000001
 10
158.2266124581803
 20
242.5000000000016
 10
158.2266124581803
 20
236.5000000000063
 97
        0
 75
     0
 76
     0
 52
0.0
 41
1.0
 77
     0
 78
     1
 53
45.0
 43
0.0
 44
0.0
 45
-1.25
 46
1.25
 79
     0
 98
        1
 10
0.0
 20
0.0
  0
HATCH
  5
6503
330
64FE
100
AcDbEntity
  8
0
 62
   253
100
AcDbHatch
 10
0.0
 20
0.0
 30
0.0
210
0.0
220
0.0
230
1.0
  2

 70
     0
 71
     1
 91
        4
 92
        3
 72
     0
 73
     1
 93
        6
 10
167.6266124581803
 20
145.5000000000368
 10
167.6266124581803
 20
154.3000000000315
 10
167.6166124581767
 20
154.3000000000322
 10
164.6166124581842
 20
157.3000000000315
 10
159.6266124581803
 20
157.3000000000315
 10
159.6266124581803
 20
145.5000000000368
 97
        0
 92
        3
 72
     0
 73
     1
 93
        6
 10
167.6266124581803
 20
256.7
 10
167.6266124581803
 20
265.4999999999947
 10
159.6266124581803
 20
265.4999999999947
 10
159.6266124581818
 20
253.7
 10
164.6166124581796
 20
253.7000000000008
 10
167.6166124581767
 20
256.7
 97
        0
 92
        3
 72
     0
 73
     1
 93
       26
 10
167.6266124581803
 20
166.70000000003
 10
167.62661245818
 20
174.0000000000268
 10
167.6219884587797
 20
174.1176886436185
 10
167.6081449690727
 20
174.2346516975871
 10
167.5851673387765
 20
174.3501680458105
 10
167.5531972326228
 20
174.4635254915891
 10
167.512431756947
 20
174.5740251485742
 10
167.4631222444626
 20
174.6809857496359
 10
167.4055727047112
 20
174.7837478471005
 10
167.3401379497425
 20
174.8816778784652
 10
167.2672214065801
 20
174.9741720725218
 10
167.1872726299599
 20
175.0606601718063
 10
167.1007845306754
 20
175.1406089484265
 10
167.0082903366189
 20
175.2135254915888
 10
166.9103603052541
 20
175.2789602465575
 10
166.8075982077896
 20
175.3365097863089
 10
166.7006376067279
 20
175.3858192987933
 10
166.5901379497427
 20
175.4265847744691
 10
166.4767805039642
 20
175.4585548806229
 10
166.3612641557407
 20
175.481532510919
 10
166.2443011017722
 20
175.495376000626
 10
166.1266124581803
 20
175.5000000000262
 10
159.6266124581803
 20
175.5000000000262
 10
159.6266124581818
 20
163.7000000000315
 10
164.6166124581796
 20
163.7000000000322
 10
167.6166124581767
 20
166.7000000000315
 97
        0
 92
        3
 72
     0
 73
     1
 93
       26
 10
167.6166124581767
 20
244.3000000000007
 10
164.6166124581842
 20
247.3
 10
159.6266124581803
 20
247.3000000000008
 10
159.6266124581803
 20
235.5000000000053
 10
166.1266124581803
 20
235.5000000000051
 10
166.2443011017721
 20
235.5046239994054
 10
166.3612641557407
 20
235.5184674891124
 10
166.4767805039642
 20
235.5414451194085
 10
166.5901379497427
 20
235.5734152255623
 10
166.7006376067279
 20
235.6141807012381
 10
166.8075982077896
 20
235.6634902137225
 10
166.9103603052542
 20
235.7210397534739
 10
167.008290336619
 20
235.7864745084426
 10
167.1007845306755
 20
235.859391051605
 10
167.18727262996
 20
235.9393398282252
 10
167.2672214065803
 20
236.0258279275097
 10
167.3401379497426
 20
236.1183221215663
 10
167.4055727047113
 20
236.2162521529311
 10
167.4631222444627
 20
236.3190142503956
 10
167.5124317569471
 20
236.4259748514573
 10
167.5531972326229
 20
236.5364745084425
 10
167.5851673387767
 20
236.6498319542211
 10
167.6081449690729
 20
236.7653483024446
 10
167.6219884587799
 20
236.8823113564131
 10
167.6266124581803
 20
237.0000000000047
 10
167.6266124581803
 20
244.3
 97
        0
 75
     0
 76
     0
 52
0.0
 41
1.0
 77
     0
 78
     2
 53
45.0
 43
0.0
 44
0.0
 45
-3.75
 46
3.75
 79
     0
 53
45.0
 43
-2.5
 44
0.0
 45
-3.75
 46
3.75
 79
     0
 98
        1
 10
0.0
 20
0.0
  0
HATCH
  5
6504
330
64FE
100
AcDbEntity
  8
0
 62
   253
100
AcDbHatch
 10
0.0
 20
0.0
 30
0.0
210
0.0
220
0.0
230
1.0
  2

 70
     0
 71
     1
 91
        1
 92
        3
 72
     0
 73
     1
 93
       33
 10
158.7266124581793
 20
245.5000000000038
 10
158.7266124580293
 20
247.5000000002146
 10
158.455362458055
 20
247.5000000002248
 10
158.1841124580808
 20
247.5000000002351
 10
157.9128624581065
 20
247.5000000002453
 10
156.0141124577903
 20
247.500000000317
 10
154.1153624579287
 20
247.5000000003887
 10
152.2166124580672
 20
247.5000000004604
 10
151.7166124580856
 20
248.0000000000012
 10
150.7266124581828
 20
248.0000000000012
 10
150.1699881311575
 20
248.0000000000013
 10
148.7266124581839
 20
250.5
 10
150.1699881311573
 20
252.9999999999989
 10
150.7266124581828
 20
252.9999999999989
 10
151.7166124582749
 20
253.0000000004793
 10
152.2166124587767
 20
253.5000000004603
 10
154.1153624585944
 20
253.5000000003888
 10
156.014112458412
 20
253.500000000317
 10
157.9128624582296
 20
253.5000000002453
 10
158.1841124582128
 20
253.5000000002351
 10
158.4553624581961
 20
253.5000000002248
 10
158.7266124581793
 20
253.5000000002146
 10
158.7266124581793
 20
255.4999999999962
 10
157.7266124581756
 20
256.4999999999973
 10
148.8266124581839
 20
256.4999999999983
 10
148.8266124581825
 20
253.4999999999986
 10
144.7266124581857
 20
253.4999999999977
 10
144.226612458186
 20
252.9999999999993
 10
144.226612458186
 20
248.0000000000019
 10
144.7266124581856
 20
247.5000000000014
 10
148.8266124581839
 20
247.5000000000009
 10
148.8266124581824
 20
244.5000000000028
 10
157.7266124581797
 20
244.5000000000046
 97
        0
 75
     0
 76
     0
 52
0.0
 41
1.0
 77
     0
 78
     1
 53
45.0
 43
0.0
 44
0.0
 45
-1.25
 46
1.25
 79
     0
 98
        1
 10
0.0
 20
0.0
  0
HATCH
  5
6505
330
64FE
100
AcDbEntity
  8
0
 62
   253
100
AcDbHatch
 10
0.0
 20
0.0
 30
0.0
210
0.0
220
0.0
230
1.0
  2

 70
     0
 71
     1
 91
        1
 92
        3
 72
     0
 73
     1
 93
       33
 10
158.7266124581804
 20
155.5000000000005
 10
158.7266124580293
 20
157.5000000002434
 10
158.455362458055
 20
157.5000000002535
 10
158.1841124580806
 20
157.5000000002636
 10
157.9128624581062
 20
157.5000000002738
 10
156.0141124577897
 20
157.5000000003445
 10
154.1153624579279
 20
157.5000000004152
 10
152.2166124580661
 20
157.500000000486
 10
151.7166124580846
 20
158.0000000000002
 10
150.7266124581808
 20
158.0000000000002
 10
150.169988131155
 20
158.0000000000002
 10
148.726612458181
 20
160.5
 10
150.169988131155
 20
162.9999999999999
 10
150.7266124581808
 20
162.9999999999999
 10
151.716612458271
 20
163.0000000005046
 10
152.2166124587767
 20
163.500000000486
 10
154.1153624585947
 20
163.5000000004153
 10
156.0141124584126
 20
163.5000000003445
 10
157.9128624582305
 20
163.5000000002737
 10
158.1841124582138
 20
163.5000000002636
 10
158.4553624581971
 20
163.5000000002536
 10
158.7266124581804
 20
163.5000000002435
 10
158.7266124581804
 20
165.4999999999995
 10
157.7266124581799
 20
166.4999999999997
 10
148.826612458181
 20
166.4999999999998
 10
148.8266124581808
 20
163.4999999999998
 10
144.7266124581812
 20
163.4999999999997
 10
144.2266124581813
 20
162.9999999999999
 10
144.2266124581813
 20
158.0000000000003
 10
144.7266124581812
 20
157.5000000000002
 10
148.826612458181
 20
157.5000000000001
 10
148.8266124581808
 20
154.5000000000004
 10
157.7266124581804
 20
154.5000000000006
 97
        0
 75
     0
 76
     0
 52
0.0
 41
1.0
 77
     0
 78
     1
 53
45.0
 43
0.0
 44
0.0
 45
-1.25
 46
1.25
 79
     0
 98
        1
 10
0.0
 20
0.0
  0
MTEXT
  5
6506
330
64FE
100
AcDbEntity
  8
0
 62
     7
100
AcDbMText
 10
150.7329650266109
 20
273.752564102576
 30
0.0
 40
3.5
 41
0.0
 71
     1
 72
     1
  1
{\FIsonormD;A - A}
 73
     1
 44
1.0
  0
LINE
  5
6507
330
64FE
100
AcDbEntity
  8
0
  6
________________
 62
     7
370
     9
100
AcDbLine
 10
148.8266124581808
 20
158.0000000000002
 30
0.0
 11
148.8266124581808
 21
162.9999999999998
 31
0.0
  0
LINE
  5
6508
330
64FE
100
AcDbEntity
  8
0
  6
________________
 62
     7
370
     9
100
AcDbLine
 10
148.8266124581808
 20
163.0
 30
0.0
 11
148.8266124581808
 21
163.49999499
 31
0.0
  0
LINE
  5
6509
330
64FE
100
AcDbEntity
  8
0
  6
________________
 62
     7
370
     9
100
AcDbLine
 10
148.8266124581808
 20
157.50000501
 30
0.0
 11
148.8266124581808
 21
158.0
 31
0.0
  0
LINE
  5
650A
330
64FE
100
AcDbEntity
  8
0
  6
________________
 62
   253
370
     9
100
AcDbLine
 10
148.8266124581808
 20
158.0
 30
0.0
 11
148.3266324581805
 21
158.0
 31
0.0
  0
LINE
  5
650B
330
64FE
100
AcDbEntity
  8
0
  6
________________
 62
   253
370
     9
100
AcDbLine
 10
148.3266124581805
 20
158.0
 30
0.0
 11
144.2266124581814
 21
158.0
 31
0.0
  0
LINE
  5
650C
330
64FE
100
AcDbEntity
  8
0
  6
________________
 62
   253
370
     9
100
AcDbLine
 10
144.2266124581814
 20
163.0
 30
0.0
 11
148.3266124581805
 21
163.0
 31
0.0
  0
LINE
  5
650D
330
64FE
100
AcDbEntity
  8
0
  6
________________
 62
   253
370
     9
100
AcDbLine
 10
148.3266324581805
 20
163.0
 30
0.0
 11
148.8266124581808
 21
163.0
 31
0.0
  0
LINE
  5
650E
330
64FE
100
AcDbEntity
  8
0
  6
________________
 62
   253
370
     9
100
AcDbLine
 10
150.7266124581809
 20
163.49999499
 30
0.0
 11
152.2166074478036
 21
163.49999499
 31
0.0
  0
LINE
  5
650F
330
64FE
100
AcDbEntity
  8
0
  6
________________
 62
   253
370
     9
100
AcDbLine
 10
152.2166074478036
 20
163.49999499
 30
0.0
 11
158.7266074481802
 21
163.49999499
 31
0.0
  0
LINE
  5
6510
330
64FE
100
AcDbEntity
  8
0
  6
________________
 62
   253
370
     9
100
AcDbLine
 10
158.7266074481802
 20
157.50000501
 30
0.0
 11
152.216607448552
 21
157.50000501
 31
0.0
  0
LINE
  5
6511
330
64FE
100
AcDbEntity
  8
0
  6
________________
 62
   253
370
     9
100
AcDbLine
 10
152.216607448552
 20
157.50000501
 30
0.0
 11
150.7266124581809
 21
157.50000501
 31
0.0
  0
LINE
  5
6512
330
64FE
100
AcDbEntity
  8
0
  6
________________
 62
     7
370
     9
100
AcDbLine
 10
150.7266124581809
 20
157.50000501
 30
0.0
 11
150.7266124581809
 21
158.0000000000002
 31
0.0
  0
LINE
  5
6513
330
64FE
100
AcDbEntity
  8
0
  6
________________
 62
     7
370
     9
100
AcDbLine
 10
150.7266124581809
 20
158.0000000000002
 30
0.0
 11
150.7266124581809
 21
162.9999999999999
 31
0.0
  0
LINE
  5
6514
330
64FE
100
AcDbEntity
  8
0
  6
________________
 62
     7
370
     9
100
AcDbLine
 10
150.7266124581809
 20
162.9999999999999
 30
0.0
 11
150.7266124581809
 21
163.49999499
 31
0.0
  0
LINE
  5
6515
330
64FE
100
AcDbEntity
  8
0
  6
________________
 62
     7
370
     9
100
AcDbLine
 10
158.7266124579372
 20
157.5000000002434
 30
0.0
 11
152.2166124580661
 21
157.500000000486
 31
0.0
  0
LINE
  5
6516
330
64FE
100
AcDbEntity
  8
0
  6
________________
 62
     7
370
     9
100
AcDbLine
 10
152.2166124582896
 20
163.500000000486
 30
0.0
 11
158.7266124580572
 21
163.5000000002435
 31
0.0
  0
LINE
  5
6517
330
64FE
100
AcDbEntity
  8
0
  6
________________
 62
     7
370
     9
100
AcDbLine
 10
148.726612458181
 20
160.5
 30
0.0
 11
148.8266074481805
 21
160.6731964031815
 31
0.0
  0
LINE
  5
6518
330
64FE
100
AcDbEntity
  8
0
  6
________________
 62
     7
370
     9
100
AcDbLine
 10
148.8266074481805
 20
160.6731964031815
 30
0.0
 11
150.169988131155
 21
162.9999999999998
 31
0.0
  0
LINE
  5
6519
330
64FE
100
AcDbEntity
  8
0
  6
________________
 62
     7
370
     9
100
AcDbLine
 10
150.169988131155
 20
158.0000000000002
 30
0.0
 11
150.169988131155
 21
162.9999999999998
 31
0.0
  0
LINE
  5
651A
330
64FE
100
AcDbEntity
  8
0
  6
________________
 62
     7
370
     9
100
AcDbLine
 10
150.169988131155
 20
158.0000000000002
 30
0.0
 11
148.8266074481805
 21
160.3268035968185
 31
0.0
  0
LINE
  5
651B
330
64FE
100
AcDbEntity
  8
0
  6
________________
 62
     7
370
     9
100
AcDbLine
 10
148.8266074481805
 20
160.3268035968185
 30
0.0
 11
148.726612458181
 21
160.5
 31
0.0
  0
LINE
  5
651C
330
64FE
100
AcDbEntity
  8
0
  6
________________
 62
   253
370
     9
100
AcDbLine
 10
150.7266124581809
 20
158.0000000000002
 30
0.0
 11
150.7266124581809
 21
162.9999999999998
 31
0.0
  0
LINE
  5
651D
330
64FE
100
AcDbEntity
  8
0
  6
________________
 62
     7
370
     9
100
AcDbLine
 10
150.7266124581809
 20
162.9999999999999
 30
0.0
 11
151.716612458271
 21
163.0000000005046
 31
0.0
  0
LINE
  5
651E
330
64FE
100
AcDbEntity
  8
0
  6
________________
 62
     7
370
     9
100
AcDbLine
 10
151.7166124580847
 20
158.0000000005046
 30
0.0
 11
150.7266124581809
 21
158.0000000000002
 31
0.0
  0
LINE
  5
651F
330
64FE
100
AcDbEntity
  8
0
  6
________________
 62
     7
370
     9
100
AcDbLine
 10
158.7266124581804
 20
155.5000000000005
 30
0.0
 11
157.7266124581804
 21
154.5000000000006
 31
0.0
  0
LINE
  5
6520
330
64FE
100
AcDbEntity
  8
0
  6
________________
 62
     7
370
     9
100
AcDbLine
 10
157.7266124581804
 20
166.4999999999997
 30
0.0
 11
158.7266124581804
 21
165.4999999999995
 31
0.0
  0
LINE
  5
6521
330
64FE
100
AcDbEntity
  8
0
  6
________________
 62
     7
370
     9
100
AcDbLine
 10
150.169988131155
 20
162.9999999999998
 30
0.0
 11
150.7266124581809
 21
162.9999999999999
 31
0.0
  0
LINE
  5
6522
330
64FE
100
AcDbEntity
  8
0
  6
________________
 62
     7
370
     9
100
AcDbLine
 10
150.7266124581809
 20
158.0000000000002
 30
0.0
 11
150.169988131155
 21
158.0000000000002
 31
0.0
  0
LINE
  5
6523
330
64FE
100
AcDbEntity
  8
0
  6
________________
 62
     7
370
     9
100
AcDbLine
 10
148.826612458181
 20
154.5000000000004
 30
0.0
 11
157.7266124581804
 21
154.5000000000006
 31
0.0
  0
LINE
  5
6524
330
64FE
100
AcDbEntity
  8
0
  6
________________
 62
     7
370
     9
100
AcDbLine
 10
148.826612458181
 20
157.5000000000001
 30
0.0
 11
148.826612458181
 21
154.5000000000004
 31
0.0
  0
LINE
  5
6525
330
64FE
100
AcDbEntity
  8
0
  6
________________
 62
     7
370
     9
100
AcDbLine
 10
144.7266124581812
 20
157.5000000000002
 30
0.0
 11
148.826612458181
 21
157.5000000000001
 31
0.0
  0
LINE
  5
6526
330
64FE
100
AcDbEntity
  8
0
  6
________________
 62
     7
370
     9
100
AcDbLine
 10
144.2266124581813
 20
158.0000000000003
 30
0.0
 11
144.7266124581812
 21
157.5000000000002
 31
0.0
  0
LINE
  5
6527
330
64FE
100
AcDbEntity
  8
0
  6
________________
 62
     7
370
     9
100
AcDbLine
 10
144.2266124581813
 20
162.9999999999999
 30
0.0
 11
144.2266124581813
 21
158.0000000000003
 31
0.0
  0
LINE
  5
6528
330
64FE
100
AcDbEntity
  8
0
  6
________________
 62
     7
370
     9
100
AcDbLine
 10
144.7266124581812
 20
163.4999999999997
 30
0.0
 11
144.2266124581813
 21
162.9999999999999
 31
0.0
  0
LINE
  5
6529
330
64FE
100
AcDbEntity
  8
0
  6
________________
 62
     7
370
     9
100
AcDbLine
 10
148.826612458181
 20
163.4999999999998
 30
0.0
 11
144.7266124581812
 21
163.4999999999997
 31
0.0
  0
LINE
  5
652A
330
64FE
100
AcDbEntity
  8
0
  6
________________
 62
     7
370
     9
100
AcDbLine
 10
148.826612458181
 20
166.4999999999998
 30
0.0
 11
148.826612458181
 21
163.4999999999998
 31
0.0
  0
LINE
  5
652B
330
64FE
100
AcDbEntity
  8
0
  6
________________
 62
     7
370
     9
100
AcDbLine
 10
157.7266124581804
 20
166.4999999999997
 30
0.0
 11
148.826612458181
 21
166.4999999999998
 31
0.0
  0
LINE
  5
652C
330
64FE
100
AcDbEntity
  8
0
  6
________________
 62
     7
370
     9
100
AcDbLine
 10
158.7266124580572
 20
163.5000000002435
 30
0.0
 11
158.7266124581804
 21
165.4999999999995
 31
0.0
  0
LINE
  5
652D
330
64FE
100
AcDbEntity
  8
0
  6
________________
 62
     7
370
     9
100
AcDbLine
 10
152.2166124582896
 20
163.500000000486
 30
0.0
 11
151.716612458271
 21
163.0000000005046
 31
0.0
  0
LINE
  5
652E
330
64FE
100
AcDbEntity
  8
0
  6
________________
 62
     7
370
     9
100
AcDbLine
 10
151.7166124580847
 20
158.0000000005046
 30
0.0
 11
152.2166124580661
 21
157.500000000486
 31
0.0
  0
LINE
  5
652F
330
64FE
100
AcDbEntity
  8
0
  6
________________
 62
     7
370
     9
100
AcDbLine
 10
158.7266124581804
 20
155.5000000000005
 30
0.0
 11
158.7266124579372
 21
157.5000000002434
 31
0.0
  0
LINE
  5
6530
330
64FE
100
AcDbEntity
  8
0
  6
________________
 62
     7
370
     9
100
AcDbLine
 10
148.8266124581828
 20
253.0
 30
0.0
 11
148.8266124581828
 21
253.49999499
 31
0.0
  0
LINE
  5
6531
330
64FE
100
AcDbEntity
  8
0
  6
________________
 62
     7
370
     9
100
AcDbLine
 10
148.8266124581828
 20
248.0000000000014
 30
0.0
 11
148.8266124581828
 21
252.9999999999987
 31
0.0
  0
LINE
  5
6532
330
64FE
100
AcDbEntity
  8
0
  6
________________
 62
     7
370
     9
100
AcDbLine
 10
148.8266124581828
 20
247.50000501
 30
0.0
 11
148.8266124581828
 21
248.0
 31
0.0
  0
LINE
  5
6533
330
64FE
100
AcDbEntity
  8
0
  6
________________
 62
   253
370
     9
100
AcDbLine
 10
148.8266124581828
 20
248.0
 30
0.0
 11
148.3266324581805
 21
248.0
 31
0.0
  0
LINE
  5
6534
330
64FE
100
AcDbEntity
  8
0
  6
________________
 62
   253
370
     9
100
AcDbLine
 10
148.3266124581805
 20
248.0
 30
0.0
 11
144.2266124581868
 21
248.0
 31
0.0
  0
LINE
  5
6535
330
64FE
100
AcDbEntity
  8
0
  6
________________
 62
   253
370
     9
100
AcDbLine
 10
144.2266124581868
 20
253.0
 30
0.0
 11
148.3266124581805
 21
253.0
 31
0.0
  0
LINE
  5
6536
330
64FE
100
AcDbEntity
  8
0
  6
________________
 62
   253
370
     9
100
AcDbLine
 10
148.3266324581805
 20
253.0
 30
0.0
 11
148.8266124581828
 21
253.0
 31
0.0
  0
LINE
  5
6537
330
64FE
100
AcDbEntity
  8
0
  6
________________
 62
   253
370
     9
100
AcDbLine
 10
150.7266124581832
 20
253.49999499
 30
0.0
 11
152.2166074478334
 21
253.49999499
 31
0.0
  0
LINE
  5
6538
330
64FE
100
AcDbEntity
  8
0
  6
________________
 62
   253
370
     9
100
AcDbLine
 10
152.2166074478334
 20
253.49999499
 30
0.0
 11
158.7266074481783
 21
253.49999499
 31
0.0
  0
LINE
  5
6539
330
64FE
100
AcDbEntity
  8
0
  6
________________
 62
   253
370
     9
100
AcDbLine
 10
158.7266074481783
 20
247.50000501
 30
0.0
 11
152.2166074485276
 21
247.50000501
 31
0.0
  0
LINE
  5
653A
330
64FE
100
AcDbEntity
  8
0
  6
________________
 62
   253
370
     9
100
AcDbLine
 10
152.2166074485276
 20
247.50000501
 30
0.0
 11
150.7266124581832
 21
247.50000501
 31
0.0
  0
LINE
  5
653B
330
64FE
100
AcDbEntity
  8
0
  6
________________
 62
     7
370
     9
100
AcDbLine
 10
150.7266124581832
 20
247.50000501
 30
0.0
 11
150.7266124581832
 21
248.0000000000012
 31
0.0
  0
LINE
  5
653C
330
64FE
100
AcDbEntity
  8
0
  6
________________
 62
     7
370
     9
100
AcDbLine
 10
150.7266124581832
 20
248.0000000000012
 30
0.0
 11
150.7266124581832
 21
252.9999999999989
 31
0.0
  0
LINE
  5
653D
330
64FE
100
AcDbEntity
  8
0
  6
________________
 62
     7
370
     9
100
AcDbLine
 10
150.7266124581832
 20
252.9999999999989
 30
0.0
 11
150.7266124581832
 21
253.49999499
 31
0.0
  0
LINE
  5
653E
330
64FE
100
AcDbEntity
  8
0
  6
________________
 62
     7
370
     9
100
AcDbLine
 10
158.7266124579666
 20
247.5000000002146
 30
0.0
 11
152.2166124580672
 21
247.5000000004604
 31
0.0
  0
LINE
  5
653F
330
64FE
100
AcDbEntity
  8
0
  6
________________
 62
     7
370
     9
100
AcDbLine
 10
152.2166124582937
 20
253.5000000004603
 30
0.0
 11
158.7266124580571
 21
253.5000000002146
 31
0.0
  0
LINE
  5
6540
330
64FE
100
AcDbEntity
  8
0
  6
________________
 62
     7
370
     9
100
AcDbLine
 10
150.1699881311573
 20
248.0000000000015
 30
0.0
 11
150.1699881311573
 21
252.9999999999985
 31
0.0
  0
LINE
  5
6541
330
64FE
100
AcDbEntity
  8
0
  6
________________
 62
     7
370
     9
100
AcDbLine
 10
150.1699881311573
 20
252.9999999999983
 30
0.0
 11
150.726612458183
 21
252.9999999999989
 31
0.0
  0
LINE
  5
6542
330
64FE
100
AcDbEntity
  8
0
  6
________________
 62
   253
370
     9
100
AcDbLine
 10
150.726612458183
 20
248.0000000000015
 30
0.0
 11
150.726612458183
 21
252.9999999999985
 31
0.0
  0
LINE
  5
6543
330
64FE
100
AcDbEntity
  8
0
  6
________________
 62
     7
370
     9
100
AcDbLine
 10
150.726612458183
 20
248.0000000000012
 30
0.0
 11
150.1699881311573
 21
248.0000000000012
 31
0.0
  0
LINE
  5
6544
330
64FE
100
AcDbEntity
  8
0
  6
________________
 62
     7
370
     9
100
AcDbLine
 10
144.7266124581857
 20
247.5000000000014
 30
0.0
 11
148.8266124581839
 21
247.5000000000009
 31
0.0
  0
LINE
  5
6545
330
64FE
100
AcDbEntity
  8
0
  6
________________
 62
     7
370
     9
100
AcDbLine
 10
148.8266124581839
 20
253.4999999999986
 30
0.0
 11
144.7266124581857
 21
253.4999999999977
 31
0.0
  0
LINE
  5
6546
330
64FE
100
AcDbEntity
  8
0
  6
________________
 62
     7
370
     9
100
AcDbLine
 10
144.7266124581857
 20
253.4999999999977
 30
0.0
 11
144.226612458186
 21
252.9999999999993
 31
0.0
  0
LINE
  5
6547
330
64FE
100
AcDbEntity
  8
0
  6
________________
 62
     7
370
     9
100
AcDbLine
 10
144.226612458186
 20
248.0000000000019
 30
0.0
 11
144.7266124581857
 21
247.5000000000014
 31
0.0
  0
LINE
  5
6548
330
64FE
100
AcDbEntity
  8
0
  6
________________
 62
     7
370
     9
100
AcDbLine
 10
150.726612458183
 20
252.9999999999989
 30
0.0
 11
151.7166124582749
 21
253.0000000004793
 31
0.0
  0
LINE
  5
6549
330
64FE
100
AcDbEntity
  8
0
  6
________________
 62
     7
370
     9
100
AcDbLine
 10
151.7166124580861
 20
248.0000000004792
 30
0.0
 11
150.726612458183
 21
248.0000000000012
 31
0.0
  0
LINE
  5
654A
330
64FE
100
AcDbEntity
  8
0
  6
________________
 62
     7
370
     9
100
AcDbLine
 10
148.7266124581839
 20
250.5
 30
0.0
 11
148.8266074481805
 21
250.6731964031764
 31
0.0
  0
LINE
  5
654B
330
64FE
100
AcDbEntity
  8
0
  6
________________
 62
     7
370
     9
100
AcDbLine
 10
148.8266074481805
 20
250.6731964031764
 30
0.0
 11
150.1699881311573
 21
252.9999999999983
 31
0.0
  0
LINE
  5
654C
330
64FE
100
AcDbEntity
  8
0
  6
________________
 62
     7
370
     9
100
AcDbLine
 10
150.1699881311573
 20
248.0000000000012
 30
0.0
 11
148.8266074481805
 21
250.3268035968235
 31
0.0
  0
LINE
  5
654D
330
64FE
100
AcDbEntity
  8
0
  6
________________
 62
     7
370
     9
100
AcDbLine
 10
148.8266074481805
 20
250.3268035968235
 30
0.0
 11
148.7266124581839
 21
250.5
 31
0.0
  0
LINE
  5
654E
330
64FE
100
AcDbEntity
  8
0
  6
________________
 62
     7
370
     9
100
AcDbLine
 10
158.7266124581793
 20
245.5000000000038
 30
0.0
 11
157.7266124581797
 21
244.5000000000046
 31
0.0
  0
LINE
  5
654F
330
64FE
100
AcDbEntity
  8
0
  6
________________
 62
     7
370
     9
100
AcDbLine
 10
157.7266124581797
 20
256.4999999999973
 30
0.0
 11
158.7266124581793
 21
255.4999999999962
 31
0.0
  0
LINE
  5
6550
330
64FE
100
AcDbEntity
  8
0
  6
________________
 62
     7
370
     9
100
AcDbLine
 10
148.8266124581839
 20
244.5000000000028
 30
0.0
 11
157.7266124581797
 21
244.5000000000046
 31
0.0
  0
LINE
  5
6551
330
64FE
100
AcDbEntity
  8
0
  6
________________
 62
     7
370
     9
100
AcDbLine
 10
157.7266124581797
 20
256.4999999999973
 30
0.0
 11
148.8266124581839
 21
256.4999999999983
 31
0.0
  0
LINE
  5
6552
330
64FE
100
AcDbEntity
  8
0
  6
________________
 62
     7
370
     9
100
AcDbLine
 10
152.2166124582937
 20
253.5000000004603
 30
0.0
 11
151.7166124582749
 21
253.0000000004793
 31
0.0
  0
LINE
  5
6553
330
64FE
100
AcDbEntity
  8
0
  6
________________
 62
     7
370
     9
100
AcDbLine
 10
151.7166124580861
 20
248.0000000004792
 30
0.0
 11
152.2166124580672
 21
247.5000000004604
 31
0.0
  0
LINE
  5
6554
330
64FE
100
AcDbEntity
  8
0
  6
________________
 62
     7
370
     9
100
AcDbLine
 10
158.7266124580571
 20
253.5000000002146
 30
0.0
 11
158.7266124581793
 21
255.4999999999962
 31
0.0
  0
LINE
  5
6555
330
64FE
100
AcDbEntity
  8
0
  6
________________
 62
     7
370
     9
100
AcDbLine
 10
158.7266124581793
 20
245.5000000000038
 30
0.0
 11
158.7266124579666
 21
247.5000000002146
 31
0.0
  0
LINE
  5
6556
330
64FE
100
AcDbEntity
  8
0
  6
________________
 62
     7
370
     9
100
AcDbLine
 10
148.8266124581839
 20
247.5000000000009
 30
0.0
 11
148.8266124581839
 21
244.5000000000028
 31
0.0
  0
LINE
  5
6557
330
64FE
100
AcDbEntity
  8
0
  6
________________
 62
     7
370
     9
100
AcDbLine
 10
148.8266124581839
 20
256.4999999999983
 30
0.0
 11
148.8266124581839
 21
253.4999999999986
 31
0.0
  0
LINE
  5
6558
330
64FE
100
AcDbEntity
  8
0
  6
________________
 62
     7
370
     9
100
AcDbLine
 10
144.226612458186
 20
252.9999999999993
 30
0.0
 11
144.226612458186
 21
248.0000000000019
 31
0.0
  0
LINE
  5
6559
330
64FE
100
AcDbEntity
  8
0
  6
________________
 62
     7
370
     9
100
AcDbLine
 10
162.4166124581778
 20
160.500000000106
 30
0.0
 11
162.4166124581741
 21
160.3999628364952
 31
0.0
  0
LINE
  5
655A
330
64FE
100
AcDbEntity
  8
0
  6
________________
 62
     7
370
     9
100
AcDbLine
 10
162.4166124581741
 20
160.3999628364952
 30
0.0
 11
162.4166124580667
 21
157.5164293314465
 31
0.0
  0
LINE
  5
655B
330
64FE
100
AcDbEntity
  8
0
  6
________________
 62
     7
370
     9
100
AcDbLine
 10
162.4166124580667
 20
157.5164293314465
 30
0.0
 11
162.4166124580661
 21
157.499994990106
 31
0.0
  0
LINE
  5
655C
330
64FE
100
AcDbEntity
  8
0
  6
________________
 62
     7
370
     9
100
AcDbLine
 10
162.4166124582896
 20
163.500005010106
 30
0.0
 11
162.4166124581778
 21
160.500000000106
 31
0.0
  0
LINE
  5
655D
330
64FE
100
AcDbEntity
  8
0
  6
________________
 62
     7
370
     9
100
AcDbLine
 10
162.4166124582709
 20
163.000000000106
 30
0.0
 11
162.4166124581778
 21
160.500000000106
 31
0.0
  0
LINE
  5
655E
330
64FE
100
AcDbEntity
  8
0
  6
________________
 62
     7
370
     9
100
AcDbLine
 10
162.4166124582709
 20
163.000000000106
 30
0.0
 11
162.4166124582608
 21
162.7275163105769
 31
0.0
  0
LINE
  5
655F
330
64FE
100
AcDbEntity
  8
0
  6
________________
 62
     7
370
     9
100
AcDbLine
 10
162.4166124582608
 20
162.7275163105769
 30
0.0
 11
162.4166124582066
 21
161.2725424860434
 31
0.0
  0
LINE
  5
6560
330
64FE
100
AcDbEntity
  8
0
  6
________________
 62
     7
370
     9
100
AcDbLine
 10
162.4166124582066
 20
161.2725424860434
 30
0.0
 11
162.4166124582012
 21
161.1290307421767
 31
0.0
  0
LINE
  5
6561
330
64FE
100
AcDbEntity
  8
0
  6
________________
 62
     7
370
     9
100
AcDbLine
 10
162.4166124582012
 20
161.1290307421767
 30
0.0
 11
162.4166124581778
 21
160.500000000106
 31
0.0
  0
LINE
  5
6562
330
64FE
100
AcDbEntity
  8
0
  6
________________
 62
     7
370
     9
100
AcDbLine
 10
162.4166124581778
 20
160.500000000106
 30
0.0
 11
162.4166124580971
 21
158.3349364906449
 31
0.0
  0
LINE
  5
6563
330
64FE
100
AcDbEntity
  8
0
  6
________________
 62
   253
370
     9
100
AcDbLine
 10
162.4166124580847
 20
158.000000000106
 30
0.0
 11
162.4166124580948
 21
158.2724836896351
 31
0.0
  0
LINE
  5
6564
330
64FE
100
AcDbEntity
  8
0
  6
________________
 62
   253
370
     9
100
AcDbLine
 10
162.4166124580948
 20
158.2724836896351
 30
0.0
 11
162.4166124580971
 21
158.3349364906449
 31
0.0
  0
LINE
  5
6565
330
64FE
100
AcDbEntity
  8
0
  6
________________
 62
   253
370
     9
100
AcDbLine
 10
162.4166124582517
 20
162.4833834702237
 30
0.0
 11
162.4166124582709
 21
163.000000000106
 31
0.0
  0
LINE
  5
6566
330
64FE
100
AcDbEntity
  8
0
  6
________________
 62
   253
370
     9
100
AcDbLine
 10
162.4166124581925
 20
160.8940748903042
 30
0.0
 11
162.4166124582517
 21
162.4833834702237
 31
0.0
  0
LINE
  5
6567
330
64FE
100
AcDbEntity
  8
0
  6
________________
 62
   253
370
     9
100
AcDbLine
 10
162.4166124581778
 20
160.500000000106
 30
0.0
 11
162.4166124581925
 21
160.8940748903042
 31
0.0
  0
LINE
  5
6568
330
64FE
100
AcDbEntity
  8
0
  6
________________
 62
   253
370
     9
100
AcDbLine
 10
162.416612458176
 20
160.4499754830454
 30
0.0
 11
162.4166124581778
 21
160.500000000106
 31
0.0
  0
LINE
  5
6569
330
64FE
100
AcDbEntity
  8
0
  6
________________
 62
   253
370
     9
100
AcDbLine
 10
162.4166124581699
 20
160.2884818356111
 30
0.0
 11
162.416612458176
 21
160.4499754830454
 31
0.0
  0
LINE
  5
656A
330
64FE
100
AcDbEntity
  8
0
  6
________________
 62
   253
370
     9
100
AcDbLine
 10
162.4166124581675
 20
160.2233465985073
 30
0.0
 11
162.4166124581699
 21
160.2884818356111
 31
0.0
  0
LINE
  5
656B
330
64FE
100
AcDbEntity
  8
0
  6
________________
 62
   253
370
     9
100
AcDbLine
 10
162.4166124581651
 20
160.1584009658258
 30
0.0
 11
162.4166124581675
 21
160.2233465985073
 31
0.0
  0
LINE
  5
656C
330
64FE
100
AcDbEntity
  8
0
  6
________________
 62
   253
370
     9
100
AcDbLine
 10
162.4166124581631
 20
160.1059251095053
 30
0.0
 11
162.4166124581651
 21
160.1584009658258
 31
0.0
  0
LINE
  5
656D
330
64FE
100
AcDbEntity
  8
0
  6
________________
 62
   253
370
     9
100
AcDbLine
 10
162.4166124580847
 20
158.000000000106
 30
0.0
 11
162.4166124581631
 21
160.1059251095053
 31
0.0
  0
LINE
  5
656E
330
64FE
100
AcDbEntity
  8
0
  6
________________
 62
   253
370
     9
100
AcDbLine
 10
162.4166124581778
 20
160.500000000106
 30
0.0
 11
162.4166124581857
 21
160.7136401495536
 31
0.0
  0
LINE
  5
656F
330
64FE
100
AcDbEntity
  8
0
  6
________________
 62
   253
370
     9
100
AcDbLine
 10
162.4166124582585
 20
162.6650635095671
 30
0.0
 11
162.4166124582709
 21
163.000000000106
 31
0.0
  0
LINE
  5
6570
330
64FE
100
AcDbEntity
  8
0
  6
________________
 62
     7
370
     9
100
AcDbLine
 10
168.688108220165
 20
163.7032274719988
 30
0.0
 11
168.6881082201621
 21
163.625806493866
 31
0.0
  0
LINE
  5
6571
330
64FE
100
AcDbEntity
  8
0
  6
________________
 62
     7
370
     9
100
AcDbLine
 10
168.6881082199062
 20
159.7999999996625
 30
0.0
 11
169.0777791333951
 21
159.7999999998108
 31
0.0
  0
ARC
  5
6572
330
64FE
100
AcDbEntity
  8
0
  6
________________
 62
     7
370
     9
100
AcDbCircle
 10
-157.0920015956389
 20
160.4811419633097
 30
0.0
 40
12.00511630760067
210
0.0
220
0.0
230
-1.0
100
AcDbArc
 50
183.2525739806528
 51
194.9989906527398
  0
LINE
  5
6573
330
64FE
100
AcDbEntity
  8
0
  6
________________
 62
     7
370
     9
100
AcDbLine
 10
168.6881082199292
 20
157.3741935057849
 30
0.0
 11
168.6881082199263
 21
157.2967725277458
 31
0.0
  0
ARC
  5
6574
330
64FE
100
AcDbEntity
  8
0
  6
________________
 62
     7
370
     9
100
AcDbCircle
 10
-157.092024652374
 20
160.5188617409547
 30
0.0
 40
12.00509307786676
210
0.0
220
0.0
230
-1.0
100
AcDbArc
 50
165.0009979470326
 51
176.7474374282688
  0
LINE
  5
6575
330
64FE
100
AcDbEntity
  8
0
  6
________________
 62
     7
370
     9
100
AcDbLine
 10
169.0777791334472
 20
161.1999999998108
 30
0.0
 11
168.6881082199552
 21
161.1999999996626
 31
0.0
  0
LINE
  5
6576
330
64FE
100
AcDbEntity
  8
0
  6
________________
 62
     7
370
     9
100
AcDbLine
 10
168.6881082200717
 20
161.1999999996626
 30
0.0
 11
168.6881082200196
 21
159.7999999996629
 31
0.0
  0
LINE
  5
6577
330
64FE
100
AcDbEntity
  8
0
  6
________________
 62
     7
370
     9
100
AcDbLine
 10
167.7166124583883
 20
166.1499999999085
 30
0.0
 11
167.7166124579673
 21
154.8499999999085
 31
0.0
  0
LINE
  5
6578
330
64FE
100
AcDbEntity
  8
0
  6
________________
 62
     7
370
     9
100
AcDbLine
 10
167.0666124583883
 20
166.1499999999328
 30
0.0
 11
167.0666124579673
 21
154.8499999999327
 31
0.0
  0
LINE
  5
6579
330
64FE
100
AcDbEntity
  8
0
  6
________________
 62
     7
370
     9
100
AcDbLine
 10
164.4166124582896
 20
163.5000000000315
 30
0.0
 11
164.4166124580661
 21
157.5000000000315
 31
0.0
  0
LINE
  5
657A
330
64FE
100
AcDbEntity
  8
0
  6
________________
 62
     7
370
     9
100
AcDbLine
 10
152.2166124582896
 20
163.500000000486
 30
0.0
 11
152.2166124580661
 21
157.500000000486
 31
0.0
  0
LINE
  5
657B
330
64FE
100
AcDbEntity
  8
0
  6
________________
 62
     7
370
     9
100
AcDbLine
 10
151.7166124580847
 20
158.0000000005046
 30
0.0
 11
151.7166124581778
 21
160.5000000005046
 31
0.0
  0
LINE
  5
657C
330
64FE
100
AcDbEntity
  8
0
  6
________________
 62
     7
370
     9
100
AcDbLine
 10
151.7166124581778
 20
160.5000000005046
 30
0.0
 11
151.716612458271
 21
163.0000000005046
 31
0.0
  0
LINE
  5
657D
330
64FE
100
AcDbEntity
  8
0
  6
________________
 62
     7
370
     9
100
AcDbLine
 10
162.4166124581805
 20
250.5000000000753
 30
0.0
 11
162.4166124581767
 21
250.3999628364645
 31
0.0
  0
LINE
  5
657E
330
64FE
100
AcDbEntity
  8
0
  6
________________
 62
     7
370
     9
100
AcDbLine
 10
162.4166124581767
 20
250.3999628364645
 30
0.0
 11
162.4166124580697
 21
247.5655522973544
 31
0.0
  0
LINE
  5
657F
330
64FE
100
AcDbEntity
  8
0
  6
________________
 62
     7
370
     9
100
AcDbLine
 10
162.4166124580697
 20
247.5655522973544
 30
0.0
 11
162.4166124580674
 21
247.5038667717533
 31
0.0
  0
LINE
  5
6580
330
64FE
100
AcDbEntity
  8
0
  6
________________
 62
     7
370
     9
100
AcDbLine
 10
162.4166124580674
 20
247.5038667717533
 30
0.0
 11
162.4166124580672
 21
247.4999949900753
 31
0.0
  0
LINE
  5
6581
330
64FE
100
AcDbEntity
  8
0
  6
________________
 62
     7
370
     9
100
AcDbLine
 10
162.4166124582937
 20
253.5000050100753
 30
0.0
 11
162.4166124581805
 21
250.5000000000753
 31
0.0
  0
LINE
  5
6582
330
64FE
100
AcDbEntity
  8
0
  6
________________
 62
     7
370
     9
100
AcDbLine
 10
162.4166124582749
 20
253.0000000000753
 30
0.0
 11
162.4166124581805
 21
250.5000000000753
 31
0.0
  0
LINE
  5
6583
330
64FE
100
AcDbEntity
  8
0
  6
________________
 62
     7
370
     9
100
AcDbLine
 10
162.4166124582749
 20
253.0000000000753
 30
0.0
 11
162.4166124582622
 21
252.6650635095364
 31
0.0
  0
LINE
  5
6584
330
64FE
100
AcDbEntity
  8
0
  6
________________
 62
     7
370
     9
100
AcDbLine
 10
162.4166124582622
 20
252.6650635095364
 30
0.0
 11
162.4166124582137
 21
251.3803887396363
 31
0.0
  0
LINE
  5
6585
330
64FE
100
AcDbEntity
  8
0
  6
________________
 62
     7
370
     9
100
AcDbLine
 10
162.4166124582137
 20
251.3803887396363
 30
0.0
 11
162.4166124582062
 21
251.1804263518177
 31
0.0
  0
LINE
  5
6586
330
64FE
100
AcDbEntity
  8
0
  6
________________
 62
     7
370
     9
100
AcDbLine
 10
162.4166124582062
 20
251.1804263518177
 30
0.0
 11
162.4166124581805
 21
250.5000000000753
 31
0.0
  0
LINE
  5
6587
330
64FE
100
AcDbEntity
  8
0
  6
________________
 62
     7
370
     9
100
AcDbLine
 10
162.4166124581805
 20
250.5000000000753
 30
0.0
 11
162.4166124580987
 21
248.3349364906142
 31
0.0
  0
LINE
  5
6588
330
64FE
100
AcDbEntity
  8
0
  6
________________
 62
   253
370
     9
100
AcDbLine
 10
162.4166124580861
 20
248.0000000000753
 30
0.0
 11
162.4166124580987
 21
248.3349364906142
 31
0.0
  0
LINE
  5
6589
330
64FE
100
AcDbEntity
  8
0
  6
________________
 62
   253
370
     9
100
AcDbLine
 10
162.4166124582568
 20
252.5225426012885
 30
0.0
 11
162.4166124582749
 21
253.0000000000753
 31
0.0
  0
LINE
  5
658A
330
64FE
100
AcDbEntity
  8
0
  6
________________
 62
   253
370
     9
100
AcDbLine
 10
162.4166124581952
 20
250.8910861626759
 30
0.0
 11
162.4166124582568
 21
252.5225426012885
 31
0.0
  0
LINE
  5
658B
330
64FE
100
AcDbEntity
  8
0
  6
________________
 62
   253
370
     9
100
AcDbLine
 10
162.4166124581805
 20
250.5000000000753
 30
0.0
 11
162.4166124581952
 21
250.8910861626759
 31
0.0
  0
LINE
  5
658C
330
64FE
100
AcDbEntity
  8
0
  6
________________
 62
   253
370
     9
100
AcDbLine
 10
162.4166124581786
 20
250.4499754830147
 30
0.0
 11
162.4166124581805
 21
250.5000000000753
 31
0.0
  0
LINE
  5
658D
330
64FE
100
AcDbEntity
  8
0
  6
________________
 62
   253
370
     9
100
AcDbLine
 10
162.4166124581725
 20
250.2884818355804
 30
0.0
 11
162.4166124581786
 21
250.4499754830147
 31
0.0
  0
LINE
  5
658E
330
64FE
100
AcDbEntity
  8
0
  6
________________
 62
   253
370
     9
100
AcDbLine
 10
162.4166124581701
 20
250.2233465984766
 30
0.0
 11
162.4166124581725
 21
250.2884818355804
 31
0.0
  0
LINE
  5
658F
330
64FE
100
AcDbEntity
  8
0
  6
________________
 62
   253
370
     9
100
AcDbLine
 10
162.4166124581676
 20
250.1584009657951
 30
0.0
 11
162.4166124581701
 21
250.2233465984766
 31
0.0
  0
LINE
  5
6590
330
64FE
100
AcDbEntity
  8
0
  6
________________
 62
   253
370
     9
100
AcDbLine
 10
162.4166124581656
 20
250.1059251094746
 30
0.0
 11
162.4166124581676
 21
250.1584009657951
 31
0.0
  0
LINE
  5
6591
330
64FE
100
AcDbEntity
  8
0
  6
________________
 62
   253
370
     9
100
AcDbLine
 10
162.4166124580861
 20
248.0000000000753
 30
0.0
 11
162.4166124581656
 21
250.1059251094746
 31
0.0
  0
LINE
  5
6592
330
64FE
100
AcDbEntity
  8
0
  6
________________
 62
     7
370
     9
100
AcDbLine
 10
167.0666124583938
 20
256.1499999998997
 30
0.0
 11
167.0666124579672
 21
244.8499999998997
 31
0.0
  0
LINE
  5
6593
330
64FE
100
AcDbEntity
  8
0
  6
________________
 62
     7
370
     9
100
AcDbLine
 10
167.7166124583938
 20
256.1499999998752
 30
0.0
 11
167.7166124579672
 21
244.8499999998752
 31
0.0
  0
LINE
  5
6594
330
64FE
100
AcDbEntity
  8
0
  6
________________
 62
     7
370
     9
100
AcDbLine
 10
168.6881082201693
 20
253.703227471965
 30
0.0
 11
168.6881082201663
 21
253.6258064938322
 31
0.0
  0
LINE
  5
6595
330
64FE
100
AcDbEntity
  8
0
  6
________________
 62
     7
370
     9
100
AcDbLine
 10
168.6881082199069
 20
249.7999999996288
 30
0.0
 11
169.0777791333971
 21
249.7999999997768
 31
0.0
  0
ARC
  5
6596
330
64FE
100
AcDbEntity
  8
0
  6
________________
 62
     7
370
     9
100
AcDbCircle
 10
-157.0920015956431
 20
250.4811419632813
 30
0.0
 40
12.00511630759878
210
0.0
220
0.0
230
-1.0
100
AcDbArc
 50
183.2525739806809
 51
194.9989906527698
  0
LINE
  5
6597
330
64FE
100
AcDbEntity
  8
0
  6
________________
 62
     7
370
     9
100
AcDbLine
 10
168.6881082199303
 20
247.374193505751
 30
0.0
 11
168.6881082199274
 21
247.296772527712
 31
0.0
  0
ARC
  5
6598
330
64FE
100
AcDbEntity
  8
0
  6
________________
 62
     7
370
     9
100
AcDbCircle
 10
-157.0920246523761
 20
250.5188617409265
 30
0.0
 40
12.00509307786704
210
0.0
220
0.0
230
-1.0
100
AcDbArc
 50
165.000997947061
 51
176.747437428297
  0
LINE
  5
6599
330
64FE
100
AcDbEntity
  8
0
  6
________________
 62
     7
370
     9
100
AcDbLine
 10
169.0777791334499
 20
251.1999999997768
 30
0.0
 11
168.6881082199566
 21
251.1999999996288
 31
0.0
  0
LINE
  5
659A
330
64FE
100
AcDbEntity
  8
0
  6
________________
 62
     7
370
     9
100
AcDbLine
 10
168.6881082200747
 20
251.1999999996288
 30
0.0
 11
168.6881082200219
 21
249.7999999996291
 31
0.0
  0
LINE
  5
659B
330
64FE
100
AcDbEntity
  8
0
  6
________________
 62
     7
370
     9
100
AcDbLine
 10
164.4166124582937
 20
253.4999999999998
 30
0.0
 11
164.4166124580672
 21
247.4999999999998
 31
0.0
  0
LINE
  5
659C
330
64FE
100
AcDbEntity
  8
0
  6
________________
 62
     7
370
     9
100
AcDbLine
 10
152.2166124582937
 20
253.5000000004603
 30
0.0
 11
152.2166124580672
 21
247.5000000004604
 31
0.0
  0
LINE
  5
659D
330
64FE
100
AcDbEntity
  8
0
  6
________________
 62
     7
370
     9
100
AcDbLine
 10
151.7166124580861
 20
248.0000000004792
 30
0.0
 11
151.7166124581805
 21
250.5000000004792
 31
0.0
  0
LINE
  5
659E
330
64FE
100
AcDbEntity
  8
0
  6
________________
 62
     7
370
     9
100
AcDbLine
 10
151.7166124581805
 20
250.5000000004792
 30
0.0
 11
151.7166124582749
 21
253.0000000004793
 31
0.0
  0
LINE
  5
659F
330
64FE
100
AcDbEntity
  8
0
  6
________________
 62
     7
370
     9
100
AcDbLine
 10
167.6166124581767
 20
154.3000000000322
 30
0.0
 11
167.6266124581803
 21
154.3000000000315
 31
0.0
  0
LINE
  5
65A0
330
64FE
100
AcDbEntity
  8
0
  6
________________
 62
     7
370
     9
100
AcDbLine
 10
167.6166124581771
 20
166.1499999999145
 30
0.0
 11
167.6166124581767
 21
166.7000000000329
 31
0.0
  0
LINE
  5
65A1
330
64FE
100
AcDbEntity
  8
0
  6
________________
 62
     7
370
     9
100
AcDbLine
 10
167.6166124581804
 20
154.3000000000298
 30
0.0
 11
167.6166124581804
 21
154.8499999999101
 31
0.0
  0
LINE
  5
65A2
330
64FE
100
AcDbEntity
  8
0
  6
________________
 62
     7
370
     9
100
AcDbLine
 10
167.6266124581803
 20
166.70000000003
 30
0.0
 11
167.6166124581767
 21
166.7000000000308
 31
0.0
  0
LINE
  5
65A3
330
64FE
100
AcDbEntity
  8
0
  6
________________
 62
     7
370
     9
100
AcDbLine
 10
167.6266124581803
 20
154.8499999999097
 30
0.0
 11
167.6266124581803
 21
154.3000000000301
 31
0.0
  0
LINE
  5
65A4
330
64FE
100
AcDbEntity
  8
0
  6
________________
 62
     7
370
     9
100
AcDbLine
 10
167.6266124581803
 20
166.7000000000332
 30
0.0
 11
167.6266124581803
 21
166.1499999999141
 31
0.0
  0
LINE
  5
65A5
330
64FE
100
AcDbEntity
  8
0
  6
________________
 62
     7
370
     9
100
AcDbLine
 10
167.6166124581767
 20
244.3000000000007
 30
0.0
 11
167.6266124581803
 21
244.3000000000015
 31
0.0
  0
LINE
  5
65A6
330
64FE
100
AcDbEntity
  8
0
  6
________________
 62
     7
370
     9
100
AcDbLine
 10
167.6166124581771
 20
256.1499999998811
 30
0.0
 11
167.6166124581767
 21
256.7000000000014
 31
0.0
  0
LINE
  5
65A7
330
64FE
100
AcDbEntity
  8
0
  6
________________
 62
     7
370
     9
100
AcDbLine
 10
167.6166124581804
 20
244.2999999999983
 30
0.0
 11
167.6166124581804
 21
244.8499999998768
 31
0.0
  0
LINE
  5
65A8
330
64FE
100
AcDbEntity
  8
0
  6
________________
 62
     7
370
     9
100
AcDbLine
 10
167.6266124581803
 20
256.7
 30
0.0
 11
167.6166124581767
 21
256.6999999999992
 31
0.0
  0
LINE
  5
65A9
330
64FE
100
AcDbEntity
  8
0
  6
________________
 62
     7
370
     9
100
AcDbLine
 10
167.6266124581803
 20
244.8499999998764
 30
0.0
 11
167.6266124581803
 21
244.2999999999986
 31
0.0
  0
LINE
  5
65AA
330
64FE
100
AcDbEntity
  8
0
  6
________________
 62
     7
370
     9
100
AcDbLine
 10
167.6266124581803
 20
256.7000000000017
 30
0.0
 11
167.6266124581803
 21
256.1499999998808
 31
0.0
  0
LINE
  5
65AB
330
64FE
100
AcDbEntity
  8
0
  6
________________
 62
     7
370
     9
100
AcDbLine
 10
164.6166124581804
 20
163.7000000000315
 30
0.0
 11
167.0666124580792
 21
166.1499999999328
 31
0.0
  0
LINE
  5
65AC
330
64FE
100
AcDbEntity
  8
0
  6
________________
 62
     7
370
     9
100
AcDbLine
 10
167.0666124580792
 20
166.1499999999328
 30
0.0
 11
167.6166124581767
 21
166.7000000000308
 31
0.0
  0
LINE
  5
65AD
330
64FE
100
AcDbEntity
  8
0
  6
________________
 62
     7
370
     9
100
AcDbLine
 10
167.6166124581767
 20
154.3000000000322
 30
0.0
 11
167.0666124582769
 21
154.8499999999327
 31
0.0
  0
LINE
  5
65AE
330
64FE
100
AcDbEntity
  8
0
  6
________________
 62
     7
370
     9
100
AcDbLine
 10
167.0666124582769
 20
154.8499999999327
 30
0.0
 11
164.6166124581804
 21
157.3000000000322
 31
0.0
  0
LINE
  5
65AF
330
64FE
100
AcDbEntity
  8
0
  6
________________
 62
     7
370
     9
100
AcDbLine
 10
159.6266124581803
 20
163.7000000000307
 30
0.0
 11
164.6166124581804
 21
163.7000000000315
 31
0.0
  0
LINE
  5
65B0
330
64FE
100
AcDbEntity
  8
0
  6
________________
 62
     7
370
     9
100
AcDbLine
 10
164.6166124581804
 20
157.3000000000322
 30
0.0
 11
159.6266124581803
 21
157.3000000000315
 31
0.0
  0
LINE
  5
65B1
330
64FE
100
AcDbEntity
  8
0
  6
________________
 62
     7
370
     9
100
AcDbLine
 10
159.6266124581803
 20
163.5000000002111
 30
0.0
 11
159.6266124581803
 21
163.7000000000322
 31
0.0
  0
LINE
  5
65B2
330
64FE
100
AcDbEntity
  8
0
  6
________________
 62
     7
370
     9
100
AcDbLine
 10
159.6266124581803
 20
157.3000000000306
 30
0.0
 11
159.6266124581803
 21
157.5000000002088
 31
0.0
  0
LINE
  5
65B3
330
64FE
100
AcDbEntity
  8
0
  6
________________
 62
     7
370
     9
100
AcDbLine
 10
167.6266124581803
 20
145.5000000000368
 30
0.0
 11
159.6266124581803
 21
145.5000000000368
 31
0.0
  0
LINE
  5
65B4
330
64FE
100
AcDbEntity
  8
0
  6
________________
 62
     7
370
     9
100
AcDbLine
 10
159.6266124581803
 20
145.5000000000368
 30
0.0
 11
159.6266124581803
 21
146.5000000000472
 31
0.0
  0
LINE
  5
65B5
330
64FE
100
AcDbEntity
  8
0
  6
________________
 62
     7
370
     9
100
AcDbLine
 10
159.6266124581803
 20
146.5000000000472
 30
0.0
 11
159.6266124581803
 21
152.5000000000426
 31
0.0
  0
LINE
  5
65B6
330
64FE
100
AcDbEntity
  8
0
  6
________________
 62
     7
370
     9
100
AcDbLine
 10
159.6266124581803
 20
152.5000000000426
 30
0.0
 11
159.6266124581803
 21
157.3000000000315
 31
0.0
  0
LINE
  5
65B7
330
64FE
100
AcDbEntity
  8
0
  6
________________
 62
     7
370
     9
100
AcDbLine
 10
167.6266124581803
 20
145.5000000000368
 30
0.0
 11
167.6266124581803
 21
154.3000000000315
 31
0.0
  0
LINE
  5
65B8
330
64FE
100
AcDbEntity
  8
0
  6
________________
 62
     7
370
     9
100
AcDbLine
 10
166.1266124581803
 20
175.5000000000264
 30
0.0
 11
159.6266124581803
 21
175.5000000000262
 31
0.0
  0
ARC
  5
65B9
330
64FE
100
AcDbEntity
  8
0
  6
________________
 62
     7
370
     9
100
AcDbCircle
 10
-166.1266124581803
 20
174.0000000000268
 30
0.0
 40
1.499999999999641
210
0.0
220
0.0
230
-1.0
100
AcDbArc
 50
90.0
 51
180.0
  0
LINE
  5
65BA
330
64FE
100
AcDbEntity
  8
0
  6
________________
 62
     7
370
     9
100
AcDbLine
 10
159.6266124581803
 20
163.7000000000307
 30
0.0
 11
159.6266124581803
 21
168.5000000000401
 31
0.0
  0
LINE
  5
65BB
330
64FE
100
AcDbEntity
  8
0
  6
________________
 62
     7
370
     9
100
AcDbLine
 10
159.6266124581803
 20
168.5000000000401
 30
0.0
 11
159.6266124581803
 21
174.5000000000349
 31
0.0
  0
LINE
  5
65BC
330
64FE
100
AcDbEntity
  8
0
  6
________________
 62
     7
370
     9
100
AcDbLine
 10
159.6266124581803
 20
174.5000000000349
 30
0.0
 11
159.6266124581803
 21
175.5000000000262
 31
0.0
  0
LINE
  5
65BD
330
64FE
100
AcDbEntity
  8
0
  6
________________
 62
     7
370
     9
100
AcDbLine
 10
167.6266124581803
 20
166.70000000003
 30
0.0
 11
167.6266124581803
 21
174.0000000000268
 31
0.0
  0
LINE
  5
65BE
330
64FE
100
AcDbEntity
  8
0
  6
________________
 62
     7
370
     9
100
AcDbLine
 10
164.6166124581804
 20
253.7
 30
0.0
 11
167.0666124580777
 21
256.1499999998997
 31
0.0
  0
LINE
  5
65BF
330
64FE
100
AcDbEntity
  8
0
  6
________________
 62
     7
370
     9
100
AcDbLine
 10
167.0666124580777
 20
256.1499999998997
 30
0.0
 11
167.6166124581767
 21
256.6999999999992
 31
0.0
  0
LINE
  5
65C0
330
64FE
100
AcDbEntity
  8
0
  6
________________
 62
     7
370
     9
100
AcDbLine
 10
159.6266124581803
 20
253.6999999999992
 30
0.0
 11
164.6166124581804
 21
253.7
 31
0.0
  0
LINE
  5
65C1
330
64FE
100
AcDbEntity
  8
0
  6
________________
 62
     7
370
     9
100
AcDbLine
 10
159.6266124581803
 20
253.6999999999992
 30
0.0
 11
159.6266124581803
 21
258.4999999999973
 31
0.0
  0
LINE
  5
65C2
330
64FE
100
AcDbEntity
  8
0
  6
________________
 62
     7
370
     9
100
AcDbLine
 10
159.6266124581803
 20
258.4999999999973
 30
0.0
 11
159.6266124581803
 21
264.499999999994
 31
0.0
  0
LINE
  5
65C3
330
64FE
100
AcDbEntity
  8
0
  6
________________
 62
     7
370
     9
100
AcDbLine
 10
159.6266124581803
 20
264.499999999994
 30
0.0
 11
159.6266124581803
 21
265.4999999999947
 31
0.0
  0
LINE
  5
65C4
330
64FE
100
AcDbEntity
  8
0
  6
________________
 62
     7
370
     9
100
AcDbLine
 10
167.6266124581803
 20
256.7
 30
0.0
 11
167.6266124581803
 21
265.4999999999947
 31
0.0
  0
LINE
  5
65C5
330
64FE
100
AcDbEntity
  8
0
  6
________________
 62
     7
370
     9
100
AcDbLine
 10
159.6266124581803
 20
265.4999999999947
 30
0.0
 11
167.6266124581803
 21
265.4999999999947
 31
0.0
  0
LINE
  5
65C6
330
64FE
100
AcDbEntity
  8
0
  6
________________
 62
     7
370
     9
100
AcDbLine
 10
167.6166124581767
 20
244.3000000000007
 30
0.0
 11
167.0666124582783
 21
244.8499999998997
 31
0.0
  0
LINE
  5
65C7
330
64FE
100
AcDbEntity
  8
0
  6
________________
 62
     7
370
     9
100
AcDbLine
 10
167.0666124582783
 20
244.8499999998997
 30
0.0
 11
164.6166124581804
 21
247.3
 31
0.0
  0
LINE
  5
65C8
330
64FE
100
AcDbEntity
  8
0
  6
________________
 62
     7
370
     9
100
AcDbLine
 10
164.6166124581804
 20
247.3
 30
0.0
 11
159.6266124581803
 21
247.3000000000008
 31
0.0
  0
LINE
  5
65C9
330
64FE
100
AcDbEntity
  8
0
  6
________________
 62
     7
370
     9
100
AcDbLine
 10
159.6266124581803
 20
253.5000000001817
 30
0.0
 11
159.6266124581803
 21
253.7000000000008
 31
0.0
  0
LINE
  5
65CA
330
64FE
100
AcDbEntity
  8
0
  6
________________
 62
     7
370
     9
100
AcDbLine
 10
159.6266124581803
 20
247.2999999999992
 30
0.0
 11
159.6266124581803
 21
247.5000000001795
 31
0.0
  0
LINE
  5
65CB
330
64FE
100
AcDbEntity
  8
0
  6
________________
 62
     7
370
     9
100
AcDbLine
 10
159.6266124581803
 20
235.5000000000053
 30
0.0
 11
166.1266124581803
 21
235.5000000000053
 31
0.0
  0
ARC
  5
65CC
330
64FE
100
AcDbEntity
  8
0
  6
________________
 62
     7
370
     9
100
AcDbCircle
 10
-166.1266124581803
 20
237.0000000000047
 30
0.0
 40
1.499999999999668
210
0.0
220
0.0
230
-1.0
100
AcDbArc
 50
180.0
 51
270.0
  0
LINE
  5
65CD
330
64FE
100
AcDbEntity
  8
0
  6
________________
 62
     7
370
     9
100
AcDbLine
 10
159.6266124581803
 20
235.5000000000053
 30
0.0
 11
159.6266124581803
 21
236.5000000000063
 31
0.0
  0
LINE
  5
65CE
330
64FE
100
AcDbEntity
  8
0
  6
________________
 62
     7
370
     9
100
AcDbLine
 10
159.6266124581803
 20
236.5000000000063
 30
0.0
 11
159.6266124581803
 21
242.500000000001
 31
0.0
  0
LINE
  5
65CF
330
64FE
100
AcDbEntity
  8
0
  6
________________
 62
     7
370
     9
100
AcDbLine
 10
159.6266124581803
 20
242.500000000001
 30
0.0
 11
159.6266124581803
 21
247.3000000000008
 31
0.0
  0
LINE
  5
65D0
330
64FE
100
AcDbEntity
  8
0
  6
________________
 62
     7
370
     9
100
AcDbLine
 10
167.62661245818
 20
237.0000000000047
 30
0.0
 11
167.6266124581803
 21
244.3000000000015
 31
0.0
  0
LINE
  5
65D1
330
64FE
100
AcDbEntity
  8
0
  6
________________
 62
   253
370
     9
100
AcDbLine
 10
166.1266124581803
 20
235.5000000000101
 30
0.0
 11
166.1266124581803
 21
229.5000000000074
 31
0.0
  0
LINE
  5
65D2
330
64FE
100
AcDbEntity
  8
0
  6
________________
 62
   253
370
     9
100
AcDbLine
 10
166.1266124581803
 20
229.5000000000074
 30
0.0
 11
159.6266124581803
 21
229.5000000000073
 31
0.0
  0
LINE
  5
65D3
330
64FE
100
AcDbEntity
  8
0
  6
________________
 62
     7
370
     9
100
AcDbLine
 10
159.6266124581803
 20
229.5000000000073
 30
0.0
 11
159.6266124581803
 21
235.5000000000088
 31
0.0
  0
LINE
  5
65D4
330
64FE
100
AcDbEntity
  8
0
  6
________________
 62
   253
370
     9
100
AcDbLine
 10
166.1266124581803
 20
181.5000000000241
 30
0.0
 11
159.6266124581803
 21
181.5000000000241
 31
0.0
  0
LINE
  5
65D5
330
64FE
100
AcDbEntity
  8
0
  6
________________
 62
   253
370
     9
100
AcDbLine
 10
166.1266124581803
 20
181.5000000000241
 30
0.0
 11
166.1266124581803
 21
175.5000000000227
 31
0.0
  0
LINE
  5
65D6
330
64FE
100
AcDbEntity
  8
0
  6
________________
 62
     7
370
     9
100
AcDbLine
 10
159.6266124581803
 20
175.5000000000213
 30
0.0
 11
159.6266124581803
 21
181.5000000000241
 31
0.0
  0
LINE
  5
65D7
330
64FE
100
AcDbEntity
  8
0
  6
________________
 62
   253
370
     9
100
AcDbLine
 10
166.1266124581803
 20
181.5000000000241
 30
0.0
 11
167.6266124581795
 21
181.5000000000241
 31
0.0
  0
LINE
  5
65D8
330
64FE
100
AcDbEntity
  8
0
  6
________________
 62
     7
370
     9
100
AcDbLine
 10
167.6266124581803
 20
174.0000000000206
 30
0.0
 11
167.6266124581803
 21
181.5000000000241
 31
0.0
  0
LINE
  5
65D9
330
64FE
100
AcDbEntity
  8
0
  6
________________
 62
   253
370
     9
100
AcDbLine
 10
166.1266124581803
 20
229.5000000000074
 30
0.0
 11
167.6266124581795
 21
229.5000000000074
 31
0.0
  0
LINE
  5
65DA
330
64FE
100
AcDbEntity
  8
0
  6
________________
 62
     7
370
     9
100
AcDbLine
 10
167.6266124581803
 20
229.5000000000074
 30
0.0
 11
167.6266124581803
 21
237.0000000000091
 31
0.0
  0
LINE
  5
65DB
330
64FE
100
AcDbEntity
  8
0
  6
________________
 62
   253
370
     9
100
AcDbLine
 10
166.1266124581803
 20
181.5000000000241
 30
0.0
 11
166.1266124581803
 21
229.5000000000073
 31
0.0
  0
LINE
  5
65DC
330
64FE
100
AcDbEntity
  8
0
  6
________________
 62
     7
370
     9
100
AcDbLine
 10
167.6266124581803
 20
229.5000000000074
 30
0.0
 11
167.6266124581803
 21
181.5000000000242
 31
0.0
  0
LINE
  5
65DD
330
64FE
100
AcDbEntity
  8
0
  6
________________
 62
     7
370
     9
100
AcDbLine
 10
159.6266124581803
 20
229.5000000000073
 30
0.0
 11
159.6266124581803
 21
181.5000000000241
 31
0.0
  0
LINE
  5
65DE
330
64FE
100
AcDbEntity
  8
0
  6
________________
 62
     7
370
     9
100
AcDbLine
 10
159.6266124581803
 20
258.4999999999973
 30
0.0
 11
159.6266124581803
 21
264.499999999994
 31
0.0
  0
LINE
  5
65DF
330
64FE
100
AcDbEntity
  8
0
  6
________________
 62
     7
370
     9
100
AcDbLine
 10
159.6266224581963
 20
258.4999999999986
 30
0.0
 11
158.2266124581801
 21
258.4999999999816
 31
0.0
  0
LINE
  5
65E0
330
64FE
100
AcDbEntity
  8
0
  6
________________
 62
     7
370
     9
100
AcDbLine
 10
158.2266124581801
 20
258.4999999999816
 30
0.0
 11
158.2266124581803
 21
264.499999999994
 31
0.0
  0
LINE
  5
65E1
330
64FE
100
AcDbEntity
  8
0
  6
________________
 62
     7
370
     9
100
AcDbLine
 10
159.6266124581803
 20
264.499999999994
 30
0.0
 11
158.2266124581803
 21
264.499999999994
 31
0.0
  0
LINE
  5
65E2
330
64FE
100
AcDbEntity
  8
0
  6
________________
 62
     7
370
     9
100
AcDbLine
 10
159.6266124581803
 20
236.5000000000063
 30
0.0
 11
158.2266124581803
 21
236.5000000000063
 31
0.0
  0
LINE
  5
65E3
330
64FE
100
AcDbEntity
  8
0
  6
________________
 62
     7
370
     9
100
AcDbLine
 10
158.2266124581803
 20
236.5000000000063
 30
0.0
 11
158.2266124581803
 21
242.5000000000016
 31
0.0
  0
LINE
  5
65E4
330
64FE
100
AcDbEntity
  8
0
  6
________________
 62
     7
370
     9
100
AcDbLine
 10
158.2266124581803
 20
242.5000000000016
 30
0.0
 11
159.6266224581963
 21
242.500000000001
 31
0.0
  0
LINE
  5
65E5
330
64FE
100
AcDbEntity
  8
0
  6
________________
 62
     7
370
     9
100
AcDbLine
 10
159.6266124581803
 20
236.5000000000063
 30
0.0
 11
159.6266124581803
 21
242.5000000000023
 31
0.0
  0
LINE
  5
65E6
330
64FE
100
AcDbEntity
  8
0
  6
________________
 62
     7
370
     9
100
AcDbLine
 10
158.2266124581803
 20
146.5000000000472
 30
0.0
 11
158.2266124581803
 21
152.5000000000432
 31
0.0
  0
LINE
  5
65E7
330
64FE
100
AcDbEntity
  8
0
  6
________________
 62
     7
370
     9
100
AcDbLine
 10
158.2266124581803
 20
152.5000000000432
 30
0.0
 11
159.6266224581963
 21
152.5000000000426
 31
0.0
  0
LINE
  5
65E8
330
64FE
100
AcDbEntity
  8
0
  6
________________
 62
     7
370
     9
100
AcDbLine
 10
158.2266124581803
 20
146.5000000000472
 30
0.0
 11
159.6266124581803
 21
146.5000000000472
 31
0.0
  0
LINE
  5
65E9
330
64FE
100
AcDbEntity
  8
0
  6
________________
 62
     7
370
     9
100
AcDbLine
 10
159.6266124581803
 20
146.5000000000472
 30
0.0
 11
159.6266124581803
 21
152.5000000000438
 31
0.0
  0
LINE
  5
65EA
330
64FE
100
AcDbEntity
  8
0
  6
________________
 62
     7
370
     9
100
AcDbLine
 10
158.2266124581803
 20
154.9999999999971
 30
0.0
 11
158.2266124581803
 21
152.5000000000389
 31
0.0
  0
LINE
  5
65EB
330
64FE
100
AcDbEntity
  8
0
  6
________________
 62
     7
370
     9
100
AcDbLine
 10
158.2266124581803
 20
168.5000000000451
 30
0.0
 11
158.2266124581803
 21
166.0000000000029
 31
0.0
  0
LINE
  5
65EC
330
64FE
100
AcDbEntity
  8
0
  6
________________
 62
     7
370
     9
100
AcDbLine
 10
159.6266224581963
 20
168.5000000000401
 30
0.0
 11
158.2266124581801
 21
168.500000000037
 31
0.0
  0
LINE
  5
65ED
330
64FE
100
AcDbEntity
  8
0
  6
________________
 62
     7
370
     9
100
AcDbLine
 10
158.2266124581803
 20
245.0000000000016
 30
0.0
 11
158.2266124581803
 21
242.4999999999973
 31
0.0
  0
LINE
  5
65EE
330
64FE
100
AcDbEntity
  8
0
  6
________________
 62
     7
370
     9
100
AcDbLine
 10
158.2266124581803
 20
258.5000000000036
 30
0.0
 11
158.2266124581803
 21
255.9999999999984
 31
0.0
  0
LINE
  5
65EF
330
64FE
100
AcDbEntity
  8
0
  6
________________
 62
     7
370
     9
100
AcDbLine
 10
158.2266124581803
 20
174.5000000000349
 30
0.0
 11
159.6266124581803
 21
174.5000000000349
 31
0.0
  0
LINE
  5
65F0
330
64FE
100
AcDbEntity
  8
0
  6
________________
 62
     7
370
     9
100
AcDbLine
 10
158.2266124581801
 20
168.500000000037
 30
0.0
 11
158.2266124581803
 21
174.5000000000349
 31
0.0
  0
LINE
  5
65F1
330
64FE
100
AcDbEntity
  8
0
  6
________________
 62
     7
370
     9
100
AcDbLine
 10
159.6266124581803
 20
168.5000000000389
 30
0.0
 11
159.6266124581803
 21
174.5000000000349
 31
0.0
  0
LINE
  5
65F2
330
64FE
100
AcDbEntity
  8
0
  6
________________
 62
   253
370
     9
100
AcDbLine
 10
159.6266124581803
 20
229.5000000000095
 30
0.0
 11
158.2266124581803
 21
229.5000000000095
 31
0.0
  0
LINE
  5
65F3
330
64FE
100
AcDbEntity
  8
0
  6
________________
 62
     7
370
     9
100
AcDbLine
 10
158.2266124581803
 20
236.5000000000138
 30
0.0
 11
158.2266124581803
 21
229.5000000000095
 31
0.0
  0
LINE
  5
65F4
330
64FE
100
AcDbEntity
  8
0
  6
________________
 62
   253
370
     9
100
AcDbLine
 10
159.6266124581803
 20
181.5000000000317
 30
0.0
 11
158.2266124581803
 21
181.5000000000317
 31
0.0
  0
LINE
  5
65F5
330
64FE
100
AcDbEntity
  8
0
  6
________________
 62
     7
370
     9
100
AcDbLine
 10
158.2266124581803
 20
181.5000000000317
 30
0.0
 11
158.2266124581803
 21
174.5000000000295
 31
0.0
  0
LINE
  5
65F6
330
64FE
100
AcDbEntity
  8
0
  6
________________
 62
     7
370
     9
100
AcDbLine
 10
158.2266124581803
 20
181.5000000000317
 30
0.0
 11
158.2266124581803
 21
229.5000000000095
 31
0.0
  0
LINE
  5
65F7
330
64FE
100
AcDbEntity
  8
0
  6
________________
 62
     7
370
     9
100
AcDbLine
 10
148.8266124581804
 20
146.5
 30
0.0
 11
148.8266124581804
 21
152.5
 31
0.0
  0
LINE
  5
65F8
330
64FE
100
AcDbEntity
  8
0
  6
________________
 62
     7
370
     9
100
AcDbLine
 10
148.8266124581804
 20
152.5
 30
0.0
 11
150.2266224581964
 21
152.5
 31
0.0
  0
LINE
  5
65F9
330
64FE
100
AcDbEntity
  8
0
  6
________________
 62
     7
370
     9
100
AcDbLine
 10
150.2266124581804
 20
146.5
 30
0.0
 11
150.2266124581804
 21
152.5000000000001
 31
0.0
  0
LINE
  5
65FA
330
64FE
100
AcDbEntity
  8
0
  6
________________
 62
     7
370
     9
100
AcDbLine
 10
148.8266124581804
 20
146.5
 30
0.0
 11
150.2266124581804
 21
146.5
 31
0.0
  0
LINE
  5
65FB
330
64FE
100
AcDbEntity
  8
0
  6
________________
 62
     7
370
     9
100
AcDbLine
 10
150.2266224581964
 20
168.5000000000001
 30
0.0
 11
148.8266124581804
 21
168.5
 31
0.0
  0
LINE
  5
65FC
330
64FE
100
AcDbEntity
  8
0
  6
________________
 62
     7
370
     9
100
AcDbLine
 10
150.2266224581804
 20
154.5000000000004
 30
0.0
 11
150.2266224581804
 21
152.5000000000001
 31
0.0
  0
LINE
  5
65FD
330
64FE
100
AcDbEntity
  8
0
  6
________________
 62
     7
370
     9
100
AcDbLine
 10
150.2266224581804
 20
168.5
 30
0.0
 11
150.2266224581804
 21
166.4999999999997
 31
0.0
  0
LINE
  5
65FE
330
64FE
100
AcDbEntity
  8
0
  6
________________
 62
     7
370
     9
100
AcDbLine
 10
148.8266124581804
 20
242.4999999999999
 30
0.0
 11
150.2266224581964
 21
242.4999999999999
 31
0.0
  0
LINE
  5
65FF
330
64FE
100
AcDbEntity
  8
0
  6
________________
 62
     7
370
     9
100
AcDbLine
 10
150.2266224581964
 20
258.4999999999999
 30
0.0
 11
148.8266124581804
 21
258.4999999999999
 31
0.0
  0
LINE
  5
6600
330
64FE
100
AcDbEntity
  8
0
  6
________________
 62
     7
370
     9
100
AcDbLine
 10
150.2266224581804
 20
244.5000000000028
 30
0.0
 11
150.2266224581804
 21
242.4999999999999
 31
0.0
  0
LINE
  5
6601
330
64FE
100
AcDbEntity
  8
0
  6
________________
 62
     7
370
     9
100
AcDbLine
 10
150.2266224581804
 20
258.4999999999999
 30
0.0
 11
150.2266224581804
 21
256.4999999999973
 31
0.0
  0
LINE
  5
6602
330
64FE
100
AcDbEntity
  8
0
  6
________________
 62
     7
370
     9
100
AcDbLine
 10
148.8266124581804
 20
174.5
 30
0.0
 11
150.2266124581804
 21
174.5
 31
0.0
  0
LINE
  5
6603
330
64FE
100
AcDbEntity
  8
0
  6
________________
 62
     7
370
     9
100
AcDbLine
 10
150.2266124581804
 20
168.5
 30
0.0
 11
150.2266124581804
 21
174.5
 31
0.0
  0
LINE
  5
6604
330
64FE
100
AcDbEntity
  8
0
  6
________________
 62
     7
370
     9
100
AcDbLine
 10
148.8266124581804
 20
168.5
 30
0.0
 11
148.8266124581804
 21
174.5
 31
0.0
  0
LINE
  5
6605
330
64FE
100
AcDbEntity
  8
0
  6
________________
 62
     7
370
     9
100
AcDbLine
 10
150.2266124581804
 20
258.4999999999999
 30
0.0
 11
150.2266124581804
 21
264.4999999999999
 31
0.0
  0
LINE
  5
6606
330
64FE
100
AcDbEntity
  8
0
  6
________________
 62
     7
370
     9
100
AcDbLine
 10
148.8266124581804
 20
258.4999999999999
 30
0.0
 11
148.8266124581804
 21
264.4999999999999
 31
0.0
  0
LINE
  5
6607
330
64FE
100
AcDbEntity
  8
0
  6
________________
 62
     7
370
     9
100
AcDbLine
 10
150.2266124581804
 20
264.4999999999999
 30
0.0
 11
148.8266124581804
 21
264.4999999999999
 31
0.0
  0
LINE
  5
6608
330
64FE
100
AcDbEntity
  8
0
  6
________________
 62
     7
370
     9
100
AcDbLine
 10
150.2266124581804
 20
236.4999999999999
 30
0.0
 11
148.8266124581804
 21
236.4999999999999
 31
0.0
  0
LINE
  5
6609
330
64FE
100
AcDbEntity
  8
0
  6
________________
 62
     7
370
     9
100
AcDbLine
 10
148.8266124581804
 20
236.4999999999999
 30
0.0
 11
148.8266124581804
 21
242.4999999999999
 31
0.0
  0
LINE
  5
660A
330
64FE
100
AcDbEntity
  8
0
  6
________________
 62
     7
370
     9
100
AcDbLine
 10
150.2266124581804
 20
236.4999999999999
 30
0.0
 11
150.2266124581804
 21
242.4999999999999
 31
0.0
  0
LINE
  5
660B
330
64FE
100
AcDbEntity
  8
0
  6
________________
 62
   253
370
     9
100
AcDbLine
 10
150.2266124581804
 20
229.4999999999999
 30
0.0
 11
148.8266124581804
 21
229.4999999999999
 31
0.0
  0
LINE
  5
660C
330
64FE
100
AcDbEntity
  8
0
  6
________________
 62
     7
370
     9
100
AcDbLine
 10
150.2266124581804
 20
236.4999999999999
 30
0.0
 11
150.2266124581804
 21
229.4999999999999
 31
0.0
  0
LINE
  5
660D
330
64FE
100
AcDbEntity
  8
0
  6
________________
 62
   253
370
     9
100
AcDbLine
 10
150.2266124581804
 20
181.5
 30
0.0
 11
148.8266124581804
 21
181.5
 31
0.0
  0
LINE
  5
660E
330
64FE
100
AcDbEntity
  8
0
  6
________________
 62
     7
370
     9
100
AcDbLine
 10
148.8266124581804
 20
181.5
 30
0.0
 11
148.8266124581804
 21
175.5
 31
0.0
  0
LINE
  5
660F
330
64FE
100
AcDbEntity
  8
0
  6
________________
 62
     7
370
     9
100
AcDbLine
 10
150.2266124581804
 20
181.5
 30
0.0
 11
150.2266124581804
 21
174.5
 31
0.0
  0
LINE
  5
6610
330
64FE
100
AcDbEntity
  8
0
  6
________________
 62
     7
370
     9
100
AcDbLine
 10
150.2266124581804
 20
181.5
 30
0.0
 11
150.2266124581804
 21
229.4999999999999
 31
0.0
  0
LINE
  5
6611
330
64FE
100
AcDbEntity
  8
0
  6
________________
 62
     7
370
     9
100
AcDbLine
 10
143.3266124581805
 20
157.50000501
 30
0.0
 11
143.3266124581805
 21
158.0
 31
0.0
  0
LINE
  5
6612
330
64FE
100
AcDbEntity
  8
0
  6
________________
 62
     7
370
     9
100
AcDbLine
 10
143.3266124581805
 20
158.0
 30
0.0
 11
143.3266124581805
 21
163.0
 31
0.0
  0
LINE
  5
6613
330
64FE
100
AcDbEntity
  8
0
  6
________________
 62
     7
370
     9
100
AcDbLine
 10
143.3266124581805
 20
163.0
 30
0.0
 11
143.3266124581805
 21
163.49999499
 31
0.0
  0
LINE
  5
6614
330
64FE
100
AcDbEntity
  8
0
  6
________________
 62
   253
370
     9
100
AcDbLine
 10
143.3266124581805
 20
163.49999499
 30
0.0
 11
144.7265930958492
 21
163.49999499
 31
0.0
  0
LINE
  5
6615
330
64FE
100
AcDbEntity
  8
0
  6
________________
 62
   253
370
     9
100
AcDbLine
 10
144.7266124581812
 20
163.49999499
 30
0.0
 11
148.8266074481805
 21
163.49999499
 31
0.0
  0
LINE
  5
6616
330
64FE
100
AcDbEntity
  8
0
  6
________________
 62
   253
370
     9
100
AcDbLine
 10
148.8266074481805
 20
157.50000501
 30
0.0
 11
144.7266124581812
 21
157.50000501
 31
0.0
  0
LINE
  5
6617
330
64FE
100
AcDbEntity
  8
0
  6
________________
 62
   253
370
     9
100
AcDbLine
 10
144.7265930958492
 20
157.50000501
 30
0.0
 11
143.3266124581805
 21
157.50000501
 31
0.0
  0
LINE
  5
6618
330
64FE
100
AcDbEntity
  8
0
  6
________________
 62
     7
370
     9
100
AcDbLine
 10
143.3266124581805
 20
247.50000501
 30
0.0
 11
143.3266124581805
 21
248.0
 31
0.0
  0
LINE
  5
6619
330
64FE
100
AcDbEntity
  8
0
  6
________________
 62
     7
370
     9
100
AcDbLine
 10
143.3266124581805
 20
248.0
 30
0.0
 11
143.3266124581805
 21
253.0
 31
0.0
  0
LINE
  5
661A
330
64FE
100
AcDbEntity
  8
0
  6
________________
 62
     7
370
     9
100
AcDbLine
 10
143.3266124581805
 20
253.0
 30
0.0
 11
143.3266124581805
 21
253.49999499
 31
0.0
  0
LINE
  5
661B
330
64FE
100
AcDbEntity
  8
0
  6
________________
 62
   253
370
     9
100
AcDbLine
 10
143.3266124581805
 20
253.49999499
 30
0.0
 11
144.7265930958534
 21
253.49999499
 31
0.0
  0
LINE
  5
661C
330
64FE
100
AcDbEntity
  8
0
  6
________________
 62
   253
370
     9
100
AcDbLine
 10
144.7266124581857
 20
253.49999499
 30
0.0
 11
148.8266074481805
 21
253.49999499
 31
0.0
  0
LINE
  5
661D
330
64FE
100
AcDbEntity
  8
0
  6
________________
 62
   253
370
     9
100
AcDbLine
 10
148.8266074481805
 20
247.50000501
 30
0.0
 11
144.7266124581857
 21
247.50000501
 31
0.0
  0
LINE
  5
661E
330
64FE
100
AcDbEntity
  8
0
  6
________________
 62
   253
370
     9
100
AcDbLine
 10
144.7265930958534
 20
247.50000501
 30
0.0
 11
143.3266124581805
 21
247.50000501
 31
0.0
  0
LINE
  5
661F
330
64FE
100
AcDbEntity
  8
0
  6
________________
 62
     7
370
     9
100
AcDbLine
 10
148.8266124581805
 20
163.5
 30
0.0
 11
148.3266124581805
 21
163.0
 31
0.0
  0
LINE
  5
6620
330
64FE
100
AcDbEntity
  8
0
  6
________________
 62
     7
370
     9
100
AcDbLine
 10
148.3266124581805
 20
158.0
 30
0.0
 11
148.8266124581805
 21
157.5
 31
0.0
  0
LINE
  5
6621
330
64FE
100
AcDbEntity
  8
0
  6
________________
 62
     7
370
     9
100
AcDbLine
 10
142.3266124581805
 20
253.0
 30
0.0
 11
143.3266124581805
 21
253.0
 31
0.0
  0
LINE
  5
6622
330
64FE
100
AcDbEntity
  8
0
  6
________________
 62
   253
370
     9
100
AcDbLine
 10
143.3266124581805
 20
248.0
 30
0.0
 11
143.3266124581805
 21
253.0
 31
0.0
  0
LINE
  5
6623
330
64FE
100
AcDbEntity
  8
0
  6
________________
 62
     7
370
     9
100
AcDbLine
 10
143.3266124581805
 20
248.0
 30
0.0
 11
142.3266124581805
 21
248.0
 31
0.0
  0
LINE
  5
6624
330
64FE
100
AcDbEntity
  8
0
  6
________________
 62
   253
370
     9
100
AcDbLine
 10
143.3266124581805
 20
158.0
 30
0.0
 11
143.3266124581805
 21
163.0
 31
0.0
  0
LINE
  5
6625
330
64FE
100
AcDbEntity
  8
0
  6
________________
 62
     7
370
     9
100
AcDbLine
 10
143.3266124581805
 20
163.0
 30
0.0
 11
144.2265924581813
 21
163.0
 31
0.0
  0
LINE
  5
6626
330
64FE
100
AcDbEntity
  8
0
  6
________________
 62
     7
370
     9
100
AcDbLine
 10
144.2266124581814
 20
163.0
 30
0.0
 11
148.3266124581805
 21
163.0
 31
0.0
  0
LINE
  5
6627
330
64FE
100
AcDbEntity
  8
0
  6
________________
 62
     7
370
     9
100
AcDbLine
 10
148.3266124581805
 20
158.0
 30
0.0
 11
144.2266124581814
 21
158.0
 31
0.0
  0
LINE
  5
6628
330
64FE
100
AcDbEntity
  8
0
  6
________________
 62
     7
370
     9
100
AcDbLine
 10
144.2265924581813
 20
158.0
 30
0.0
 11
143.3266124581805
 21
158.0
 31
0.0
  0
LINE
  5
6629
330
64FE
100
AcDbEntity
  8
0
  6
________________
 62
     7
370
     9
100
AcDbLine
 10
148.8266124581805
 20
253.5
 30
0.0
 11
148.3266124581805
 21
253.0
 31
0.0
  0
LINE
  5
662A
330
64FE
100
AcDbEntity
  8
0
  6
________________
 62
     7
370
     9
100
AcDbLine
 10
148.3266124581805
 20
248.0
 30
0.0
 11
148.8266124581805
 21
247.5
 31
0.0
  0
LINE
  5
662B
330
64FE
100
AcDbEntity
  8
0
  6
________________
 62
     7
370
     9
100
AcDbLine
 10
142.3266124581805
 20
163.0
 30
0.0
 11
143.3266124581805
 21
163.0
 31
0.0
  0
LINE
  5
662C
330
64FE
100
AcDbEntity
  8
0
  6
________________
 62
     7
370
     9
100
AcDbLine
 10
143.3266124581805
 20
158.0
 30
0.0
 11
142.3266124581805
 21
158.0
 31
0.0
  0
LINE
  5
662D
330
64FE
100
AcDbEntity
  8
0
  6
________________
 62
     7
370
     9
100
AcDbLine
 10
148.8266124581805
 20
247.5
 30
0.0
 11
148.8266124581805
 21
244.5000000000028
 31
0.0
  0
LINE
  5
662E
330
64FE
100
AcDbEntity
  8
0
  6
________________
 62
     7
370
     9
100
AcDbLine
 10
148.8266124581805
 20
244.5000000000028
 30
0.0
 11
148.8266124581804
 21
242.4999999999999
 31
0.0
  0
LINE
  5
662F
330
64FE
100
AcDbEntity
  8
0
  6
________________
 62
     7
370
     9
100
AcDbLine
 10
148.8266124581804
 20
242.4999999999999
 30
0.0
 11
148.8266124581805
 21
236.4999999999999
 31
0.0
  0
LINE
  5
6630
330
64FE
100
AcDbEntity
  8
0
  6
________________
 62
     7
370
     9
100
AcDbLine
 10
148.8266124581805
 20
236.4999999999999
 30
0.0
 11
148.8266124581805
 21
235.5
 31
0.0
  0
LINE
  5
6631
330
64FE
100
AcDbEntity
  8
0
  6
________________
 62
     7
370
     9
100
AcDbLine
 10
140.8266124581805
 20
265.5
 30
0.0
 11
148.8266124581805
 21
265.5
 31
0.0
  0
LINE
  5
6632
330
64FE
100
AcDbEntity
  8
0
  6
________________
 62
     7
370
     9
100
AcDbLine
 10
148.8266124581805
 20
265.5
 30
0.0
 11
148.8266124581805
 21
264.4999999999999
 31
0.0
  0
LINE
  5
6633
330
64FE
100
AcDbEntity
  8
0
  6
________________
 62
     7
370
     9
100
AcDbLine
 10
148.8266124581805
 20
264.4999999999999
 30
0.0
 11
148.8266124581805
 21
258.4999999999999
 31
0.0
  0
LINE
  5
6634
330
64FE
100
AcDbEntity
  8
0
  6
________________
 62
     7
370
     9
100
AcDbLine
 10
148.8266124581805
 20
258.4999999999999
 30
0.0
 11
148.8266124581805
 21
256.4999999999983
 31
0.0
  0
LINE
  5
6635
330
64FE
100
AcDbEntity
  8
0
  6
________________
 62
     7
370
     9
100
AcDbLine
 10
148.8266124581805
 20
256.4999999999983
 30
0.0
 11
148.8266124581805
 21
253.5
 31
0.0
  0
LINE
  5
6636
330
64FE
100
AcDbEntity
  8
0
  6
________________
 62
     7
370
     9
100
AcDbLine
 10
143.3266124581805
 20
253.0
 30
0.0
 11
144.2265924581868
 21
253.0
 31
0.0
  0
LINE
  5
6637
330
64FE
100
AcDbEntity
  8
0
  6
________________
 62
     7
370
     9
100
AcDbLine
 10
144.2266124581868
 20
253.0
 30
0.0
 11
148.3266124581805
 21
253.0
 31
0.0
  0
LINE
  5
6638
330
64FE
100
AcDbEntity
  8
0
  6
________________
 62
     7
370
     9
100
AcDbLine
 10
142.3266124581805
 20
248.0
 30
0.0
 11
142.3266124581805
 21
253.0
 31
0.0
  0
LINE
  5
6639
330
64FE
100
AcDbEntity
  8
0
  6
________________
 62
     7
370
     9
100
AcDbLine
 10
148.3266124581805
 20
248.0
 30
0.0
 11
144.2266124581868
 21
248.0
 31
0.0
  0
LINE
  5
663A
330
64FE
100
AcDbEntity
  8
0
  6
________________
 62
     7
370
     9
100
AcDbLine
 10
144.2265924581868
 20
248.0
 30
0.0
 11
143.3266124581805
 21
248.0
 31
0.0
  0
ARC
  5
663B
330
64FE
100
AcDbEntity
  8
0
  6
________________
 62
     7
370
     9
100
AcDbCircle
 10
-142.3266124581805
 20
237.0
 30
0.0
 40
1.500000000000001
210
0.0
220
0.0
230
-1.0
100
AcDbArc
 50
270.0
 51
0.0
  0
LINE
  5
663C
330
64FE
100
AcDbEntity
  8
0
  6
________________
 62
     7
370
     9
100
AcDbLine
 10
142.3266124581805
 20
235.5
 30
0.0
 11
148.8266124581805
 21
235.5
 31
0.0
  0
LINE
  5
663D
330
64FE
100
AcDbEntity
  8
0
  6
________________
 62
     7
370
     9
100
AcDbLine
 10
140.8266124581805
 20
265.5
 30
0.0
 11
140.8266124581805
 21
237.0
 31
0.0
  0
LINE
  5
663E
330
64FE
100
AcDbEntity
  8
0
  6
________________
 62
     7
370
     9
100
AcDbLine
 10
148.8266124581805
 20
157.5
 30
0.0
 11
148.8266124581805
 21
154.5000000000004
 31
0.0
  0
LINE
  5
663F
330
64FE
100
AcDbEntity
  8
0
  6
________________
 62
     7
370
     9
100
AcDbLine
 10
148.8266124581805
 20
154.5000000000004
 30
0.0
 11
148.8266124581805
 21
152.5
 31
0.0
  0
LINE
  5
6640
330
64FE
100
AcDbEntity
  8
0
  6
________________
 62
     7
370
     9
100
AcDbLine
 10
148.8266124581805
 20
152.5
 30
0.0
 11
148.8266124581805
 21
146.5
 31
0.0
  0
LINE
  5
6641
330
64FE
100
AcDbEntity
  8
0
  6
________________
 62
     7
370
     9
100
AcDbLine
 10
148.8266124581805
 20
146.5
 30
0.0
 11
148.8266124581805
 21
145.5
 31
0.0
  0
LINE
  5
6642
330
64FE
100
AcDbEntity
  8
0
  6
________________
 62
     7
370
     9
100
AcDbLine
 10
148.8266124581805
 20
175.5
 30
0.0
 11
148.8266124581804
 21
174.5
 31
0.0
  0
LINE
  5
6643
330
64FE
100
AcDbEntity
  8
0
  6
________________
 62
     7
370
     9
100
AcDbLine
 10
148.8266124581804
 20
174.5
 30
0.0
 11
148.8266124581805
 21
168.5
 31
0.0
  0
LINE
  5
6644
330
64FE
100
AcDbEntity
  8
0
  6
________________
 62
     7
370
     9
100
AcDbLine
 10
148.8266124581805
 20
168.5
 30
0.0
 11
148.8266124581805
 21
166.4999999999998
 31
0.0
  0
LINE
  5
6645
330
64FE
100
AcDbEntity
  8
0
  6
________________
 62
     7
370
     9
100
AcDbLine
 10
148.8266124581805
 20
166.4999999999998
 30
0.0
 11
148.8266124581805
 21
163.5
 31
0.0
  0
LINE
  5
6646
330
64FE
100
AcDbEntity
  8
0
  6
________________
 62
     7
370
     9
100
AcDbLine
 10
148.8266124581805
 20
145.5
 30
0.0
 11
140.8266124581805
 21
145.5
 31
0.0
  0
LINE
  5
6647
330
64FE
100
AcDbEntity
  8
0
  6
________________
 62
     7
370
     9
100
AcDbLine
 10
142.3266124581805
 20
158.0
 30
0.0
 11
142.3266124581805
 21
163.0
 31
0.0
  0
ARC
  5
6648
330
64FE
100
AcDbEntity
  8
0
  6
________________
 62
     7
370
     9
100
AcDbCircle
 10
-142.3266124581805
 20
174.0
 30
0.0
 40
1.500000000000001
210
0.0
220
0.0
230
-1.0
100
AcDbArc
 50
0.0
 51
90.0
  0
LINE
  5
6649
330
64FE
100
AcDbEntity
  8
0
  6
________________
 62
     7
370
     9
100
AcDbLine
 10
140.8266124581805
 20
174.0
 30
0.0
 11
140.8266124581805
 21
145.5
 31
0.0
  0
LINE
  5
664A
330
64FE
100
AcDbEntity
  8
0
  6
________________
 62
     7
370
     9
100
AcDbLine
 10
148.8266124581805
 20
175.5
 30
0.0
 11
142.3266124581805
 21
175.5
 31
0.0
  0
LINE
  5
664B
330
64FE
100
AcDbEntity
  8
0
  6
________________
 62
   253
370
     9
100
AcDbLine
 10
140.8266124581805
 20
181.5
 30
0.0
 11
142.3266124581805
 21
181.5
 31
0.0
  0
LINE
  5
664C
330
64FE
100
AcDbEntity
  8
0
  6
________________
 62
   253
370
     9
100
AcDbLine
 10
142.3266124581805
 20
175.5
 30
0.0
 11
142.3266124581805
 21
181.5
 31
0.0
  0
LINE
  5
664D
330
64FE
100
AcDbEntity
  8
0
  6
________________
 62
     7
370
     9
100
AcDbLine
 10
140.8266124581805
 20
181.5
 30
0.0
 11
140.8266124581805
 21
174.0
 31
0.0
  0
LINE
  5
664E
330
64FE
100
AcDbEntity
  8
0
  6
________________
 62
   253
370
     9
100
AcDbLine
 10
142.3266124581805
 20
181.5
 30
0.0
 11
148.8266124581805
 21
181.5
 31
0.0
  0
LINE
  5
664F
330
64FE
100
AcDbEntity
  8
0
  6
________________
 62
   253
370
     9
100
AcDbLine
 10
142.3266124581805
 20
229.5
 30
0.0
 11
142.3266124581805
 21
235.5
 31
0.0
  0
LINE
  5
6650
330
64FE
100
AcDbEntity
  8
0
  6
________________
 62
   253
370
     9
100
AcDbLine
 10
140.8266124581805
 20
229.5
 30
0.0
 11
142.3266124581805
 21
229.5
 31
0.0
  0
LINE
  5
6651
330
64FE
100
AcDbEntity
  8
0
  6
________________
 62
     7
370
     9
100
AcDbLine
 10
140.8266124581805
 20
237.0
 30
0.0
 11
140.8266124581805
 21
229.5
 31
0.0
  0
LINE
  5
6652
330
64FE
100
AcDbEntity
  8
0
  6
________________
 62
   253
370
     9
100
AcDbLine
 10
142.3266124581805
 20
229.5
 30
0.0
 11
148.8266124581805
 21
229.5
 31
0.0
  0
LINE
  5
6653
330
64FE
100
AcDbEntity
  8
0
  6
________________
 62
     7
370
     9
100
AcDbLine
 10
148.8266124581805
 20
235.5
 30
0.0
 11
148.8266124581805
 21
229.5
 31
0.0
  0
LINE
  5
6654
330
64FE
100
AcDbEntity
  8
0
  6
________________
 62
   253
370
     9
100
AcDbLine
 10
142.3266124581805
 20
229.5
 30
0.0
 11
142.3266124581805
 21
181.5
 31
0.0
  0
LINE
  5
6655
330
64FE
100
AcDbEntity
  8
0
  6
________________
 62
     7
370
     9
100
AcDbLine
 10
140.8266124581805
 20
181.5
 30
0.0
 11
140.8266124581805
 21
229.5
 31
0.0
  0
LINE
  5
6656
330
64FE
100
AcDbEntity
  8
0
  6
________________
 62
     7
370
     9
100
AcDbLine
 10
148.8266124581805
 20
181.5
 30
0.0
 11
148.8266124581805
 21
229.5
 31
0.0
  0
LINE
  5
6657
330
64FE
100
AcDbEntity
  8
0
  6
________________
 62
   253
370
     9
100
AcDbLine
 10
162.4166124582709
 20
163.000000000106
 30
0.0
 11
158.7266124581804
 21
163.0000000002435
 31
0.0
  0
LINE
  5
6658
330
64FE
100
AcDbEntity
  8
0
  6
________________
 62
   253
370
     9
100
AcDbLine
 10
158.7266124581804
 20
163.0000000002435
 30
0.0
 11
151.716612458271
 21
163.0000000005046
 31
0.0
  0
LINE
  5
6659
330
64FE
100
AcDbEntity
  8
0
  6
________________
 62
   253
370
     9
100
AcDbLine
 10
151.7166124580847
 20
158.0000000005046
 30
0.0
 11
158.7266124581804
 21
158.0000000002434
 31
0.0
  0
LINE
  5
665A
330
64FE
100
AcDbEntity
  8
0
  6
________________
 62
   253
370
     9
100
AcDbLine
 10
158.7266124581804
 20
158.0000000002434
 30
0.0
 11
162.4166124580847
 21
158.000000000106
 31
0.0
  0
ARC
  5
665B
330
64FE
100
AcDbEntity
  8
0
  6
________________
 62
     7
370
     9
100
AcDbCircle
 10
157.1166385133257
 20
160.5250064564461
 30
0.0
 40
12.0
100
AcDbArc
 50
15.35814402449938
 51
27.95315198401154
  0
ARC
  5
665C
330
64FE
100
AcDbEntity
  8
0
  6
________________
 62
     7
370
     9
100
AcDbCircle
 10
157.1166385133239
 20
160.4749935441608
 30
0.0
 40
11.99999999999999
100
AcDbArc
 50
332.0468480117196
 51
344.6418559712317
  0
LINE
  5
665D
330
64FE
100
AcDbEntity
  8
0
  6
________________
 62
     7
370
     9
100
AcDbLine
 10
167.7166124583883
 20
166.1499999999085
 30
0.0
 11
167.0666124583883
 21
166.1499999999328
 31
0.0
  0
LINE
  5
665E
330
64FE
100
AcDbEntity
  8
0
  6
________________
 62
     7
370
     9
100
AcDbLine
 10
167.0666124579673
 20
154.8499999999327
 30
0.0
 11
167.7166124579673
 21
154.8499999999085
 31
0.0
  0
LINE
  5
665F
330
64FE
100
AcDbEntity
  8
0
  6
________________
 62
     7
370
     9
100
AcDbLine
 10
167.0666124583883
 20
166.1499999999328
 30
0.0
 11
164.4166124582896
 21
163.5000000000315
 31
0.0
  0
LINE
  5
6660
330
64FE
100
AcDbEntity
  8
0
  6
________________
 62
     7
370
     9
100
AcDbLine
 10
164.4166124580661
 20
157.5000000000315
 30
0.0
 11
167.0666124579673
 21
154.8499999999327
 31
0.0
  0
LINE
  5
6661
330
64FE
100
AcDbEntity
  8
0
  6
________________
 62
     7
370
     9
100
AcDbLine
 10
162.4166124582896
 20
163.500000000106
 30
0.0
 11
158.726681053228
 21
163.5000000002435
 31
0.0
  0
LINE
  5
6662
330
64FE
100
AcDbEntity
  8
0
  6
________________
 62
     7
370
     9
100
AcDbLine
 10
158.7266124581804
 20
163.5000000002435
 30
0.0
 11
152.2166124582896
 21
163.500000000486
 31
0.0
  0
LINE
  5
6663
330
64FE
100
AcDbEntity
  8
0
  6
________________
 62
     7
370
     9
100
AcDbLine
 10
152.2166124580661
 20
157.500000000486
 30
0.0
 11
158.7266124581804
 21
157.5000000002434
 31
0.0
  0
LINE
  5
6664
330
64FE
100
AcDbEntity
  8
0
  6
________________
 62
     7
370
     9
100
AcDbLine
 10
158.7266810531079
 20
157.5000000002434
 30
0.0
 11
162.4166124580661
 21
157.500000000106
 31
0.0
  0
LINE
  5
6665
330
64FE
100
AcDbEntity
  8
0
  6
________________
 62
     7
370
     9
100
AcDbLine
 10
164.4166124582896
 20
163.5000000000315
 30
0.0
 11
162.4166124582896
 21
163.500000000106
 31
0.0
  0
LINE
  5
6666
330
64FE
100
AcDbEntity
  8
0
  6
________________
 62
     7
370
     9
100
AcDbLine
 10
162.4166124580661
 20
157.500000000106
 30
0.0
 11
164.4166124580661
 21
157.5000000000315
 31
0.0
  0
LINE
  5
6667
330
64FE
100
AcDbEntity
  8
0
  6
________________
 62
     7
370
     9
100
AcDbLine
 10
152.2166124582896
 20
163.500000000486
 30
0.0
 11
151.716612458271
 21
163.0000000005046
 31
0.0
  0
LINE
  5
6668
330
64FE
100
AcDbEntity
  8
0
  6
________________
 62
     7
370
     9
100
AcDbLine
 10
151.7166124580847
 20
158.0000000005046
 30
0.0
 11
152.2166124580661
 21
157.500000000486
 31
0.0
  0
LINE
  5
6669
330
64FE
100
AcDbEntity
  8
0
  6
________________
 62
   253
370
     9
100
AcDbLine
 10
162.4166124582749
 20
253.0000000000753
 30
0.0
 11
158.7266124581793
 21
253.0000000002146
 31
0.0
  0
LINE
  5
666A
330
64FE
100
AcDbEntity
  8
0
  6
________________
 62
   253
370
     9
100
AcDbLine
 10
158.7266124581793
 20
253.0000000002146
 30
0.0
 11
151.7166124582749
 21
253.0000000004793
 31
0.0
  0
LINE
  5
666B
330
64FE
100
AcDbEntity
  8
0
  6
________________
 62
   253
370
     9
100
AcDbLine
 10
151.7166124580861
 20
248.0000000004792
 30
0.0
 11
158.7266124581793
 21
248.0000000002146
 31
0.0
  0
LINE
  5
666C
330
64FE
100
AcDbEntity
  8
0
  6
________________
 62
   253
370
     9
100
AcDbLine
 10
158.7266124581793
 20
248.0000000002146
 30
0.0
 11
162.4166124580861
 21
248.0000000000753
 31
0.0
  0
LINE
  5
666D
330
64FE
100
AcDbEntity
  8
0
  6
________________
 62
     7
370
     9
100
AcDbLine
 10
167.7166124583938
 20
256.1499999998752
 30
0.0
 11
167.0666124583938
 21
256.1499999998997
 31
0.0
  0
LINE
  5
666E
330
64FE
100
AcDbEntity
  8
0
  6
________________
 62
     7
370
     9
100
AcDbLine
 10
167.0666124579672
 20
244.8499999998997
 30
0.0
 11
167.7166124579672
 21
244.8499999998752
 31
0.0
  0
ARC
  5
666F
330
64FE
100
AcDbEntity
  8
0
  6
________________
 62
     7
370
     9
100
AcDbCircle
 10
157.1166385133284
 20
250.525006456418
 30
0.0
 40
11.99999999999999
100
AcDbArc
 50
15.35814402447073
 51
27.95315198398281
  0
ARC
  5
6670
330
64FE
100
AcDbEntity
  8
0
  6
________________
 62
     7
370
     9
100
AcDbCircle
 10
157.1166385133265
 20
250.4749935441328
 30
0.0
 40
12.00000000000001
100
AcDbArc
 50
332.0468480116909
 51
344.6418559712029
  0
LINE
  5
6671
330
64FE
100
AcDbEntity
  8
0
  6
________________
 62
     7
370
     9
100
AcDbLine
 10
167.0666124583938
 20
256.1499999998997
 30
0.0
 11
164.4166124582937
 21
253.4999999999998
 31
0.0
  0
LINE
  5
6672
330
64FE
100
AcDbEntity
  8
0
  6
________________
 62
     7
370
     9
100
AcDbLine
 10
164.4166124580672
 20
247.4999999999998
 30
0.0
 11
167.0666124579672
 21
244.8499999998997
 31
0.0
  0
LINE
  5
6673
330
64FE
100
AcDbEntity
  8
0
  6
________________
 62
     7
370
     9
100
AcDbLine
 10
164.4166124582937
 20
253.4999999999998
 30
0.0
 11
162.4166124582937
 21
253.5000000000753
 31
0.0
  0
LINE
  5
6674
330
64FE
100
AcDbEntity
  8
0
  6
________________
 62
     7
370
     9
100
AcDbLine
 10
162.4166124580672
 20
247.5000000000753
 30
0.0
 11
164.4166124580672
 21
247.4999999999998
 31
0.0
  0
LINE
  5
6675
330
64FE
100
AcDbEntity
  8
0
  6
________________
 62
     7
370
     9
100
AcDbLine
 10
162.4166124582937
 20
253.5000000000753
 30
0.0
 11
158.7266818411232
 21
253.5000000002146
 31
0.0
  0
LINE
  5
6676
330
64FE
100
AcDbEntity
  8
0
  6
________________
 62
     7
370
     9
100
AcDbLine
 10
158.7266124581793
 20
253.5000000002146
 30
0.0
 11
152.2166124582937
 21
253.5000000004603
 31
0.0
  0
LINE
  5
6677
330
64FE
100
AcDbEntity
  8
0
  6
________________
 62
     7
370
     9
100
AcDbLine
 10
152.2166124580672
 20
247.5000000004604
 30
0.0
 11
158.7266124581793
 21
247.5000000002146
 31
0.0
  0
LINE
  5
6678
330
64FE
100
AcDbEntity
  8
0
  6
________________
 62
     7
370
     9
100
AcDbLine
 10
158.7266818410326
 20
247.5000000002146
 30
0.0
 11
162.4166124580672
 21
247.5000000000753
 31
0.0
  0
LINE
  5
6679
330
64FE
100
AcDbEntity
  8
0
  6
________________
 62
     7
370
     9
100
AcDbLine
 10
152.2166124582937
 20
253.5000000004603
 30
0.0
 11
151.7166124582749
 21
253.0000000004792
 31
0.0
  0
LINE
  5
667A
330
64FE
100
AcDbEntity
  8
0
  6
________________
 62
     7
370
     9
100
AcDbLine
 10
151.7166124580861
 20
248.0000000004792
 30
0.0
 11
152.2166124580672
 21
247.5000000004604
 31
0.0
  0
ENDBLK
  5
667B
330
64FE
100
AcDbEntity
  8
0
100
AcDbBlockEnd
  0
BLOCK
  5
668D
330
668C
100
AcDbEntity
  8
0
100
AcDbBlockBegin
  2
D_FRAME_VIEW@415
 70
     0
 10
0.0
 20
0.0
 30
0.0
  3
D_FRAME_VIEW@415
  1

  0
LINE
  5
668E
330
668C
100
AcDbEntity
  8
0
  6
________________
 62
     7
370
     9
100
AcDbLine
 10
147.8289533351638
 20
132.2956477350608
 30
0.0
 11
149.9755785935636
 21
130.5429355510442
 31
0.0
  0
LINE
  5
668F
330
668C
100
AcDbEntity
  8
0
  6
________________
 62
     7
370
     9
100
AcDbLine
 10
185.3948953571471
 20
139.9637635401304
 30
0.0
 11
147.8289533351638
 21
132.2956477350608
 31
0.0
  0
LINE
  5
6690
330
668C
100
AcDbEntity
  8
0
  6
________________
 62
     7
370
     9
100
AcDbLine
 10
185.3948953571471
 20
139.9637635401304
 30
0.0
 11
187.541520615547
 21
138.2110513561139
 31
0.0
  0
LINE
  5
6691
330
668C
100
AcDbEntity
  8
0
  6
________________
 62
     7
370
     9
100
AcDbLine
 10
187.541520615547
 20
138.2110513561139
 30
0.0
 11
149.9755785935636
 21
130.5429355510442
 31
0.0
  0
LINE
  5
6692
330
668C
100
AcDbEntity
  8
0
  6
________________
 62
     7
370
     9
100
AcDbLine
 10
147.8289533351638
 20
66.56894083446382
 30
0.0
 11
149.9755785935636
 21
64.81622865044729
 31
0.0
  0
LINE
  5
6693
330
668C
100
AcDbEntity
  8
0
  6
________________
 62
     7
370
     9
100
AcDbLine
 10
147.8289533351638
 20
132.2956477350608
 30
0.0
 11
147.8289533351638
 21
66.56894083446382
 31
0.0
  0
LINE
  5
6694
330
668C
100
AcDbEntity
  8
0
  6
________________
 62
     7
370
     9
100
AcDbLine
 10
149.9755785935636
 20
130.5429355510442
 30
0.0
 11
149.9755785935636
 21
64.81622865044729
 31
0.0
  0
LINE
  5
6695
330
668C
100
AcDbEntity
  8
0
  6
________________
 62
     7
370
     9
100
AcDbLine
 10
187.541520615547
 20
135.2533495455889
 30
0.0
 11
187.541520615547
 21
138.2110513561139
 31
0.0
  0
LINE
  5
6696
330
668C
100
AcDbEntity
  8
0
  6
________________
 62
     7
370
     9
100
AcDbLine
 10
149.9755785935636
 20
64.81622865044729
 30
0.0
 11
152.8735226923967
 21
65.40776901255151
 31
0.0
  0
LINE
  5
6697
330
668C
100
AcDbEntity
  8
0
  6
________________
 62
     7
370
     9
100
AcDbLine
 10
164.1041567484458
 20
84.13188931480438
 30
0.0
 11
174.9300972224526
 21
86.34172516039278
 31
0.0
  0
ELLIPSE
  5
6698
330
668C
100
AcDbEntity
  8
0
  6
________________
 62
     7
370
     9
100
AcDbEllipse
 10
174.9300972224526
 20
89.62806050542262
 30
0.0
 11
2.276839915321233
 21
2.788548009269341
 31
0.0
210
0.0
220
0.0
230
1.0
 40
0.8164965809277263
 41
3.926990816987245
 42
5.497787143782142
  0
LINE
  5
6699
330
668C
100
AcDbEntity
  8
0
  6
________________
 62
     7
370
     9
100
AcDbLine
 10
178.1500351100511
 20
90.28532757442859
 30
0.0
 11
178.1500351100511
 21
115.0275707399888
 31
0.0
  0
LINE
  5
669A
330
668C
100
AcDbEntity
  8
0
  6
________________
 62
   253
370
     9
100
AcDbLine
 10
176.4059020876013
 20
91.70940622394203
 30
0.0
 11
178.1500351100511
 21
90.28532757442859
 31
0.0
  0
LINE
  5
669B
330
668C
100
AcDbEntity
  8
0
  6
________________
 62
   253
370
     9
100
AcDbLine
 10
176.4059020876013
 20
114.6715510776104
 30
0.0
 11
176.4059020876013
 21
91.70940622394203
 31
0.0
  0
ELLIPSE
  5
669C
330
668C
100
AcDbEntity
  8
0
  6
________________
 62
   253
370
     9
100
AcDbEllipse
 10
177.2108865595009
 20
91.87372299119352
 30
0.0
 11
-0.9000000000000119
 21
0.0
 31
0.0
210
0.0
220
0.0
230
1.0
 40
0.4082482904637201
 41
0.0
 42
0.4636476090008191
  0
LINE
  5
669D
330
668C
100
AcDbEntity
  8
0
  6
________________
 62
   253
370
     9
100
AcDbLine
 10
173.1859642000027
 20
87.76580380990622
 30
0.0
 11
164.1041567484458
 21
85.91198762669616
 31
0.0
  0
LINE
  5
669E
330
668C
100
AcDbEntity
  8
0
  6
________________
 62
   253
370
     9
100
AcDbLine
 10
173.1859642000027
 20
87.76580380990622
 30
0.0
 11
174.9300972224526
 21
86.34172516039278
 31
0.0
  0
ELLIPSE
  5
669F
330
668C
100
AcDbEntity
  8
0
  6
________________
 62
   253
370
     9
100
AcDbEllipse
 10
173.1859642000027
 20
86.94421997364876
 30
0.0
 11
-0.1799999999999995
 21
0.8818163074019419
 31
0.0
210
0.0
220
0.0
230
-1.0
 40
0.4082482904637202
 41
0.0
 42
0.4636476090007889
  0
ELLIPSE
  5
66A0
330
668C
100
AcDbEntity
  8
0
  6
________________
 62
   253
370
     9
100
AcDbEllipse
 10
173.1859642000027
 20
91.05213915493607
 30
0.0
 11
-2.276839915321223
 21
-2.788548009269328
 31
0.0
210
0.0
220
0.0
230
-1.0
 40
0.8164965809277261
 41
3.926990816987248
 42
5.497787143782148
  0
LINE
  5
66A1
330
668C
100
AcDbEntity
  8
0
  6
________________
 62
     7
370
     9
100
AcDbLine
 10
179.0623508448697
 20
115.2137964095403
 30
0.0
 11
179.0623508448697
 21
90.08814745373058
 31
0.0
  0
LINE
  5
66A2
330
668C
100
AcDbEntity
  8
0
  6
________________
 62
     7
370
     9
100
AcDbLine
 10
175.3057566426718
 20
85.48727797068932
 30
0.0
 11
164.1041567484458
 21
83.20076096705033
 31
0.0
  0
ELLIPSE
  5
66A3
330
668C
100
AcDbEntity
  8
0
  6
________________
 62
     7
370
     9
100
AcDbEllipse
 10
175.3057566426718
 20
89.3213358732237
 30
0.0
 11
-2.656313234541445
 21
-3.253306010814238
 31
0.0
210
0.0
220
0.0
230
-1.0
 40
0.8164965809277261
 41
3.926990816987236
 42
5.497787143782134
  0
LINE
  5
66A4
330
668C
100
AcDbEntity
  8
0
  6
________________
 62
     7
370
     9
100
AcDbLine
 10
150.8878943283854
 20
128.702587757827
 30
0.0
 11
150.8878943283854
 21
66.26221620226688
 31
0.0
  0
ELLIPSE
  5
66A5
330
668C
100
AcDbEntity
  8
0
  6
________________
 62
     7
370
     9
100
AcDbEllipse
 10
151.9612069575848
 20
128.9216767808289
 30
0.0
 11
0.7589466384403993
 21
0.9295160030897659
 31
0.0
210
0.0
220
0.0
230
1.0
 40
0.8164965809277263
 41
0.7853981633974445
 42
2.356194490192341
  0
LINE
  5
66A6
330
668C
100
AcDbEntity
  8
0
  6
________________
 62
     7
370
     9
100
AcDbLine
 10
186.3072110919657
 20
137.0279706319017
 30
0.0
 11
151.9612069575848
 21
130.0171218958388
 31
0.0
  0
ELLIPSE
  5
66A7
330
668C
100
AcDbEntity
  8
0
  6
________________
 62
     7
370
     9
100
AcDbEllipse
 10
186.3072110919657
 20
135.9325255168918
 30
0.0
 11
0.7589466384404107
 21
0.9295160030897796
 31
0.0
210
0.0
220
0.0
230
1.0
 40
0.8164965809277263
 41
5.497787143782151
 42
6.283185307179586
  0
LINE
  5
66A8
330
668C
100
AcDbEntity
  8
0
  6
________________
 62
     7
370
     9
100
AcDbLine
 10
187.3805237211651
 20
135.2204861921382
 30
0.0
 11
187.3805237211651
 21
136.1516145398938
 31
0.0
  0
LINE
  5
66A9
330
668C
100
AcDbEntity
  8
0
  6
________________
 62
     7
370
     9
100
AcDbLine
 10
151.9612069575848
 20
65.38586011025902
 30
0.0
 11
152.8735226923967
 21
65.57208577980913
 31
0.0
  0
ELLIPSE
  5
66AA
330
668C
100
AcDbEntity
  8
0
  6
________________
 62
     7
370
     9
100
AcDbEllipse
 10
151.9612069575848
 20
66.48130522526883
 30
0.0
 11
0.758946638440406
 21
0.929516003089774
 31
0.0
210
0.0
220
0.0
230
1.0
 40
0.8164965809277261
 41
2.356194490192311
 42
3.14159265358975
  0
LINE
  5
66AB
330
668C
100
AcDbEntity
  8
0
  6
________________
 62
   253
370
     9
100
AcDbLine
 10
151.9612069575848
 20
130.0171218958388
 30
0.0
 11
151.5855475373648
 21
130.3238465280417
 31
0.0
  0
LINE
  5
66AC
330
668C
100
AcDbEntity
  8
0
  6
________________
 62
   253
370
     9
100
AcDbLine
 10
150.8878943283854
 20
128.702587757827
 30
0.0
 11
150.5122349081654
 21
129.0093123900299
 31
0.0
  0
ELLIPSE
  5
66AD
330
668C
100
AcDbEntity
  8
0
  6
________________
 62
     7
370
     9
100
AcDbEllipse
 10
151.5855475373648
 20
129.2284014130318
 30
0.0
 11
0.7589466384404107
 21
0.9295160030897796
 31
0.0
210
0.0
220
0.0
230
1.0
 40
0.8164965809277263
 41
0.7853981633974624
 42
2.356194490192359
  0
LINE
  5
66AE
330
668C
100
AcDbEntity
  8
0
  6
________________
 62
   253
370
     9
100
AcDbLine
 10
186.3072110919657
 20
137.0279706319017
 30
0.0
 11
185.9315516717458
 21
137.3346952641045
 31
0.0
  0
LINE
  5
66AF
330
668C
100
AcDbEntity
  8
0
  6
________________
 62
     7
370
     9
100
AcDbLine
 10
185.9315516717458
 20
137.3346952641045
 30
0.0
 11
151.5855475373648
 21
130.3238465280417
 31
0.0
  0
LINE
  5
66B0
330
668C
100
AcDbEntity
  8
0
  6
________________
 62
   253
370
     9
100
AcDbLine
 10
150.8878943283854
 20
66.26221620226688
 30
0.0
 11
150.5122349081654
 21
66.56894083446976
 31
0.0
  0
LINE
  5
66B1
330
668C
100
AcDbEntity
  8
0
  6
________________
 62
     7
370
     9
100
AcDbLine
 10
150.5122349081654
 20
129.0093123900299
 30
0.0
 11
150.5122349081654
 21
66.56894083446976
 31
0.0
  0
ELLIPSE
  5
66B2
330
668C
100
AcDbEntity
  8
0
  6
________________
 62
     7
370
     9
100
AcDbEllipse
 10
186.3072110919657
 20
135.9325255168918
 30
0.0
 11
0.7589466384404107
 21
0.9295160030897796
 31
0.0
210
0.0
220
0.0
230
1.0
 40
0.8164965809277263
 41
0.0
 42
0.785398163397462
  0
ELLIPSE
  5
66B3
330
668C
100
AcDbEntity
  8
0
  6
________________
 62
     7
370
     9
100
AcDbEllipse
 10
185.9315516717458
 20
136.2392501490947
 30
0.0
 11
0.7589466384404107
 21
0.9295160030897796
 31
0.0
210
0.0
220
0.0
230
1.0
 40
0.8164965809277263
 41
0.0
 42
0.785398163397462
  0
LINE
  5
66B4
330
668C
100
AcDbEntity
  8
0
  6
________________
 62
   253
370
     9
100
AcDbLine
 10
178.6866914246498
 20
90.39487208593347
 30
0.0
 11
179.0623508448697
 21
90.08814745373058
 31
0.0
  0
LINE
  5
66B5
330
668C
100
AcDbEntity
  8
0
  6
________________
 62
     7
370
     9
100
AcDbLine
 10
178.6866914246498
 20
115.1371152514895
 30
0.0
 11
178.6866914246498
 21
90.39487208593347
 31
0.0
  0
LINE
  5
66B6
330
668C
100
AcDbEntity
  8
0
  6
________________
 62
   253
370
     9
100
AcDbLine
 10
174.9300972224519
 20
85.79400260289222
 30
0.0
 11
175.3057566426718
 21
85.48727797068932
 31
0.0
  0
LINE
  5
66B7
330
668C
100
AcDbEntity
  8
0
  6
________________
 62
     7
370
     9
100
AcDbLine
 10
174.9300972224519
 20
85.79400260289222
 30
0.0
 11
164.1041567484458
 21
83.58416675730395
 31
0.0
  0
ELLIPSE
  5
66B8
330
668C
100
AcDbEntity
  8
0
  6
________________
 62
     7
370
     9
100
AcDbEllipse
 10
151.9612069575848
 20
66.48130522526883
 30
0.0
 11
0.758946638440406
 21
0.929516003089774
 31
0.0
210
0.0
220
0.0
230
1.0
 40
0.8164965809277261
 41
3.14159265358975
 42
3.92699081698723
  0
ELLIPSE
  5
66B9
330
668C
100
AcDbEntity
  8
0
  6
________________
 62
     7
370
     9
100
AcDbEllipse
 10
151.5855475373648
 20
66.7880298574717
 30
0.0
 11
0.7589466384404239
 21
0.9295160030897959
 31
0.0
210
0.0
220
0.0
230
1.0
 40
0.8164965809277265
 41
2.35619449019231
 42
3.14159265358976
  0
ELLIPSE
  5
66BA
330
668C
100
AcDbEntity
  8
0
  6
________________
 62
     7
370
     9
100
AcDbEllipse
 10
174.9300972224519
 20
89.6280605054266
 30
0.0
 11
-2.656313234541434
 21
-3.253306010814224
 31
0.0
210
0.0
220
0.0
230
-1.0
 40
0.8164965809277261
 41
3.926990816987241
 42
5.497787143782137
  0
LINE
  5
66BB
330
668C
100
AcDbEntity
  8
0
  6
________________
 62
     7
370
     9
100
AcDbLine
 10
155.0201479507965
 20
126.4240619186069
 30
0.0
 11
152.8735226923967
 21
128.1767741026235
 31
0.0
  0
LINE
  5
66BC
330
668C
100
AcDbEntity
  8
0
  6
________________
 62
     7
370
     9
100
AcDbLine
 10
155.0201479507965
 20
60.69735501798702
 30
0.0
 11
155.0201479507965
 21
126.4240619186069
 31
0.0
  0
LINE
  5
66BD
330
668C
100
AcDbEntity
  8
0
  6
________________
 62
     7
370
     9
100
AcDbLine
 10
155.0201479507965
 20
60.69735501798702
 30
0.0
 11
152.8735226923967
 21
62.45006720200355
 31
0.0
  0
LINE
  5
66BE
330
668C
100
AcDbEntity
  8
0
  6
________________
 62
     7
370
     9
100
AcDbLine
 10
152.8735226923967
 20
62.45006720200355
 30
0.0
 11
152.8735226923967
 21
128.1767741026235
 31
0.0
  0
LINE
  5
66BF
330
668C
100
AcDbEntity
  8
0
  6
________________
 62
     7
370
     9
100
AcDbLine
 10
155.0201479507965
 20
126.4240619186069
 30
0.0
 11
192.586089972793
 21
134.0921777236793
 31
0.0
  0
LINE
  5
66C0
330
668C
100
AcDbEntity
  8
0
  6
________________
 62
     7
370
     9
100
AcDbLine
 10
192.586089972793
 20
134.0921777236793
 30
0.0
 11
192.586089972793
 21
68.36547082305935
 31
0.0
  0
LINE
  5
66C1
330
668C
100
AcDbEntity
  8
0
  6
________________
 62
     7
370
     9
100
AcDbLine
 10
192.586089972793
 20
68.36547082305935
 30
0.0
 11
155.0201479507965
 21
60.69735501798702
 31
0.0
  0
LINE
  5
66C2
330
668C
100
AcDbEntity
  8
0
  6
________________
 62
   253
370
     9
100
AcDbLine
 10
163.6066489843957
 20
82.16807927218953
 30
0.0
 11
163.6066489843957
 21
108.4587620324375
 31
0.0
  0
ELLIPSE
  5
66C3
330
668C
100
AcDbEntity
  8
0
  6
________________
 62
   253
370
     9
100
AcDbEllipse
 10
167.6315713438954
 20
82.98966310844727
 30
0.0
 11
-2.846049894151539
 21
-3.485685011586673
 31
0.0
210
0.0
220
0.0
230
-1.0
 40
0.816496580927726
 41
5.49778714378214
 42
7.06858347057703
  0
LINE
  5
66C4
330
668C
100
AcDbEntity
  8
0
  6
________________
 62
   253
370
     9
100
AcDbLine
 10
179.9746665796942
 20
81.40126769168229
 30
0.0
 11
167.6315713438954
 21
78.88174392715854
 31
0.0
  0
ELLIPSE
  5
66C5
330
668C
100
AcDbEntity
  8
0
  6
________________
 62
   253
370
     9
100
AcDbEllipse
 10
179.9746665796942
 20
85.50918687297104
 30
0.0
 11
-2.846049894151546
 21
-3.485685011586681
 31
0.0
210
0.0
220
0.0
230
-1.0
 40
0.8164965809277261
 41
3.92699081698724
 42
5.497787143782136
  0
LINE
  5
66C6
330
668C
100
AcDbEntity
  8
0
  6
________________
 62
   253
370
     9
100
AcDbLine
 10
183.9995889391938
 20
112.6214534694768
 30
0.0
 11
183.9995889391938
 21
86.33077070922879
 31
0.0
  0
ELLIPSE
  5
66C7
330
668C
100
AcDbEntity
  8
0
  6
________________
 62
   253
370
     9
100
AcDbEllipse
 10
179.9746665796942
 20
111.799869633219
 30
0.0
 11
-2.846049894151535
 21
-3.485685011586668
 31
0.0
210
0.0
220
0.0
230
-1.0
 40
0.816496580927726
 41
2.356194490192348
 42
3.926990816987247
  0
LINE
  5
66C8
330
668C
100
AcDbEntity
  8
0
  6
________________
 62
   253
370
     9
100
AcDbLine
 10
167.6315713438954
 20
113.388265049984
 30
0.0
 11
179.9746665796942
 21
115.9077888145078
 31
0.0
  0
ELLIPSE
  5
66C9
330
668C
100
AcDbEntity
  8
0
  6
________________
 62
   253
370
     9
100
AcDbEllipse
 10
167.6315713438954
 20
109.2803458686952
 30
0.0
 11
-2.846049894151546
 21
-3.485685011586681
 31
0.0
210
0.0
220
0.0
230
-1.0
 40
0.8164965809277261
 41
0.7853981633974471
 42
2.356194490192349
  0
LINE
  5
66CA
330
668C
100
AcDbEntity
  8
0
  6
________________
 62
     7
370
     9
100
AcDbLine
 10
192.586089972793
 20
134.0921777236793
 30
0.0
 11
190.4394647143932
 21
135.8448899076958
 31
0.0
  0
LINE
  5
66CB
330
668C
100
AcDbEntity
  8
0
  6
________________
 62
     7
370
     9
100
AcDbLine
 10
152.8735226923967
 20
128.1767741026235
 30
0.0
 11
190.4394647143932
 21
135.8448899076958
 31
0.0
  0
ELLIPSE
  5
66CC
330
668C
100
AcDbEntity
  8
0
  6
________________
 62
   253
370
     9
100
AcDbEllipse
 10
167.2290791079454
 20
113.7168985844871
 30
0.0
 11
-0.1799999999999995
 21
0.8818163074019419
 31
0.0
210
0.0
220
0.0
230
-0.9999999999999998
 40
0.408248290463863
 41
2.03444393579567
 42
3.14046745629641
  0
ELLIPSE
  5
66CD
330
668C
100
AcDbEntity
  8
0
  6
________________
 62
   253
370
     9
100
AcDbEllipse
 10
163.2041567484458
 20
108.7873955669406
 30
0.0
 11
-0.8999999999999841
 21
0.0
 31
0.0
210
0.0
220
0.0
230
1.0
 40
0.4082482904638631
 41
2.034443935795696
 42
3.140538880499421
  0
ELLIPSE
  5
66CE
330
668C
100
AcDbEntity
  8
0
  6
________________
 62
   253
370
     9
100
AcDbEllipse
 10
179.5721743437442
 20
116.2364223490109
 30
0.0
 11
0.1799999999999979
 21
-0.8818163074019341
 31
0.0
210
0.0
220
0.0
230
1.0
 40
0.4082482904638629
 41
0.0
 42
1.107148717794074
  0
ELLIPSE
  5
66CF
330
668C
100
AcDbEntity
  8
0
  6
________________
 62
   253
370
     9
100
AcDbEllipse
 10
163.2041567484458
 20
82.49671280669263
 30
0.0
 11
-0.8999999999999841
 21
0.0
 31
0.0
210
0.0
220
0.0
230
1.0
 40
0.4082482904638631
 41
2.034443935795724
 42
3.141592653589793
  0
ELLIPSE
  5
66D0
330
668C
100
AcDbEntity
  8
0
  6
________________
 62
   253
370
     9
100
AcDbEllipse
 10
179.5721743437442
 20
112.1285031677221
 30
0.0
 11
2.276839915321233
 21
2.788548009269341
 31
0.0
210
0.0
220
0.0
230
1.0
 40
0.8164965809277263
 41
5.497787143782138
 42
6.283386464899483
  0
ELLIPSE
  5
66D1
330
668C
100
AcDbEntity
  8
0
  6
________________
 62
   253
370
     9
100
AcDbEllipse
 10
183.5970967032439
 20
112.9500870039799
 30
0.0
 11
-0.9000000000000119
 21
0.0
 31
0.0
210
0.0
220
0.0
230
1.0
 40
0.4082482904638631
 41
0.4636476090008064
 42
2.034443935795696
  0
ELLIPSE
  5
66D2
330
668C
100
AcDbEntity
  8
0
  6
________________
 62
     7
370
     9
100
AcDbEllipse
 10
177.8280413212944
 20
113.5525818172355
 30
0.0
 11
-2.276839915321233
 21
-2.788548009269341
 31
0.0
210
0.0
220
0.0
230
-1.0
 40
0.8164965809277258
 41
3.548238205602755
 42
3.926990816987237
  0
LINE
  5
66D3
330
668C
100
AcDbEntity
  8
0
  6
________________
 62
   253
370
     9
100
AcDbLine
 10
182.7921122313439
 20
112.7857702367283
 30
0.0
 11
181.0479792088941
 21
114.2098488862417
 31
0.0
  0
LINE
  5
66D4
330
668C
100
AcDbEntity
  8
0
  6
________________
 62
   253
370
     9
100
AcDbLine
 10
182.7921122313439
 20
86.49508747648035
 30
0.0
 11
182.7921122313439
 21
112.7857702367283
 31
0.0
  0
ELLIPSE
  5
66D5
330
668C
100
AcDbEntity
  8
0
  6
________________
 62
   253
370
     9
100
AcDbEllipse
 10
183.5970967032439
 20
86.65940424373188
 30
0.0
 11
-0.9000000000000119
 21
0.0
 31
0.0
210
0.0
220
0.0
230
1.0
 40
0.4082482904638631
 41
0.4636476090007652
 42
2.034443935795696
  0
LINE
  5
66D6
330
668C
100
AcDbEntity
  8
0
  6
________________
 62
   253
370
     9
100
AcDbLine
 10
182.7921122313439
 20
86.49508747648035
 30
0.0
 11
181.0479792088941
 21
87.91916612599378
 31
0.0
  0
LINE
  5
66D7
330
668C
100
AcDbEntity
  8
0
  6
________________
 62
     7
370
     9
100
AcDbLine
 10
181.0479792088941
 20
114.2098488862417
 30
0.0
 11
181.0479792088941
 21
87.91916612599378
 31
0.0
  0
ELLIPSE
  5
66D8
330
668C
100
AcDbEntity
  8
0
  6
________________
 62
   253
370
     9
100
AcDbEllipse
 10
167.2290791079454
 20
83.31829664295037
 30
0.0
 11
2.276839915321233
 21
2.788548009269341
 31
0.0
210
0.0
220
0.0
230
0.9999999999999998
 40
0.8164965809277256
 41
3.141793811309696
 42
3.926990816987245
  0
ELLIPSE
  5
66D9
330
668C
100
AcDbEntity
  8
0
  6
________________
 62
   253
370
     9
100
AcDbEllipse
 10
167.2290791079454
 20
79.21037746166162
 30
0.0
 11
0.1800000000000006
 21
-0.8818163074019474
 31
0.0
210
0.0
220
0.0
230
1.0
 40
0.4082482904638629
 41
1.107148717794116
 42
2.677945044588981
  0
LINE
  5
66DA
330
668C
100
AcDbEntity
  8
0
  6
________________
 62
   253
370
     9
100
AcDbLine
 10
167.2290791079454
 20
80.03196129791938
 30
0.0
 11
165.4849460854956
 21
81.4560399474328
 31
0.0
  0
ELLIPSE
  5
66DB
330
668C
100
AcDbEntity
  8
0
  6
________________
 62
     7
370
     9
100
AcDbEllipse
 10
165.4849460854956
 20
84.7423752924638
 30
0.0
 11
-2.276839915321223
 21
-2.788548009269328
 31
0.0
210
0.0
220
0.0
230
-1.0
 40
0.8164965809277261
 41
5.497787143782147
 42
5.876543436645201
  0
LINE
  5
66DC
330
668C
100
AcDbEntity
  8
0
  6
________________
 62
   253
370
     9
100
AcDbLine
 10
167.2290791079454
 20
80.03196129791938
 30
0.0
 11
179.5721743437442
 21
82.55148506244313
 31
0.0
  0
ELLIPSE
  5
66DD
330
668C
100
AcDbEntity
  8
0
  6
________________
 62
   253
370
     9
100
AcDbEllipse
 10
179.5721743437442
 20
81.72990122618539
 30
0.0
 11
-0.1799999999999995
 21
0.8818163074019419
 31
0.0
210
0.0
220
0.0
230
-0.9999999999999998
 40
0.408248290463863
 41
0.4636476090007846
 42
2.0344439357957
  0
LINE
  5
66DE
330
668C
100
AcDbEntity
  8
0
  6
________________
 62
   253
370
     9
100
AcDbLine
 10
179.5721743437442
 20
82.55148506244313
 30
0.0
 11
177.8280413212944
 21
83.97556371195658
 31
0.0
  0
LINE
  5
66DF
330
668C
100
AcDbEntity
  8
0
  6
________________
 62
     7
370
     9
100
AcDbLine
 10
177.8280413212944
 20
83.97556371195658
 30
0.0
 11
165.4849460854956
 21
81.4560399474328
 31
0.0
  0
ELLIPSE
  5
66E0
330
668C
100
AcDbEntity
  8
0
  6
________________
 62
   253
370
     9
100
AcDbEllipse
 10
179.5721743437442
 20
85.83782040747414
 30
0.0
 11
2.276839915321233
 21
2.788548009269341
 31
0.0
210
0.0
220
0.0
230
1.0
 40
0.8164965809277263
 41
3.926990816987237
 42
5.497787143782142
  0
ELLIPSE
  5
66E1
330
668C
100
AcDbEntity
  8
0
  6
________________
 62
     7
370
     9
100
AcDbEllipse
 10
177.8280413212944
 20
87.26189905698757
 30
0.0
 11
-2.276839915321233
 21
-2.788548009269341
 31
0.0
210
0.0
220
0.0
230
-1.0
 40
0.8164965809277258
 41
3.926990816987237
 42
5.497787143782134
  0
LINE
  5
66E2
330
668C
100
AcDbEntity
  8
0
  6
________________
 62
     7
370
     9
100
AcDbLine
 10
176.3108865595012
 20
114.6521561141532
 30
0.0
 11
176.3108865595012
 21
91.87372299119353
 31
0.0
  0
LINE
  5
66E3
330
668C
100
AcDbEntity
  8
0
  6
________________
 62
     7
370
     9
100
AcDbLine
 10
173.0059642000028
 20
87.82603628105045
 30
0.0
 11
164.1041567484458
 21
86.00896244398214
 31
0.0
  0
ARC
  5
66E4
330
668C
100
AcDbEntity
  8
0
  6
________________
 62
     7
370
     9
100
AcDbCircle
 10
-171.9691754324086
 20
92.04564302338788
 30
0.0
 40
4.345113578330121
210
0.0
220
0.0
230
-1.0
100
AcDbArc
 50
182.2675734441707
 51
256.1954675230135
  0
LINE
  5
66E5
330
668C
100
AcDbEntity
  8
0
  6
________________
 62
     7
370
     9
100
AcDbLine
 10
187.0661577304058
 20
136.8620415199812
 30
0.0
 11
186.6904983101858
 21
137.1687661521841
 31
0.0
  0
LINE
  5
66E6
330
668C
100
AcDbEntity
  8
0
  6
________________
 62
     7
370
     9
100
AcDbLine
 10
150.8266008989248
 20
65.85851385438237
 30
0.0
 11
151.2022603191447
 21
65.55178922217947
 31
0.0
  0
ARC
  5
66E7
330
668C
100
AcDbEntity
  8
0
  6
________________
 62
     7
370
     9
100
AcDbCircle
 10
-168.4458678755398
 20
108.6154755347463
 30
0.0
 40
4.345113578331561
210
0.0
220
0.0
230
-1.0
100
AcDbArc
 50
2.267573444169244
 51
76.19546752301505
  0
LINE
  5
66E8
330
668C
100
AcDbEntity
  8
0
  6
________________
 62
     7
370
     9
100
AcDbLine
 10
167.4090791079454
 20
112.8350822770851
 30
0.0
 11
179.7521743437442
 21
115.3546060416089
 31
0.0
  0
LINE
  5
66E9
330
668C
100
AcDbEntity
  8
0
  6
________________
 62
     7
370
     9
100
AcDbLine
 10
164.1041567484458
 20
82.49671280669263
 30
0.0
 11
164.1041567484458
 21
108.7873955669406
 31
0.0
  0
ARC
  5
66EA
330
668C
100
AcDbEntity
  8
0
  6
________________
 62
     7
370
     9
100
AcDbCircle
 10
-180.3451650320303
 20
112.9532426033176
 30
0.0
 40
2.473496375407942
210
0.0
220
0.0
230
-1.0
100
AcDbArc
 50
76.12893177195889
 51
127.43257420502
  0
ARC
  5
66EB
330
668C
100
AcDbEntity
  8
0
  6
________________
 62
     7
370
     9
100
AcDbCircle
 10
-166.5739930171436
 20
82.3953216940159
 30
0.0
 40
2.471916534170401
210
0.0
220
0.0
230
-1.0
100
AcDbArc
 50
310.9889530888601
 51
2.350772335755721
  0
ENDBLK
  5
66EC
330
668C
100
AcDbEntity
  8
0
100
AcDbBlockEnd
  0
BLOCK
  5
6725
330
6724
100
AcDbEntity
  8
0
100
AcDbBlockBegin
  2
D_FRAME_VIEW@454
 70
     0
 10
0.0
 20
0.0
 30
0.0
  3
D_FRAME_VIEW@454
  1

  0
LINE
  5
6726
330
6724
100
AcDbEntity
  8
0
  6
________________
 62
     7
370
     9
100
AcDbLine
 10
78.49999999999446
 20
103.2266124581799
 30
0.0
 11
66.50000000000549
 21
103.2266124581799
 31
0.0
  0
LINE
  5
6727
330
6724
100
AcDbEntity
  8
0
  6
________________
 62
     7
370
     9
100
AcDbLine
 10
78.49999999999446
 20
99.32661245818169
 30
0.0
 11
77.44999999999561
 21
99.32661245818169
 31
0.0
  0
LINE
  5
6728
330
6724
100
AcDbEntity
  8
0
  6
________________
 62
     7
370
     9
100
AcDbLine
 10
77.44999999999914
 20
99.3266124581817
 30
0.0
 11
77.44999999999914
 21
95.72661245818065
 31
0.0
  0
LINE
  5
6729
330
6724
100
AcDbEntity
  8
0
  6
________________
 62
     7
370
     9
100
AcDbLine
 10
67.55000000000081
 20
95.72661245818065
 30
0.0
 11
67.55000000000081
 21
99.3266124581817
 31
0.0
  0
LINE
  5
672A
330
6724
100
AcDbEntity
  8
0
  6
________________
 62
     7
370
     9
100
AcDbLine
 10
67.55000000000432
 20
99.32661245818169
 30
0.0
 11
66.50000000000635
 21
99.32661245818169
 31
0.0
  0
LINE
  5
672B
330
6724
100
AcDbEntity
  8
0
  6
________________
 62
     7
370
     9
100
AcDbLine
 10
66.85000000007435
 20
113.2166124583941
 30
0.0
 11
72.50000000045348
 21
113.2166124581806
 31
0.0
  0
LINE
  5
672C
330
6724
100
AcDbEntity
  8
0
  6
________________
 62
     7
370
     9
100
AcDbLine
 10
72.50000000045348
 20
113.2166124581806
 30
0.0
 11
78.15000000007436
 21
113.2166124579671
 31
0.0
  0
LINE
  5
672D
330
6724
100
AcDbEntity
  8
0
  6
________________
 62
     7
370
     9
100
AcDbLine
 10
69.29677252798454
 20
114.1881082201695
 30
0.0
 11
69.37419350611742
 21
114.1881082201666
 31
0.0
  0
ARC
  5
672E
330
6724
100
AcDbEntity
  8
0
  6
________________
 62
     7
370
     9
100
AcDbCircle
 10
-72.48113825902215
 20
102.5920246524323
 30
0.0
 40
12.0050930778638
210
0.0
220
0.0
230
-1.0
100
AcDbArc
 50
75.00099794706134
 51
86.7474374283005
  0
LINE
  5
672F
330
6724
100
AcDbEntity
  8
0
  6
________________
 62
     7
370
     9
100
AcDbLine
 10
71.80000000017276
 20
114.5777791335029
 30
0.0
 11
71.80000000032081
 21
114.1881082201929
 31
0.0
  0
LINE
  5
6730
330
6724
100
AcDbEntity
  8
0
  6
________________
 62
     7
370
     9
100
AcDbLine
 10
71.80000000032081
 20
114.1881082200749
 30
0.0
 11
73.20000000032047
 21
114.188108220022
 31
0.0
  0
LINE
  5
6731
330
6724
100
AcDbEntity
  8
0
  6
________________
 62
     7
370
     9
100
AcDbLine
 10
73.2000000003208
 20
114.1881082201431
 30
0.0
 11
73.20000000017315
 21
114.5777791334501
 31
0.0
  0
ARC
  5
6732
330
6724
100
AcDbEntity
  8
0
  6
________________
 62
     7
370
     9
100
AcDbCircle
 10
-72.51885803666735
 20
102.5920015956937
 30
0.0
 40
12.0051163076012
210
0.0
220
0.0
230
-1.0
100
AcDbArc
 50
93.25257398068621
 51
104.9989906527709
  0
LINE
  5
6733
330
6724
100
AcDbEntity
  8
0
  6
________________
 62
     7
370
     9
100
AcDbLine
 10
75.62580649419856
 20
114.1881082199303
 30
0.0
 11
75.70322747223756
 21
114.1881082199274
 31
0.0
  0
LINE
  5
6734
330
6724
100
AcDbEntity
  8
0
  6
________________
 62
     7
370
     9
100
AcDbLine
 10
37.50000000001221
 20
113.1266124581805
 30
0.0
 11
37.50000000001221
 21
105.1266124581805
 31
0.0
  0
LINE
  5
6735
330
6724
100
AcDbEntity
  8
0
  6
________________
 62
     7
370
     9
100
AcDbLine
 10
107.4999999999877
 20
113.1266124581805
 30
0.0
 11
37.50000000001221
 21
113.1266124581805
 31
0.0
  0
LINE
  5
6736
330
6724
100
AcDbEntity
  8
0
  6
________________
 62
     7
370
     9
100
AcDbLine
 10
107.4999999999877
 20
113.1266124581805
 30
0.0
 11
107.4999999999877
 21
105.1266124581805
 31
0.0
  0
LINE
  5
6737
330
6724
100
AcDbEntity
  8
0
  6
________________
 62
     7
370
     9
100
AcDbLine
 10
107.4999999999877
 20
105.1266124581805
 30
0.0
 11
37.50000000001221
 21
105.1266124581805
 31
0.0
  0
LINE
  5
6738
330
6724
100
AcDbEntity
  8
0
  6
________________
 62
   253
370
     9
100
AcDbLine
 10
104.4999999999852
 20
103.7266124581805
 30
0.0
 11
104.4999999999852
 21
105.1266124581805
 31
0.0
  0
LINE
  5
6739
330
6724
100
AcDbEntity
  8
0
  6
________________
 62
   253
370
     9
100
AcDbLine
 10
40.50000000001474
 20
103.7266124581805
 30
0.0
 11
40.50000000001474
 21
105.1266124581805
 31
0.0
  0
LINE
  5
673A
330
6724
100
AcDbEntity
  8
0
  6
________________
 62
     7
370
     9
100
AcDbLine
 10
104.4999999999852
 20
103.7266124581805
 30
0.0
 11
40.50000000001474
 21
103.7266124581805
 31
0.0
  0
LINE
  5
673B
330
6724
100
AcDbEntity
  8
0
  6
________________
 62
     7
370
     9
100
AcDbLine
 10
38.50000000001567
 20
103.7266124581805
 30
0.0
 11
38.50000000001567
 21
105.1266124581805
 31
0.0
  0
LINE
  5
673C
330
6724
100
AcDbEntity
  8
0
  6
________________
 62
     7
370
     9
100
AcDbLine
 10
40.50000000001474
 20
103.7266124581805
 30
0.0
 11
38.50000000001474
 21
103.7266124581805
 31
0.0
  0
LINE
  5
673D
330
6724
100
AcDbEntity
  8
0
  6
________________
 62
     7
370
     9
100
AcDbLine
 10
106.4999999999843
 20
103.7266124581805
 30
0.0
 11
106.4999999999843
 21
105.1266124581805
 31
0.0
  0
LINE
  5
673E
330
6724
100
AcDbEntity
  8
0
  6
________________
 62
     7
370
     9
100
AcDbLine
 10
106.4999999999852
 20
103.7266124581805
 30
0.0
 11
104.4999999999852
 21
103.7266124581805
 31
0.0
  0
LINE
  5
673F
330
6724
100
AcDbEntity
  8
0
  6
________________
 62
   253
370
     9
100
AcDbLine
 10
104.4999999999999
 20
94.32661245818063
 30
0.0
 11
104.4999999999999
 21
95.72661245818065
 31
0.0
  0
LINE
  5
6740
330
6724
100
AcDbEntity
  8
0
  6
________________
 62
   253
370
     9
100
AcDbLine
 10
40.50000000000001
 20
94.32661245818063
 30
0.0
 11
40.50000000000001
 21
95.72661245818065
 31
0.0
  0
LINE
  5
6741
330
6724
100
AcDbEntity
  8
0
  6
________________
 62
     7
370
     9
100
AcDbLine
 10
104.4999999999999
 20
95.72661245818065
 30
0.0
 11
40.50000000000001
 21
95.72661245818065
 31
0.0
  0
LINE
  5
6742
330
6724
100
AcDbEntity
  8
0
  6
________________
 62
     7
370
     9
100
AcDbLine
 10
106.4999999999999
 20
94.32661245818063
 30
0.0
 11
106.4999999999999
 21
95.72661245818065
 31
0.0
  0
LINE
  5
6743
330
6724
100
AcDbEntity
  8
0
  6
________________
 62
     7
370
     9
100
AcDbLine
 10
106.4999999999999
 20
95.72661245818065
 30
0.0
 11
104.4999999999999
 21
95.72661245818065
 31
0.0
  0
LINE
  5
6744
330
6724
100
AcDbEntity
  8
0
  6
________________
 62
     7
370
     9
100
AcDbLine
 10
38.50000000000001
 20
94.32661245818063
 30
0.0
 11
38.50000000000001
 21
95.72661245818065
 31
0.0
  0
LINE
  5
6745
330
6724
100
AcDbEntity
  8
0
  6
________________
 62
     7
370
     9
100
AcDbLine
 10
40.50000000000001
 20
95.72661245818065
 30
0.0
 11
38.50000000000002
 21
95.72661245818065
 31
0.0
  0
LINE
  5
6746
330
6724
100
AcDbEntity
  8
0
  6
________________
 62
     7
370
     9
100
AcDbLine
 10
37.49999999999998
 20
86.32661245818063
 30
0.0
 11
107.5
 21
86.32661245818063
 31
0.0
  0
LINE
  5
6747
330
6724
100
AcDbEntity
  8
0
  6
________________
 62
     7
370
     9
100
AcDbLine
 10
37.49999999999998
 20
86.32661245818063
 30
0.0
 11
37.49999999999998
 21
94.32661245818063
 31
0.0
  0
LINE
  5
6748
330
6724
100
AcDbEntity
  8
0
  6
________________
 62
     7
370
     9
100
AcDbLine
 10
107.5
 20
86.32661245818063
 30
0.0
 11
107.5
 21
94.32661245818063
 31
0.0
  0
LINE
  5
6749
330
6724
100
AcDbEntity
  8
0
  6
________________
 62
     7
370
     9
100
AcDbLine
 10
37.49999999999998
 20
94.32661245818063
 30
0.0
 11
107.5
 21
94.32661245818063
 31
0.0
  0
LINE
  5
674A
330
6724
100
AcDbEntity
  8
0
  6
________________
 62
     7
370
     9
100
AcDbLine
 10
78.49999999999896
 20
103.2266124581799
 30
0.0
 11
77.99999999999822
 21
103.7266124581805
 31
0.0
  0
LINE
  5
674B
330
6724
100
AcDbEntity
  8
0
  6
________________
 62
     7
370
     9
100
AcDbLine
 10
67.00000000000172
 20
103.7266124581805
 30
0.0
 11
66.50000000000098
 21
103.2266124581799
 31
0.0
  0
LINE
  5
674C
330
6724
100
AcDbEntity
  8
0
  6
________________
 62
     7
370
     9
100
AcDbLine
 10
78.49999999999896
 20
99.32661245818169
 30
0.0
 11
78.49999999999896
 21
103.2266124581799
 31
0.0
  0
LINE
  5
674D
330
6724
100
AcDbEntity
  8
0
  6
________________
 62
     7
370
     9
100
AcDbLine
 10
66.50000000000098
 20
103.2266124581799
 30
0.0
 11
66.50000000000098
 21
99.32661245818169
 31
0.0
  0
LINE
  5
674E
330
6724
100
AcDbEntity
  8
0
  6
________________
 62
     7
370
     9
100
AcDbLine
 10
66.85000000007435
 20
113.2166124583941
 30
0.0
 11
66.85000000007093
 21
113.1266124581805
 31
0.0
  0
LINE
  5
674F
330
6724
100
AcDbEntity
  8
0
  6
________________
 62
     7
370
     9
100
AcDbLine
 10
78.15000000007093
 20
113.1266124581805
 30
0.0
 11
78.15000000007434
 21
113.2166124579671
 31
0.0
  0
ARC
  5
6750
330
6724
100
AcDbEntity
  8
0
  6
________________
 62
     7
370
     9
100
AcDbCircle
 10
72.47499354353118
 20
102.6166385133285
 30
0.0
 40
12.00000000000001
100
AcDbArc
 50
105.3581440244688
 51
117.953151983981
  0
ARC
  5
6751
330
6724
100
AcDbEntity
  8
0
  6
________________
 62
     7
370
     9
100
AcDbCircle
 10
72.52500645581641
 20
102.6166385133266
 30
0.0
 40
12.00000000000001
100
AcDbArc
 50
62.04684801168901
 51
74.6418559712011
  0
ENDBLK
  5
6752
330
6724
100
AcDbEntity
  8
0
100
AcDbBlockEnd
  0
BLOCK
  5
6A5C
330
6A54
100
AcDbEntity
  8
0
100
AcDbBlockBegin
  2
*D7
 70
     1
 10
0.0
 20
0.0
 30
0.0
  3
*D7
  1

  0
LINE
  5
6A55
330
6A54
100
AcDbEntity
  8
0
  6
Continuous
 62
     7
370
     0
100
AcDbLine
 10
452.5595088300199
 20
79.11649851360616
 30
0.0
 11
464.3525646052315
 21
82.94407265336966
 31
0.0
  0
MTEXT
  5
6A56
330
6A54
100
AcDbEntity
  8
0
  6
Continuous
 62
     7
370
     0
100
AcDbMText
 10
458.2771920241058
 20
83.6058805925489
 30
0.0
 40
2.5
 41
0.0
 71
     5
 72
     1
  1
\A1;%%c14.00
 11
0.9511565420879076
 21
0.3087089769400537
 31
0.0
 73
     1
 44
1.0
  0
SOLID
  5
6A57
330
6A54
100
AcDbEntity
  8
0
 62
     7
100
AcDbTrace
 10
452.4951944598241
 20
79.31465612654114
 30
0.0
 11
452.6238232002158
 21
78.91834090067118
 31
0.0
 12
451.3705631524101
 22
78.73061229243109
 32
0.0
 13
451.3705631524101
 23
78.73061229243109
 33
0.0
  0
LINE
  5
6A58
330
6A54
100
AcDbEntity
  8
0
  6
Continuous
 62
     7
370
     0
100
AcDbLine
 10
444.6224673577947
 20
76.56964945385072
 30
0.0
 11
444.8024673577947
 21
76.56964945385072
 31
0.0
  0
LINE
  5
6A59
330
6A54
100
AcDbEntity
  8
0
  6
Continuous
 62
     7
370
     0
100
AcDbLine
 10
444.7124673577947
 20
76.47964945385071
 30
0.0
 11
444.7124673577947
 21
76.65964945385072
 31
0.0
  0
POINT
  5
6A5A
330
6A54
100
AcDbEntity
  8
Defpoints
 62
     0
100
AcDbPoint
 10
451.3705631524101
 20
78.73061229243109
 30
0.0
  0
POINT
  5
6A5B
330
6A54
100
AcDbEntity
  8
Defpoints
 62
     0
100
AcDbPoint
 10
438.0543715631794
 20
74.40868661527034
 30
0.0
  0
ENDBLK
  5
6A5D
330
6A54
100
AcDbEntity
  8
0
100
AcDbBlockEnd
  0
ENDSEC
  0
SECTION
  2
ENTITIES
  0
CIRCLE
  5
67AA
330
A
100
AcDbEntity
  8
0
  6
CENTER
 62
     1
100
AcDbCircle
 10
0.0
 20
0.0
 30
0.0
 40
7.999999999999951
210
0.0
220
0.0
230
-1.0
  0
CIRCLE
  5
67B0
330
A
100
AcDbEntity
  8
0
  6
CENTER
 62
     1
100
AcDbCircle
 10
0.0
 20
89.99999999999963
 30
0.0
 40
7.999999999999951
210
0.0
220
0.0
230
-1.0
  0
LINE
  5
67B6
330
A
100
AcDbEntity
  8
0
  6
________________
 62
     7
370
     9
100
AcDbLine
 10
17.49999999999994
 20
20.99999999999989
 30
0.0
 11
17.49999999999994
 21
68.99999999999986
 31
0.0
  0
LINE
  5
67B8
330
A
100
AcDbEntity
  8
0
  6
________________
 62
   253
370
     9
100
AcDbLine
 10
18.99999999999994
 20
68.99999999999986
 30
0.0
 11
18.99999999999994
 21
20.99999999999989
 31
0.0
  0
ARC
  5
67BA
330
A
100
AcDbEntity
  8
0
  6
________________
 62
   253
370
     9
100
AcDbCircle
 10
11.50000000000006
 20
68.99999999999986
 30
0.0
 40
7.500000000000006
210
0.0
220
0.0
230
-1.0
100
AcDbArc
 50
0.0
 51
90.0
  0
ARC
  5
67BC
330
A
100
AcDbEntity
  8
0
  6
________________
 62
     7
370
     9
100
AcDbCircle
 10
-11.50000000000006
 20
68.99999999999986
 30
0.0
 40
6.000000000000005
100
AcDbArc
 50
90.0
 51
180.0
  0
ARC
  5
67BE
330
A
100
AcDbEntity
  8
0
  6
________________
 62
     7
370
     9
100
AcDbCircle
 10
11.49999999999994
 20
68.99999999999986
 30
0.0
 40
5.999999999999991
100
AcDbArc
 50
0.0
 51
90.0
  0
ARC
  5
67C0
330
A
100
AcDbEntity
  8
0
  6
________________
 62
   253
370
     9
100
AcDbCircle
 10
-11.49999999999994
 20
68.99999999999986
 30
0.0
 40
7.500000000000006
210
0.0
220
0.0
230
-1.0
100
AcDbArc
 50
90.0
 51
180.0
  0
LINE
  5
67C1
330
A
100
AcDbEntity
  8
0
  6
________________
 62
   253
370
     9
100
AcDbLine
 10
-11.50000000000006
 20
76.49999999999986
 30
0.0
 11
11.49999999999994
 21
76.49999999999986
 31
0.0
  0
LINE
  5
67C2
330
A
100
AcDbEntity
  8
0
  6
________________
 62
     7
370
     9
100
AcDbLine
 10
11.49999999999994
 20
74.99999999999986
 30
0.0
 11
-11.50000000000006
 21
74.99999999999986
 31
0.0
  0
ARC
  5
67C3
330
A
100
AcDbEntity
  8
0
  6
________________
 62
     7
370
     9
100
AcDbCircle
 10
11.49999999999994
 20
20.99999999999989
 30
0.0
 40
6.000000000000005
100
AcDbArc
 50
270.0
 51
0.0
  0
ARC
  5
67C4
330
A
100
AcDbEntity
  8
0
  6
________________
 62
   253
370
     9
100
AcDbCircle
 10
-11.49999999999994
 20
20.99999999999989
 30
0.0
 40
7.499999999999993
210
0.0
220
0.0
230
-1.0
100
AcDbArc
 50
180.0
 51
270.0
  0
LINE
  5
67C6
330
A
100
AcDbEntity
  8
0
  6
________________
 62
   253
370
     9
100
AcDbLine
 10
11.49999999999994
 20
13.49999999999986
 30
0.0
 11
-11.50000000000006
 21
13.49999999999986
 31
0.0
  0
LINE
  5
67C8
330
A
100
AcDbEntity
  8
0
  6
________________
 62
     7
370
     9
100
AcDbLine
 10
-11.50000000000006
 20
14.99999999999986
 30
0.0
 11
11.49999999999994
 21
14.99999999999986
 31
0.0
  0
ARC
  5
67C9
330
A
100
AcDbEntity
  8
0
  6
________________
 62
   253
370
     9
100
AcDbCircle
 10
11.50000000000006
 20
20.99999999999989
 30
0.0
 40
7.500000000000006
210
0.0
220
0.0
230
-1.0
100
AcDbArc
 50
270.0
 51
0.0
  0
ARC
  5
67CB
330
A
100
AcDbEntity
  8
0
  6
________________
 62
     7
370
     9
100
AcDbCircle
 10
-11.50000000000006
 20
20.99999999999989
 30
0.0
 40
6.000000000000005
100
AcDbArc
 50
180.0
 51
270.0
  0
LINE
  5
67CC
330
A
100
AcDbEntity
  8
0
  6
________________
 62
   253
370
     9
100
AcDbLine
 10
-19.0
 20
20.99999999999989
 30
0.0
 11
-19.00000000000006
 21
68.99999999999986
 31
0.0
  0
LINE
  5
67CD
330
A
100
AcDbEntity
  8
0
  6
________________
 62
     7
370
     9
100
AcDbLine
 10
-17.50000000000006
 20
68.99999999999986
 30
0.0
 11
-17.50000000000006
 21
20.99999999999989
 31
0.0
  0
LINE
  5
67CE
330
A
100
AcDbEntity
  8
0
  6
________________
 62
     7
370
     9
100
AcDbLine
 10
35.0
 20
104.9999999999999
 30
0.0
 11
35.0
 21
-15.00000000000011
 31
0.0
  0
LINE
  5
67CF
330
A
100
AcDbEntity
  8
0
  6
________________
 62
     7
370
     9
100
AcDbLine
 10
35.0
 20
-15.00000000000011
 30
0.0
 11
-35.0
 21
-15.00000000000011
 31
0.0
  0
LINE
  5
67D0
330
A
100
AcDbEntity
  8
0
  6
________________
 62
     7
370
     9
100
AcDbLine
 10
-35.0
 20
104.9999999999999
 30
0.0
 11
35.0
 21
104.9999999999999
 31
0.0
  0
LINE
  5
67D1
330
A
100
AcDbEntity
  8
0
  6
________________
 62
     7
370
     9
100
AcDbLine
 10
-35.0
 20
-15.00000000000011
 30
0.0
 11
-35.0
 21
104.9999999999999
 31
0.0
  0
LINE
  5
67D4
330
A
100
AcDbEntity
  8
0
  6
________________
 62
     7
370
     9
100
AcDbLine
 10
112.0366753351937
 20
5.999999999999147
 30
0.0
 11
112.0366753351937
 21
-5.999999999999403
 31
0.0
  0
LINE
  5
67D5
330
A
100
AcDbEntity
  8
0
  6
________________
 62
     7
370
     9
100
AcDbLine
 10
119.5366753351937
 20
3.390796366636948
 30
0.0
 11
115.9366753351936
 21
3.390796366636948
 31
0.0
  0
LINE
  5
67D6
330
A
100
AcDbEntity
  8
0
  6
________________
 62
     7
370
     9
100
AcDbLine
 10
115.9366753351936
 20
3.390796366636607
 30
0.0
 11
115.9366753351936
 21
-3.390796366636579
 31
0.0
  0
LINE
  5
67D7
330
A
100
AcDbEntity
  8
0
  6
________________
 62
     7
370
     9
100
AcDbLine
 10
115.9366753351936
 20
-3.390796366637204
 30
0.0
 11
119.5366753351937
 21
-3.390796366637204
 31
0.0
  0
LINE
  5
67D8
330
A
100
AcDbEntity
  8
0
  6
________________
 62
     7
370
     9
100
AcDbLine
 10
112.0366753351944
 20
95.99999999999434
 30
0.0
 11
112.0366753351944
 21
84.00000000000537
 31
0.0
  0
LINE
  5
67D9
330
A
100
AcDbEntity
  8
0
  6
________________
 62
     7
370
     9
100
AcDbLine
 10
119.5366753351937
 20
93.3907963666361
 30
0.0
 11
115.9366753351927
 21
93.3907963666361
 31
0.0
  0
LINE
  5
67DA
330
A
100
AcDbEntity
  8
0
  6
________________
 62
     7
370
     9
100
AcDbLine
 10
115.9366753351927
 20
93.39079636663365
 30
0.0
 11
115.9366753351927
 21
86.6092036333682
 31
0.0
  0
LINE
  5
67DB
330
A
100
AcDbEntity
  8
0
  6
________________
 62
     7
370
     9
100
AcDbLine
 10
115.9366753351927
 20
86.60920363336365
 30
0.0
 11
119.5366753351937
 21
86.60920363336365
 31
0.0
  0
LINE
  5
67DC
330
A
100
AcDbEntity
  8
0
  6
________________
 62
     7
370
     9
100
AcDbLine
 10
102.0466753354069
 20
-5.650000000091609
 30
0.0
 11
102.0466753349859
 21
5.649999999908403
 31
0.0
  0
LINE
  5
67DD
330
A
100
AcDbEntity
  8
0
  6
________________
 62
     7
370
     9
100
AcDbLine
 10
101.0751795734479
 20
-3.203227472254298
 30
0.0
 11
101.075179573445
 21
-3.125806494121434
 31
0.0
  0
ARC
  5
67DE
330
A
100
AcDbEntity
  8
0
  6
________________
 62
     7
370
     9
100
AcDbCircle
 10
-112.6712631409474
 20
-0.0188617403464377
 30
0.0
 40
12.00509307786473
210
0.0
220
0.0
230
-1.0
100
AcDbArc
 50
345.0009979427627
 51
356.7474374240008
  0
LINE
  5
67DF
330
A
100
AcDbEntity
  8
0
  6
________________
 62
     7
370
     9
100
AcDbLine
 10
100.6855086599269
 20
-0.700000000095315
 30
0.0
 11
101.075179573238
 21
-0.699999999917992
 31
0.0
  0
LINE
  5
67E0
330
A
100
AcDbEntity
  8
0
  6
________________
 62
     7
370
     9
100
AcDbLine
 10
101.0751795733547
 20
-0.699999999917992
 30
0.0
 11
101.0751795733025
 21
0.700000000081701
 31
0.0
  0
LINE
  5
67E1
330
A
100
AcDbEntity
  8
0
  6
________________
 62
     7
370
     9
100
AcDbLine
 10
101.0751795731828
 20
0.7000000000820137
 30
0.0
 11
100.6855086598748
 21
0.6999999999046622
 31
0.0
  0
ARC
  5
67E2
330
A
100
AcDbEntity
  8
0
  6
________________
 62
     7
370
     9
100
AcDbCircle
 10
-112.6712861976778
 20
0.0188580372995659
 30
0.0
 40
12.00511630759682
210
0.0
220
0.0
230
-1.0
100
AcDbArc
 50
3.252573976381921
 51
14.99899064847288
  0
LINE
  5
67E3
330
A
100
AcDbEntity
  8
0
  6
________________
 62
     7
370
     9
100
AcDbLine
 10
101.0751795732121
 20
3.125806493959715
 30
0.0
 11
101.0751795732093
 21
3.203227471998702
 31
0.0
  0
LINE
  5
67E4
330
A
100
AcDbEntity
  8
0
  6
________________
 62
     7
370
     9
100
AcDbLine
 10
102.046675335407
 20
84.34999999987505
 30
0.0
 11
102.0466753349804
 21
95.64999999987506
 31
0.0
  0
LINE
  5
67E5
330
A
100
AcDbEntity
  8
0
  6
________________
 62
     7
370
     9
100
AcDbLine
 10
101.0751795734469
 20
86.79677252771185
 30
0.0
 11
101.0751795734439
 21
86.87419350584474
 31
0.0
  0
ARC
  5
67E6
330
A
100
AcDbEntity
  8
0
  6
________________
 62
     7
370
     9
100
AcDbCircle
 10
-112.6712631409451
 20
89.98113825962582
 30
0.0
 40
12.00509307786557
210
0.0
220
0.0
230
-1.0
100
AcDbArc
 50
345.0009979427332
 51
356.7474374239708
  0
LINE
  5
67E7
330
A
100
AcDbEntity
  8
0
  6
________________
 62
     7
370
     9
100
AcDbLine
 10
100.6855086599242
 20
89.29999999987061
 30
0.0
 11
101.0751795732342
 21
89.3000000000481
 31
0.0
  0
LINE
  5
67E8
330
A
100
AcDbEntity
  8
0
  6
________________
 62
     7
370
     9
100
AcDbLine
 10
101.0751795733523
 20
89.3000000000481
 30
0.0
 11
101.0751795732994
 21
90.7000000000478
 31
0.0
  0
LINE
  5
67E9
330
A
100
AcDbEntity
  8
0
  6
________________
 62
     7
370
     9
100
AcDbLine
 10
101.0751795731782
 20
90.70000000004814
 30
0.0
 11
100.6855086598713
 21
90.69999999987061
 31
0.0
  0
ARC
  5
67EA
330
A
100
AcDbEntity
  8
0
  6
________________
 62
     7
370
     9
100
AcDbCircle
 10
-112.6712861976749
 20
90.01885803727143
 30
0.0
 40
12.00511630759693
210
0.0
220
0.0
230
-1.0
100
AcDbArc
 50
3.252573976353339
 51
14.99899064844429
  0
LINE
  5
67EB
330
A
100
AcDbEntity
  8
0
  6
________________
 62
     7
370
     9
100
AcDbLine
 10
101.0751795732079
 20
93.12580649392586
 30
0.0
 11
101.0751795732049
 21
93.20322747196485
 31
0.0
  0
LINE
  5
67EC
330
A
100
AcDbEntity
  8
0
  6
________________
 62
     7
370
     9
100
AcDbLine
 10
102.1366753351938
 20
104.9999999999946
 30
0.0
 11
110.1366753351938
 21
104.9999999999946
 31
0.0
  0
LINE
  5
67ED
330
A
100
AcDbEntity
  8
0
  6
________________
 62
     7
370
     9
100
AcDbLine
 10
102.1366753351938
 20
104.9999999999946
 30
0.0
 11
102.1366753351938
 21
-14.99999999996336
 31
0.0
  0
LINE
  5
67EE
330
A
100
AcDbEntity
  8
0
  6
________________
 62
     7
370
     9
100
AcDbLine
 10
102.1366753351938
 20
-14.99999999996339
 30
0.0
 11
110.1366753351938
 21
-14.99999999996339
 31
0.0
  0
LINE
  5
67EF
330
A
100
AcDbEntity
  8
0
  6
________________
 62
     7
370
     9
100
AcDbLine
 10
110.1366753351938
 20
104.9999999999946
 30
0.0
 11
110.1366753351938
 21
-14.99999999996336
 31
0.0
  0
LINE
  5
67F0
330
A
100
AcDbEntity
  8
0
  6
________________
 62
   253
370
     9
100
AcDbLine
 10
111.5366753351938
 20
101.9999999999942
 30
0.0
 11
110.1366753351938
 21
101.9999999999942
 31
0.0
  0
LINE
  5
67F1
330
A
100
AcDbEntity
  8
0
  6
________________
 62
   253
370
     9
100
AcDbLine
 10
111.5366753351938
 20
-11.99999999995322
 30
0.0
 11
110.1366753351938
 21
-11.99999999995322
 31
0.0
  0
LINE
  5
67F2
330
A
100
AcDbEntity
  8
0
  6
________________
 62
     7
370
     9
100
AcDbLine
 10
111.5366753351938
 20
101.9999999999942
 30
0.0
 11
111.5366753351938
 21
-11.99999999995322
 31
0.0
  0
LINE
  5
67F3
330
A
100
AcDbEntity
  8
0
  6
________________
 62
     7
370
     9
100
AcDbLine
 10
111.5366753351938
 20
-13.99999999995234
 30
0.0
 11
110.1366753351938
 21
-13.99999999995234
 31
0.0
  0
LINE
  5
67F4
330
A
100
AcDbEntity
  8
0
  6
________________
 62
     7
370
     9
100
AcDbLine
 10
111.5366753351938
 20
-11.99999999995322
 30
0.0
 11
111.5366753351938
 21
-13.99999999995327
 31
0.0
  0
LINE
  5
67F5
330
A
100
AcDbEntity
  8
0
  6
________________
 62
     7
370
     9
100
AcDbLine
 10
111.5366753351938
 20
103.9999999999932
 30
0.0
 11
110.1366753351938
 21
103.9999999999932
 31
0.0
  0
LINE
  5
67F6
330
A
100
AcDbEntity
  8
0
  6
________________
 62
     7
370
     9
100
AcDbLine
 10
111.5366753351938
 20
103.9999999999942
 30
0.0
 11
111.5366753351938
 21
101.9999999999942
 31
0.0
  0
LINE
  5
67F7
330
A
100
AcDbEntity
  8
0
  6
________________
 62
     7
370
     9
100
AcDbLine
 10
120.9366753351937
 20
103.9999999999996
 30
0.0
 11
119.5366753351937
 21
103.9999999999996
 31
0.0
  0
LINE
  5
67F8
330
A
100
AcDbEntity
  8
0
  6
________________
 62
     7
370
     9
100
AcDbLine
 10
119.5366753351937
 20
103.9999999999996
 30
0.0
 11
119.5366753351937
 21
101.9999999999996
 31
0.0
  0
LINE
  5
67F9
330
A
100
AcDbEntity
  8
0
  6
________________
 62
     7
370
     9
100
AcDbLine
 10
120.9366753351937
 20
-13.99999999999997
 30
0.0
 11
119.5366753351937
 21
-13.99999999999997
 31
0.0
  0
LINE
  5
67FA
330
A
100
AcDbEntity
  8
0
  6
________________
 62
     7
370
     9
100
AcDbLine
 10
119.5366753351937
 20
-11.99999999999997
 30
0.0
 11
119.5366753351937
 21
-14.0
 31
0.0
  0
LINE
  5
67FB
330
A
100
AcDbEntity
  8
0
  6
________________
 62
   253
370
     9
100
AcDbLine
 10
120.9366753351937
 20
101.9999999999996
 30
0.0
 11
119.5366753351937
 21
101.9999999999996
 31
0.0
  0
LINE
  5
67FC
330
A
100
AcDbEntity
  8
0
  6
________________
 62
   253
370
     9
100
AcDbLine
 10
120.9366753351937
 20
-11.99999999999997
 30
0.0
 11
119.5366753351937
 21
-11.99999999999997
 31
0.0
  0
LINE
  5
67FD
330
A
100
AcDbEntity
  8
0
  6
________________
 62
     7
370
     9
100
AcDbLine
 10
119.5366753351937
 20
101.9999999999996
 30
0.0
 11
119.5366753351937
 21
-11.99999999999997
 31
0.0
  0
LINE
  5
67FE
330
A
100
AcDbEntity
  8
0
  6
________________
 62
     7
370
     9
100
AcDbLine
 10
128.9366753351937
 20
104.9999999999999
 30
0.0
 11
120.9366753351937
 21
104.9999999999999
 31
0.0
  0
LINE
  5
67FF
330
A
100
AcDbEntity
  8
0
  6
________________
 62
     7
370
     9
100
AcDbLine
 10
128.9366753351937
 20
-15.00000000000011
 30
0.0
 11
128.9366753351937
 21
104.9999999999999
 31
0.0
  0
LINE
  5
6800
330
A
100
AcDbEntity
  8
0
  6
________________
 62
     7
370
     9
100
AcDbLine
 10
128.9366753351937
 20
-15.00000000000011
 30
0.0
 11
120.9366753351937
 21
-15.00000000000011
 31
0.0
  0
LINE
  5
6801
330
A
100
AcDbEntity
  8
0
  6
________________
 62
     7
370
     9
100
AcDbLine
 10
120.9366753351937
 20
-15.00000000000011
 30
0.0
 11
120.9366753351937
 21
104.9999999999999
 31
0.0
  0
LINE
  5
6802
330
A
100
AcDbEntity
  8
0
  6
________________
 62
     7
370
     9
100
AcDbLine
 10
112.0366753351937
 20
5.999999999999631
 30
0.0
 11
111.5366753351938
 21
5.499999999999687
 31
0.0
  0
LINE
  5
6803
330
A
100
AcDbEntity
  8
0
  6
________________
 62
     7
370
     9
100
AcDbLine
 10
111.5366753351938
 20
-5.499999999999943
 30
0.0
 11
112.0366753351937
 21
-5.999999999999886
 31
0.0
  0
LINE
  5
6804
330
A
100
AcDbEntity
  8
0
  6
________________
 62
     7
370
     9
100
AcDbLine
 10
119.5366753351937
 20
5.999999999999631
 30
0.0
 11
112.0366753351937
 21
5.999999999999631
 31
0.0
  0
LINE
  5
6805
330
A
100
AcDbEntity
  8
0
  6
________________
 62
     7
370
     9
100
AcDbLine
 10
112.0366753351937
 20
-5.999999999999886
 30
0.0
 11
119.5366753351937
 21
-5.999999999999886
 31
0.0
  0
LINE
  5
6806
330
A
100
AcDbEntity
  8
0
  6
________________
 62
     7
370
     9
100
AcDbLine
 10
112.0366753351944
 20
95.99999999999815
 30
0.0
 11
111.5366753351938
 21
95.49999999999747
 31
0.0
  0
LINE
  5
6807
330
A
100
AcDbEntity
  8
0
  6
________________
 62
     7
370
     9
100
AcDbLine
 10
111.5366753351938
 20
84.5000000000023
 30
0.0
 11
112.0366753351944
 21
84.00000000000162
 31
0.0
  0
LINE
  5
6808
330
A
100
AcDbEntity
  8
0
  6
________________
 62
     7
370
     9
100
AcDbLine
 10
119.5366753351937
 20
95.99999999999815
 30
0.0
 11
112.0366753351944
 21
95.99999999999815
 31
0.0
  0
LINE
  5
6809
330
A
100
AcDbEntity
  8
0
  6
________________
 62
     7
370
     9
100
AcDbLine
 10
112.0366753351944
 20
84.00000000000162
 30
0.0
 11
119.5366753351937
 21
84.00000000000162
 31
0.0
  0
LINE
  5
680A
330
A
100
AcDbEntity
  8
0
  6
________________
 62
     7
370
     9
100
AcDbLine
 10
102.0466753354069
 20
-5.650000000091609
 30
0.0
 11
102.1366753351938
 21
-5.650000000088255
 31
0.0
  0
LINE
  5
680B
330
A
100
AcDbEntity
  8
0
  6
________________
 62
     7
370
     9
100
AcDbLine
 10
102.1366753351938
 20
5.649999999911756
 30
0.0
 11
102.0466753349859
 21
5.649999999908403
 31
0.0
  0
ARC
  5
680C
330
A
100
AcDbEntity
  8
0
  6
________________
 62
     7
370
     9
100
AcDbCircle
 10
112.6466492800503
 20
-0.0250064558393319
 30
0.0
 40
12.00000000000002
100
AcDbArc
 50
195.3581440287684
 51
207.9531519882804
  0
ARC
  5
680D
330
A
100
AcDbEntity
  8
0
  6
________________
 62
     7
370
     9
100
AcDbCircle
 10
112.6466492800484
 20
0.025006456445908
 30
0.0
 40
11.99999999999998
100
AcDbArc
 50
152.0468480159884
 51
164.6418559755004
  0
LINE
  5
680E
330
A
100
AcDbEntity
  8
0
  6
________________
 62
     7
370
     9
100
AcDbLine
 10
102.046675335407
 20
84.34999999987505
 30
0.0
 11
102.1366753351938
 21
84.34999999987843
 31
0.0
  0
LINE
  5
680F
330
A
100
AcDbEntity
  8
0
  6
________________
 62
     7
370
     9
100
AcDbLine
 10
102.1366753351938
 20
95.64999999987842
 30
0.0
 11
102.0466753349804
 21
95.64999999987506
 31
0.0
  0
ARC
  5
6810
330
A
100
AcDbEntity
  8
0
  6
________________
 62
     7
370
     9
100
AcDbCircle
 10
112.6466492800476
 20
89.97499354413262
 30
0.0
 40
12.0
100
AcDbArc
 50
195.3581440287972
 51
207.9531519883092
  0
ARC
  5
6811
330
A
100
AcDbEntity
  8
0
  6
________________
 62
     7
370
     9
100
AcDbCircle
 10
112.6466492800458
 20
90.02500645641786
 30
0.0
 40
12.00000000000002
100
AcDbArc
 50
152.046848016017
 51
164.6418559755293
  0
LINE
  5
6A22
330
A
100
AcDbEntity
  8
0
  6
________________
 62
     7
370
     9
100
AcDbLine
 10
5.999999999994486
 20
-57.27338754182027
 30
0.0
 11
-5.999999999994486
 21
-57.27338754182027
 31
0.0
  0
LINE
  5
6A23
330
A
100
AcDbEntity
  8
0
  6
________________
 62
     7
370
     9
100
AcDbLine
 10
5.999999999994486
 20
-61.17338754181846
 30
0.0
 11
4.949999999995612
 21
-61.17338754181846
 31
0.0
  0
LINE
  5
6A24
330
A
100
AcDbEntity
  8
0
  6
________________
 62
     7
370
     9
100
AcDbLine
 10
4.949999999999136
 20
-61.17338754181844
 30
0.0
 11
4.949999999999136
 21
-64.77338754181949
 31
0.0
  0
LINE
  5
6A25
330
A
100
AcDbEntity
  8
0
  6
________________
 62
     7
370
     9
100
AcDbLine
 10
-4.949999999999193
 20
-64.77338754181949
 30
0.0
 11
-4.949999999999193
 21
-61.17338754181844
 31
0.0
  0
LINE
  5
6A26
330
A
100
AcDbEntity
  8
0
  6
________________
 62
     7
370
     9
100
AcDbLine
 10
-4.949999999995669
 20
-61.17338754181846
 30
0.0
 11
-5.999999999993634
 21
-61.17338754181846
 31
0.0
  0
LINE
  5
6A27
330
A
100
AcDbEntity
  8
0
  6
________________
 62
     7
370
     9
100
AcDbLine
 10
-5.649999999925683
 20
-47.28338754160603
 30
0.0
 11
0.0000000004534968
 21
-47.28338754181955
 31
0.0
  0
LINE
  5
6A28
330
A
100
AcDbEntity
  8
0
  6
________________
 62
     7
370
     9
100
AcDbLine
 10
0.0000000004534968
 20
-47.28338754181955
 30
0.0
 11
5.650000000074385
 21
-47.28338754203304
 31
0.0
  0
LINE
  5
6A29
330
A
100
AcDbEntity
  8
0
  6
________________
 62
     7
370
     9
100
AcDbLine
 10
-3.203227472015442
 20
-46.31189177983066
 30
0.0
 11
-3.125806493882578
 21
-46.31189177983359
 31
0.0
  0
ARC
  5
6A2A
330
A
100
AcDbEntity
  8
0
  6
________________
 62
     7
370
     9
100
AcDbCircle
 10
0.0188617409778544
 20
-57.90797534756784
 30
0.0
 40
12.0050930778638
210
0.0
220
0.0
230
-1.0
100
AcDbArc
 50
75.00099794706135
 51
86.74743742830049
  0
LINE
  5
6A2B
330
A
100
AcDbEntity
  8
0
  6
________________
 62
     7
370
     9
100
AcDbLine
 10
-0.6999999998272415
 20
-45.9222208664972
 30
0.0
 11
-0.6999999996791644
 21
-46.31189177980724
 31
0.0
  0
LINE
  5
6A2C
330
A
100
AcDbEntity
  8
0
  6
________________
 62
     7
370
     9
100
AcDbLine
 10
-0.6999999996791644
 20
-46.31189177992525
 30
0.0
 11
0.7000000003204718
 21
-46.31189177997815
 31
0.0
  0
LINE
  5
6A2D
330
A
100
AcDbEntity
  8
0
  6
________________
 62
     7
370
     9
100
AcDbLine
 10
0.7000000003208129
 20
-46.31189177985701
 30
0.0
 11
0.7000000001731337
 21
-45.92222086655009
 31
0.0
  0
ARC
  5
6A2E
330
A
100
AcDbEntity
  8
0
  6
________________
 62
     7
370
     9
100
AcDbCircle
 10
-0.0188580366673818
 20
-57.90799840430641
 30
0.0
 40
12.0051163076012
210
0.0
220
0.0
230
-1.0
100
AcDbArc
 50
93.25257398068598
 51
104.9989906527708
  0
LINE
  5
6A2F
330
A
100
AcDbEntity
  8
0
  6
________________
 62
     7
370
     9
100
AcDbLine
 10
3.125806494198571
 20
-46.31189178006981
 30
0.0
 11
3.203227472237529
 21
-46.31189178007274
 31
0.0
  0
LINE
  5
6A30
330
A
100
AcDbEntity
  8
0
  6
________________
 62
     7
370
     9
100
AcDbLine
 10
-34.99999999998778
 20
-47.37338754181967
 30
0.0
 11
-34.99999999998778
 21
-55.37338754181967
 31
0.0
  0
LINE
  5
6A31
330
A
100
AcDbEntity
  8
0
  6
________________
 62
     7
370
     9
100
AcDbLine
 10
34.99999999998772
 20
-47.37338754181967
 30
0.0
 11
-34.99999999998778
 21
-47.37338754181967
 31
0.0
  0
LINE
  5
6A32
330
A
100
AcDbEntity
  8
0
  6
________________
 62
     7
370
     9
100
AcDbLine
 10
34.99999999998772
 20
-47.37338754181967
 30
0.0
 11
34.99999999998772
 21
-55.37338754181967
 31
0.0
  0
LINE
  5
6A33
330
A
100
AcDbEntity
  8
0
  6
________________
 62
     7
370
     9
100
AcDbLine
 10
34.99999999998772
 20
-55.37338754181967
 30
0.0
 11
-34.99999999998778
 21
-55.37338754181967
 31
0.0
  0
LINE
  5
6A34
330
A
100
AcDbEntity
  8
0
  6
________________
 62
   253
370
     9
100
AcDbLine
 10
31.99999999998522
 20
-56.77338754181966
 30
0.0
 11
31.99999999998522
 21
-55.37338754181967
 31
0.0
  0
LINE
  5
6A35
330
A
100
AcDbEntity
  8
0
  6
________________
 62
   253
370
     9
100
AcDbLine
 10
-31.99999999998528
 20
-56.77338754181966
 30
0.0
 11
-31.99999999998528
 21
-55.37338754181967
 31
0.0
  0
LINE
  5
6A36
330
A
100
AcDbEntity
  8
0
  6
________________
 62
     7
370
     9
100
AcDbLine
 10
31.99999999998522
 20
-56.77338754181966
 30
0.0
 11
-31.99999999998528
 21
-56.77338754181966
 31
0.0
  0
LINE
  5
6A37
330
A
100
AcDbEntity
  8
0
  6
________________
 62
     7
370
     9
100
AcDbLine
 10
-33.99999999998431
 20
-56.77338754181966
 30
0.0
 11
-33.99999999998431
 21
-55.37338754181967
 31
0.0
  0
LINE
  5
6A38
330
A
100
AcDbEntity
  8
0
  6
________________
 62
     7
370
     9
100
AcDbLine
 10
-31.99999999998528
 20
-56.77338754181966
 30
0.0
 11
-33.99999999998528
 21
-56.77338754181966
 31
0.0
  0
LINE
  5
6A39
330
A
100
AcDbEntity
  8
0
  6
________________
 62
     7
370
     9
100
AcDbLine
 10
33.99999999998425
 20
-56.77338754181966
 30
0.0
 11
33.99999999998425
 21
-55.37338754181967
 31
0.0
  0
LINE
  5
6A3A
330
A
100
AcDbEntity
  8
0
  6
________________
 62
     7
370
     9
100
AcDbLine
 10
33.99999999998522
 20
-56.77338754181966
 30
0.0
 11
31.99999999998522
 21
-56.77338754181966
 31
0.0
  0
LINE
  5
6A3B
330
A
100
AcDbEntity
  8
0
  6
________________
 62
   253
370
     9
100
AcDbLine
 10
31.99999999999994
 20
-66.17338754181951
 30
0.0
 11
31.99999999999994
 21
-64.77338754181949
 31
0.0
  0
LINE
  5
6A3C
330
A
100
AcDbEntity
  8
0
  6
________________
 62
   253
370
     9
100
AcDbLine
 10
-32.0
 20
-66.17338754181951
 30
0.0
 11
-32.0
 21
-64.77338754181949
 31
0.0
  0
LINE
  5
6A3D
330
A
100
AcDbEntity
  8
0
  6
________________
 62
     7
370
     9
100
AcDbLine
 10
31.99999999999994
 20
-64.77338754181949
 30
0.0
 11
-32.0
 21
-64.77338754181949
 31
0.0
  0
LINE
  5
6A3E
330
A
100
AcDbEntity
  8
0
  6
________________
 62
     7
370
     9
100
AcDbLine
 10
33.99999999999994
 20
-66.17338754181951
 30
0.0
 11
33.99999999999994
 21
-64.77338754181949
 31
0.0
  0
LINE
  5
6A3F
330
A
100
AcDbEntity
  8
0
  6
________________
 62
     7
370
     9
100
AcDbLine
 10
33.99999999999994
 20
-64.77338754181949
 30
0.0
 11
31.99999999999994
 21
-64.77338754181949
 31
0.0
  0
LINE
  5
6A40
330
A
100
AcDbEntity
  8
0
  6
________________
 62
     7
370
     9
100
AcDbLine
 10
-34.0
 20
-66.17338754181951
 30
0.0
 11
-34.0
 21
-64.77338754181949
 31
0.0
  0
LINE
  5
6A41
330
A
100
AcDbEntity
  8
0
  6
________________
 62
     7
370
     9
100
AcDbLine
 10
-32.0
 20
-64.77338754181949
 30
0.0
 11
-34.0
 21
-64.77338754181949
 31
0.0
  0
LINE
  5
6A42
330
A
100
AcDbEntity
  8
0
  6
________________
 62
     7
370
     9
100
AcDbLine
 10
-35.0
 20
-74.17338754181951
 30
0.0
 11
35.0
 21
-74.17338754181951
 31
0.0
  0
LINE
  5
6A43
330
A
100
AcDbEntity
  8
0
  6
________________
 62
     7
370
     9
100
AcDbLine
 10
-35.0
 20
-74.17338754181951
 30
0.0
 11
-35.0
 21
-66.17338754181951
 31
0.0
  0
LINE
  5
6A44
330
A
100
AcDbEntity
  8
0
  6
________________
 62
     7
370
     9
100
AcDbLine
 10
35.0
 20
-74.17338754181951
 30
0.0
 11
35.0
 21
-66.17338754181951
 31
0.0
  0
LINE
  5
6A45
330
A
100
AcDbEntity
  8
0
  6
________________
 62
     7
370
     9
100
AcDbLine
 10
-35.0
 20
-66.17338754181951
 30
0.0
 11
35.0
 21
-66.17338754181951
 31
0.0
  0
LINE
  5
6A46
330
A
100
AcDbEntity
  8
0
  6
________________
 62
     7
370
     9
100
AcDbLine
 10
5.999999999998977
 20
-57.27338754182027
 30
0.0
 11
5.499999999998238
 21
-56.77338754181966
 31
0.0
  0
LINE
  5
6A47
330
A
100
AcDbEntity
  8
0
  6
________________
 62
     7
370
     9
100
AcDbLine
 10
-5.499999999998295
 20
-56.77338754181966
 30
0.0
 11
-5.999999999999034
 21
-57.27338754182027
 31
0.0
  0
LINE
  5
6A48
330
A
100
AcDbEntity
  8
0
  6
________________
 62
     7
370
     9
100
AcDbLine
 10
5.999999999998977
 20
-61.17338754181846
 30
0.0
 11
5.999999999998977
 21
-57.27338754182027
 31
0.0
  0
LINE
  5
6A49
330
A
100
AcDbEntity
  8
0
  6
________________
 62
     7
370
     9
100
AcDbLine
 10
-5.999999999999034
 20
-57.27338754182027
 30
0.0
 11
-5.999999999999034
 21
-61.17338754181846
 31
0.0
  0
LINE
  5
6A4A
330
A
100
AcDbEntity
  8
0
  6
________________
 62
     7
370
     9
100
AcDbLine
 10
-5.649999999925683
 20
-47.28338754160603
 30
0.0
 11
-5.649999999929094
 21
-47.37338754181968
 31
0.0
  0
LINE
  5
6A4B
330
A
100
AcDbEntity
  8
0
  6
________________
 62
     7
370
     9
100
AcDbLine
 10
5.650000000070918
 20
-47.37338754181967
 30
0.0
 11
5.650000000074328
 21
-47.28338754203304
 31
0.0
  0
ARC
  5
6A4C
330
A
100
AcDbEntity
  8
0
  6
________________
 62
     7
370
     9
100
AcDbCircle
 10
-0.0250064564688159
 20
-57.88336148667162
 30
0.0
 40
12.00000000000001
100
AcDbArc
 50
105.3581440244688
 51
117.953151983981
  0
ARC
  5
6A4D
330
A
100
AcDbEntity
  8
0
  6
________________
 62
     7
370
     9
100
AcDbCircle
 10
0.025006455816424
 20
-57.88336148667351
 30
0.0
 40
12.00000000000001
100
AcDbArc
 50
62.04684801168915
 51
74.6418559712013
  0
TEXT
  5
6A4E
330
A
100
AcDbEntity
  8
0
  6
Continuous
 62
     7
370
     0
100
AcDbText
 10
104.489703329119
 20
-52.21039964009525
 30
0.0
 40
10.0
  1
B93
100
AcDbText
  0
LINE
  5
6A65
330
A
100
AcDbEntity
  8
0
  6
CENTER
 62
     1
100
AcDbLine
 10
-10.79999999999995
 20
89.99999999999963
 30
0.0
 11
10.79999999999995
 21
89.99999999999963
 31
0.0
  0
LINE
  5
6A66
330
A
100
AcDbEntity
  8
0
  6
CENTER
 62
     1
100
AcDbLine
 10
0.0
 20
79.19999999999963
 30
0.0
 11
0.0
 21
100.7999999999996
 31
0.0
  0
LINE
  5
6A67
330
A
100
AcDbEntity
  8
0
  6
CENTER
 62
     1
100
AcDbLine
 10
-10.79999999999995
 20
0.0
 30
0.0
 11
10.79999999999995
 21
0.0
 31
0.0
  0
LINE
  5
6A68
330
A
100
AcDbEntity
  8
0
  6
CENTER
 62
     1
100
AcDbLine
 10
0.0
 20
-10.8
 30
0.0
 11
0.0
 21
10.8
 31
0.0
  0
LINE
  5
6A69
330
A
100
AcDbEntity
  8
0
  6
CENTER
 62
     1
100
AcDbLine
 10
95.14085267330182
 20
89.99999999999963
 30
0.0
 11
132.6342423626598
 21
89.99999999999963
 31
0.0
  0
LINE
  5
6A6A
330
A
100
AcDbEntity
  8
0
  6
CENTER
 62
     1
100
AcDbLine
 10
97.04085267330169
 20
-0.0000000000001279
 30
0.0
 11
134.5342423626597
 21
-0.0000000000001279
 31
0.0
  0
LINE
  5
6A6B
330
A
100
AcDbEntity
  8
0
  6
CENTER
 62
     1
100
AcDbLine
 10
0.0
 20
-76.43261671011169
 30
0.0
 11
0.0
 21
-42.08400053894232
 31
0.0
  0
ENDSEC
  0
SECTION
  2
OBJECTS
  0
DICTIONARY
  5
19
330
0
100
AcDbDictionary
281
     1
  3
ACAD_GROUP
350
1A
  3
ACAD_IMAGE_VARS
350
6401
  3
ACAD_LAYOUT
350
1E
  3
ACAD_MLINESTYLE
350
1B
  3
ACAD_PLOTSETTINGS
350
22
  3
ACAD_PLOTSTYLENAME
350
1F
  3
ACAD_SCALELIST
350
3179
  3
ACAD_WIPEOUT_VARS
350
23
  3
ACDB_RECOMPOSE_DATA
350
630A
  3
AcDbVariableDictionary
350
630B
  3
APPDATA
350
6400
  3
ASE_INDEX_DICTIONARY
350
5E44
  3
DWGPROPS
350
6A7B
  0
DICTIONARY
  5
5E41
330
14
100
AcDbDictionary
280
     1
281
     1
  3
ADSK_XREC_LAYER_RECONCILED
360
5E42
  0
DICTIONARY
  5
31A7
330
A
100
AcDbDictionary
280
     1
281
     1
  3
ACAD_SORTENTS
360
31A8
  0
DICTIONARY
  5
1A
102
{ACAD_REACTORS
330
19
102
}
330
19
100
AcDbDictionary
281
     1
  0
RASTERVARIABLES
  5
6401
102
{ACAD_REACTORS
330
19
102
}
330
19
100
AcDbRasterVariables
 90
        0
 70
     1
 71
     1
 72
     0
  0
DICTIONARY
  5
1E
102
{ACAD_REACTORS
330
19
102
}
330
19
100
AcDbDictionary
281
     1
  3
Layout1
350
21
  3
Model
350
20
  0
DICTIONARY
  5
1B
102
{ACAD_REACTORS
330
19
102
}
330
19
100
AcDbDictionary
281
     1
  3
Standard
350
1C
  0
DICTIONARY
  5
22
102
{ACAD_REACTORS
330
19
102
}
330
19
100
AcDbDictionary
281
     1
  0
ACDBDICTIONARYWDFLT
  5
1F
102
{ACAD_REACTORS
330
19
102
}
330
19
100
AcDbDictionary
281
     1
  3
Normal
350
1D
100
AcDbDictionaryWithDefault
340
1D
  0
DICTIONARY
  5
3179
102
{ACAD_REACTORS
330
19
102
}
330
19
100
AcDbDictionary
281
     1
  3
A0
350
317A
  3
A1
350
317B
  3
A2
350
317C
  3
A3
350
317D
  3
A4
350
317E
  3
A5
350
317F
  3
A6
350
3180
  3
A7
350
3181
  3
A8
350
3182
  3
A9
350
3183
  3
B0
350
3184
  3
B1
350
3185
  3
B2
350
3186
  3
B3
350
3187
  3
B4
350
3188
  3
B5
350
3189
  3
B6
350
318A
  3
B7
350
318B
  3
B8
350
318C
  3
B9
350
318D
  3
C0
350
318E
  3
C1
350
318F
  3
C2
350
3190
  3
C3
350
3191
  3
C4
350
3192
  3
C5
350
3193
  3
C6
350
3194
  3
C7
350
3195
  3
C8
350
3196
  3
C9
350
3197
  3
D0
350
3198
  3
D1
350
3199
  3
D2
350
319A
  0
WIPEOUTVARIABLES
  5
23
330
19
100
AcDbWipeoutVariables
 70
     1
  0
XRECORD
  5
630A
102
{ACAD_REACTORS
330
19
102
}
330
19
100
AcDbXrecord
280
     1
 90
        1
330
3178
  0
DICTIONARY
  5
630B
102
{ACAD_REACTORS
330
19
102
}
330
19
100
AcDbDictionary
281
     1
  3
CANNOSCALE
350
6A7C
  3
DIMASSOC
350
6318
  3
INDEXCTL
350
6317
  3
SORTENTS
350
6316
  0
DICTIONARY
  5
6400
102
{ACAD_REACTORS
330
19
102
}
330
19
100
AcDbDictionary
281
     1
  0
DICTIONARY
  5
5E44
102
{ACAD_REACTORS
330
19
102
}
330
19
100
AcDbDictionary
281
     1
  3
ASEBlockHierarchyIndexRecord
350
5E46
1001
DCO15
1040
1685075681.336
  0
XRECORD
  5
6A7B
102
{ACAD_REACTORS
330
19
102
}
330
19
100
AcDbXrecord
280
     1
  1
DWGPROPS COOKIE
  2

  3

  4

  6

  7

  8
renzo.ceresoli
  9

300
=
301
=
302
=
303
=
304
=
305
=
306
=
307
=
308
=
309
=
 40
0.0
 41
2455303.644583333
 42
2455306.347854584
  1

 90
        0
  0
XRECORD
  5
5E42
102
{ACAD_REACTORS
330
5E41
102
}
330
5E41
100
AcDbXrecord
280
     1
290
     1
  0
SORTENTSTABLE
  5
31A8
102
{ACAD_REACTORS
330
31A7
102
}
330
31A7
100
AcDbSortentsTable
330
A
331
0
  5
3130
331
0
  5
3131
331
0
  5
3132
331
0
  5
3133
331
0
  5
3134
331
0
  5
3135
331
0
  5
3136
331
0
  5
3137
331
0
  5
3138
331
0
  5
3139
331
0
  5
313A
331
0
  5
313B
331
0
  5
313C
331
0
  5
313D
331
0
  5
313E
331
0
  5
313F
331
0
  5
3140
331
0
  5
31A1
331
0
  5
31A2
331
0
  5
31A3
331
0
  5
31A4
331
0
  5
31A5
331
0
  5
340D
331
0
  5
340E
331
0
  5
340F
331
0
  5
3410
331
0
  5
3411
331
0
  5
3412
331
0
  5
3413
331
0
  5
3414
331
0
  5
3415
331
0
  5
3416
331
0
  5
3417
331
0
  5
3418
331
0
  5
3419
331
0
  5
341A
331
0
  5
341B
331
0
  5
341C
331
0
  5
341D
331
0
  5
341E
331
0
  5
341F
331
0
  5
3420
331
0
  5
3421
331
0
  5
3422
331
0
  5
3423
331
0
  5
3424
331
0
  5
3425
331
0
  5
3426
331
0
  5
342B
331
0
  5
342C
331
0
  5
3431
331
0
  5
3432
331
0
  5
3433
331
0
  5
3434
331
0
  5
3435
331
0
  5
3436
331
0
  5
3437
331
0
  5
3438
331
0
  5
3439
331
0
  5
343A
331
0
  5
343B
331
0
  5
343C
331
0
  5
343D
331
0
  5
343E
331
0
  5
343F
331
0
  5
3440
331
0
  5
3441
331
0
  5
3442
331
0
  5
3443
331
0
  5
3444
331
0
  5
3445
331
0
  5
3446
331
0
  5
3447
331
0
  5
3448
331
0
  5
3449
331
0
  5
344A
331
0
  5
344B
331
0
  5
344C
331
0
  5
344D
331
0
  5
344E
331
0
  5
344F
331
0
  5
3450
331
0
  5
3451
331
0
  5
3452
331
0
  5
3453
331
0
  5
3454
331
0
  5
3455
331
0
  5
3456
331
0
  5
3457
331
0
  5
3458
331
0
  5
3459
331
0
  5
345A
331
0
  5
345B
331
0
  5
345C
331
0
  5
345D
331
0
  5
345E
331
0
  5
2C8C
331
0
  5
2C8D
331
0
  5
2C8E
331
0
  5
2C8F
331
0
  5
2C90
331
0
  5
2C91
331
0
  5
2C92
331
0
  5
2C93
331
0
  5
2C94
331
0
  5
2C95
331
0
  5
2C96
331
0
  5
2C97
331
0
  5
2C98
331
0
  5
2C99
331
0
  5
2C9A
331
0
  5
2C9B
331
0
  5
2C9C
331
0
  5
2C9D
331
0
  5
2C9E
331
0
  5
2C9F
331
0
  5
2CA0
331
0
  5
2CA1
331
0
  5
2CA2
331
0
  5
2CA3
331
0
  5
2CA4
331
0
  5
2CA5
331
0
  5
2CA6
331
0
  5
2CA7
331
0
  5
2CA8
331
0
  5
2CA9
331
0
  5
2CAA
331
0
  5
2CAB
331
0
  5
2CAC
331
0
  5
2CAD
331
0
  5
2CAE
331
0
  5
2CAF
331
0
  5
2CB0
331
0
  5
2CB1
331
0
  5
2CE6
331
0
  5
2CE7
331
0
  5
3110
331
0
  5
3111
331
0
  5
312A
331
0
  5
312B
331
0
  5
312C
331
0
  5
312D
331
0
  5
312E
331
0
  5
312F
331
0
  5
1905
331
0
  5
1906
331
0
  5
1907
331
0
  5
1908
331
0
  5
1909
331
0
  5
190A
331
0
  5
190B
331
0
  5
190C
331
0
  5
19B6
331
0
  5
19B7
331
0
  5
19B8
331
0
  5
19B9
331
0
  5
19BA
331
0
  5
19BB
331
0
  5
19BC
331
0
  5
1A5A
331
0
  5
1A5B
331
0
  5
1A5C
331
0
  5
1AC4
331
0
  5
1AC5
331
0
  5
1AC6
331
0
  5
1AC7
331
0
  5
1AC8
331
0
  5
1C23
331
0
  5
1C24
331
0
  5
1C25
331
0
  5
1C26
331
0
  5
1EE2
331
0
  5
1EE3
331
0
  5
1EE6
331
0
  5
1EE7
331
0
  5
1FB7
331
0
  5
20D9
331
0
  5
20DA
331
0
  5
20DB
331
0
  5
20DC
331
0
  5
20DD
331
0
  5
20DE
331
0
  5
20DF
331
0
  5
20E0
331
0
  5
20E1
331
0
  5
20E2
331
0
  5
20E3
331
0
  5
2541
331
0
  5
2542
331
0
  5
2543
331
0
  5
2544
331
0
  5
2545
331
0
  5
2546
331
0
  5
2547
331
0
  5
2548
331
0
  5
2549
331
0
  5
254A
331
0
  5
254B
331
0
  5
254C
331
0
  5
254D
331
0
  5
254E
331
0
  5
2753
331
0
  5
2754
331
0
  5
2755
331
0
  5
2756
331
0
  5
2757
331
0
  5
2758
331
0
  5
2759
331
0
  5
275A
331
0
  5
275B
331
0
  5
275C
331
0
  5
275D
331
0
  5
275E
331
0
  5
275F
331
0
  5
2760
331
0
  5
2761
331
0
  5
2C84
331
0
  5
2C85
331
0
  5
2C86
331
0
  5
2C87
331
0
  5
2C88
331
0
  5
2C89
331
0
  5
2C8A
331
0
  5
2C8B
331
0
  5
1215
331
0
  5
1216
331
0
  5
1217
331
0
  5
1218
331
0
  5
1219
331
0
  5
121A
331
0
  5
121B
331
0
  5
121C
331
0
  5
121D
331
0
  5
121E
331
0
  5
121F
331
0
  5
1220
331
0
  5
1221
331
0
  5
1222
331
0
  5
1223
331
0
  5
1224
331
0
  5
1225
331
0
  5
1226
331
0
  5
1227
331
0
  5
1228
331
0
  5
1229
331
0
  5
122A
331
0
  5
122B
331
0
  5
13F6
331
0
  5
13F7
331
0
  5
13F8
331
0
  5
13F9
331
0
  5
13FA
331
0
  5
13FB
331
0
  5
13FC
331
0
  5
13FD
331
0
  5
13FE
331
0
  5
13FF
331
0
  5
1400
331
0
  5
1401
331
0
  5
1402
331
0
  5
1403
331
0
  5
1404
331
0
  5
1405
331
0
  5
167A
331
0
  5
167B
331
0
  5
167C
331
0
  5
167D
331
0
  5
167E
331
0
  5
167F
331
0
  5
1680
331
0
  5
1681
331
0
  5
1682
331
0
  5
1683
331
0
  5
1684
331
0
  5
1685
331
0
  5
1686
331
0
  5
1687
331
0
  5
1688
331
0
  5
1689
331
0
  5
168A
331
0
  5
177F
331
0
  5
1780
331
0
  5
1781
331
0
  5
1782
331
0
  5
1783
331
0
  5
1904
331
0
  5
A89
331
0
  5
A8A
331
0
  5
A8B
331
0
  5
A8C
331
0
  5
A8D
331
0
  5
A8E
331
0
  5
A8F
331
0
  5
A90
331
0
  5
DB9
331
0
  5
DD2
331
0
  5
DD3
331
0
  5
DD4
331
0
  5
DD5
331
0
  5
DD6
331
0
  5
DD7
331
0
  5
DD8
331
0
  5
DD9
331
0
  5
DDA
331
0
  5
DDB
331
0
  5
DDC
331
0
  5
DDD
331
0
  5
DDE
331
0
  5
DDF
331
0
  5
DE0
331
0
  5
DE1
331
0
  5
DE2
331
0
  5
DE3
331
0
  5
DE4
331
0
  5
FC0
331
0
  5
FC1
331
0
  5
FC2
331
0
  5
FC3
331
0
  5
FC4
331
0
  5
FC5
331
0
  5
FC6
331
0
  5
FC7
331
0
  5
FC8
331
0
  5
FC9
331
0
  5
FCA
331
0
  5
FCB
331
0
  5
FCC
331
0
  5
FCD
331
0
  5
FCE
331
0
  5
FCF
331
0
  5
FD0
331
0
  5
1212
331
0
  5
1213
331
0
  5
1214
331
0
  5
4D8
331
0
  5
4D9
331
0
  5
4DA
331
0
  5
4DB
331
0
  5
4DC
331
0
  5
4DD
331
0
  5
4DE
331
0
  5
4DF
331
0
  5
4E0
331
0
  5
4E1
331
0
  5
4EB
331
0
  5
4EC
331
0
  5
4ED
331
0
  5
662
331
0
  5
663
331
0
  5
664
331
0
  5
668
331
0
  5
669
331
0
  5
66A
  0
LAYOUT
  5
21
102
{ACAD_REACTORS
330
1E
102
}
330
1E
100
AcDbPlotSettings
  1

  2

  4

  6

 40
0.0
 41
0.0
 42
0.0
 43
0.0
 44
0.0
 45
0.0
 46
0.0
 47
0.0
 48
0.0
 49
0.0
140
0.0
141
0.0
142
1.0
143
1.0
 70
     0
 72
     0
 73
     0
 74
     0
  7

 75
     0
147
1.0
148
0.0
149
0.0
100
AcDbLayout
  1
Layout1
 70
     0
 71
     1
 10
0.0
 20
0.0
 11
12.0
 21
9.0
 12
0.0
 22
0.0
 32
0.0
 14
1.000000000000000E+20
 24
1.000000000000000E+20
 34
1.000000000000000E+20
 15
-1.000000000000000E+20
 25
-1.000000000000000E+20
 35
-1.000000000000000E+20
146
0.0
 13
0.0
 23
0.0
 33
0.0
 16
1.0
 26
0.0
 36
0.0
 17
0.0
 27
1.0
 37
0.0
 76
     0
330
B
  0
LAYOUT
  5
20
102
{ACAD_REACTORS
330
1E
102
}
330
1E
100
AcDbPlotSettings
  1

  2

  4

  6

 40
0.0
 41
0.0
 42
0.0
 43
0.0
 44
0.0
 45
0.0
 46
0.0
 47
0.0
 48
0.0
 49
0.0
140
0.0
141
0.0
142
1.0
143
1.0
 70
  1024
 72
     0
 73
     0
 74
     0
  7

 75
     0
147
1.0
148
0.0
149
0.0
100
AcDbLayout
  1
Model
 70
     0
 71
     0
 10
0.0
 20
0.0
 11
0.0
 21
0.0
 12
0.0
 22
0.0
 32
0.0
 14
0.0
 24
0.0
 34
0.0
 15
0.0
 25
0.0
 35
0.0
146
0.0
 13
0.0
 23
0.0
 33
0.0
 16
0.0
 26
0.0
 36
0.0
 17
0.0
 27
0.0
 37
0.0
 76
     0
330
A
331
15
  0
MLINESTYLE
  5
1C
102
{ACAD_REACTORS
330
1B
102
}
330
1B
100
AcDbMlineStyle
  2
STANDARD
 70
     0
  3

 62
     0
 51
90.0
 52
90.0
 71
     2
 49
0.5
 62
   256
  6
BYLAYER
 49
-0.5
 62
   256
  6
BYLAYER
  0
ACDBPLACEHOLDER
  5
1D
102
{ACAD_REACTORS
330
1F
102
}
330
1F
  0
SCALE
  5
317A
102
{ACAD_REACTORS
330
3179
102
}
330
3179
100
AcDbScale
 70
     0
300
1:1
140
1.0
141
1.0
290
     1
  0
SCALE
  5
317B
102
{ACAD_REACTORS
330
3179
102
}
330
3179
100
AcDbScale
 70
     0
300
1:2
140
1.0
141
2.0
290
     0
  0
SCALE
  5
317C
102
{ACAD_REACTORS
330
3179
102
}
330
3179
100
AcDbScale
 70
     0
300
1:4
140
1.0
141
4.0
290
     0
  0
SCALE
  5
317D
102
{ACAD_REACTORS
330
3179
102
}
330
3179
100
AcDbScale
 70
     0
300
1:5
140
1.0
141
5.0
290
     0
  0
SCALE
  5
317E
102
{ACAD_REACTORS
330
3179
102
}
330
3179
100
AcDbScale
 70
     0
300
1:8
140
1.0
141
8.0
290
     0
  0
SCALE
  5
317F
102
{ACAD_REACTORS
330
3179
102
}
330
3179
100
AcDbScale
 70
     0
300
1:10
140
1.0
141
10.0
290
     0
  0
SCALE
  5
3180
102
{ACAD_REACTORS
330
3179
102
}
330
3179
100
AcDbScale
 70
     0
300
1:16
140
1.0
141
16.0
290
     0
  0
SCALE
  5
3181
102
{ACAD_REACTORS
330
3179
102
}
330
3179
100
AcDbScale
 70
     0
300
1:20
140
1.0
141
20.0
290
     0
  0
SCALE
  5
3182
102
{ACAD_REACTORS
330
3179
102
}
330
3179
100
AcDbScale
 70
     0
300
1:30
140
1.0
141
30.0
290
     0
  0
SCALE
  5
3183
102
{ACAD_REACTORS
330
3179
102
}
330
3179
100
AcDbScale
 70
     0
300
1:40
140
1.0
141
40.0
290
     0
  0
SCALE
  5
3184
102
{ACAD_REACTORS
330
3179
102
}
330
3179
100
AcDbScale
 70
     0
300
1:50
140
1.0
141
50.0
290
     0
  0
SCALE
  5
3185
102
{ACAD_REACTORS
330
3179
102
}
330
3179
100
AcDbScale
 70
     0
300
1:100
140
1.0
141
100.0
290
     0
  0
SCALE
  5
3186
102
{ACAD_REACTORS
330
3179
102
}
330
3179
100
AcDbScale
 70
     0
300
2:1
140
2.0
141
1.0
290
     0
  0
SCALE
  5
3187
102
{ACAD_REACTORS
330
3179
102
}
330
3179
100
AcDbScale
 70
     0
300
4:1
140
4.0
141
1.0
290
     0
  0
SCALE
  5
3188
102
{ACAD_REACTORS
330
3179
102
}
330
3179
100
AcDbScale
 70
     0
300
8:1
140
8.0
141
1.0
290
     0
  0
SCALE
  5
3189
102
{ACAD_REACTORS
330
3179
102
}
330
3179
100
AcDbScale
 70
     0
300
10:1
140
10.0
141
1.0
290
     0
  0
SCALE
  5
318A
102
{ACAD_REACTORS
330
3179
102
}
330
3179
100
AcDbScale
 70
     0
300
100:1
140
100.0
141
1.0
290
     0
  0
SCALE
  5
318B
102
{ACAD_REACTORS
330
3179
102
}
330
3179
100
AcDbScale
 70
     0
300
1/128" = 1'-0"
140
0.0078125
141
12.0
290
     0
  0
SCALE
  5
318C
102
{ACAD_REACTORS
330
3179
102
}
330
3179
100
AcDbScale
 70
     0
300
1/64" = 1'-0"
140
0.015625
141
12.0
290
     0
  0
SCALE
  5
318D
102
{ACAD_REACTORS
330
3179
102
}
330
3179
100
AcDbScale
 70
     0
300
1/32" = 1'-0"
140
0.03125
141
12.0
290
     0
  0
SCALE
  5
318E
102
{ACAD_REACTORS
330
3179
102
}
330
3179
100
AcDbScale
 70
     0
300
1/16" = 1'-0"
140
0.0625
141
12.0
290
     0
  0
SCALE
  5
318F
102
{ACAD_REACTORS
330
3179
102
}
330
3179
100
AcDbScale
 70
     0
300
3/32" = 1'-0"
140
0.09375
141
12.0
290
     0
  0
SCALE
  5
3190
102
{ACAD_REACTORS
330
3179
102
}
330
3179
100
AcDbScale
 70
     0
300
1/8" = 1'-0"
140
0.125
141
12.0
290
     0
  0
SCALE
  5
3191
102
{ACAD_REACTORS
330
3179
102
}
330
3179
100
AcDbScale
 70
     0
300
3/16" = 1'-0"
140
0.1875
141
12.0
290
     0
  0
SCALE
  5
3192
102
{ACAD_REACTORS
330
3179
102
}
330
3179
100
AcDbScale
 70
     0
300
1/4" = 1'-0"
140
0.25
141
12.0
290
     0
  0
SCALE
  5
3193
102
{ACAD_REACTORS
330
3179
102
}
330
3179
100
AcDbScale
 70
     0
300
3/8" = 1'-0"
140
0.375
141
12.0
290
     0
  0
SCALE
  5
3194
102
{ACAD_REACTORS
330
3179
102
}
330
3179
100
AcDbScale
 70
     0
300
1/2" = 1'-0"
140
0.5
141
12.0
290
     0
  0
SCALE
  5
3195
102
{ACAD_REACTORS
330
3179
102
}
330
3179
100
AcDbScale
 70
     0
300
3/4" = 1'-0"
140
0.75
141
12.0
290
     0
  0
SCALE
  5
3196
102
{ACAD_REACTORS
330
3179
102
}
330
3179
100
AcDbScale
 70
     0
300
1" = 1'-0"
140
1.0
141
12.0
290
     0
  0
SCALE
  5
3197
102
{ACAD_REACTORS
330
3179
102
}
330
3179
100
AcDbScale
 70
     0
300
1-1/2" = 1'-0"
140
1.5
141
12.0
290
     0
  0
SCALE
  5
3198
102
{ACAD_REACTORS
330
3179
102
}
330
3179
100
AcDbScale
 70
     0
300
3" = 1'-0"
140
3.0
141
12.0
290
     0
  0
SCALE
  5
3199
102
{ACAD_REACTORS
330
3179
102
}
330
3179
100
AcDbScale
 70
     0
300
6" = 1'-0"
140
6.0
141
12.0
290
     0
  0
SCALE
  5
319A
102
{ACAD_REACTORS
330
3179
102
}
330
3179
100
AcDbScale
 70
     0
300
1'-0" = 1'-0"
140
12.0
141
12.0
290
     0
  0
DICTIONARYVAR
  5
6A7C
102
{ACAD_REACTORS
330
630B
102
}
330
630B
100
DictionaryVariables
280
     0
  1
1:1
  0
DICTIONARYVAR
  5
6318
102
{ACAD_REACTORS
330
630B
102
}
330
630B
100
DictionaryVariables
280
     0
  1
1
  0
DICTIONARYVAR
  5
6317
102
{ACAD_REACTORS
330
630B
102
}
330
630B
100
DictionaryVariables
280
     0
  1
0
  0
DICTIONARYVAR
  5
6316
102
{ACAD_REACTORS
330
630B
102
}
330
630B
100
DictionaryVariables
280
     0
  1
127
  0
XRECORD
  5
5E46
102
{ACAD_REACTORS
330
5E44
102
}
330
5E44
100
AcDbXrecord
280
     1
  0
ENDSEC
  0
EOF
