  0
SECTION
  2
HEADER
  9
$ACADVER
  1
AC1015
  9
$ACADMAINTVER
 70
    20
  9
$DWGCODEPAGE
  3
ANSI_1252
  9
$INSBASE
 10
0.0
 20
0.0
 30
0.0
  9
$EXTMIN
 10
256.5610443813639
 20
72.30110959214016
 30
-0.0000000000000043
  9
$EXTMAX
 10
481.5780690273149
 20
333.981649146569
 30
0.0000000000000113
  9
$LIMMIN
 10
-66.34999999999982
 20
-2008.85
  9
$LIMMAX
 10
3734.350000000001
 20
346.85
  9
$ORTHOMODE
 70
     0
  9
$REGENMODE
 70
     1
  9
$FILLMODE
 70
     1
  9
$QTEXTMODE
 70
     0
  9
$MIRRTEXT
 70
     1
  9
$LTSCALE
 40
10.0
  9
$ATTMODE
 70
     1
  9
$TEXTSIZE
 40
0.0
  9
$TRACEWID
 40
0.05
  9
$TEXTSTYLE
  7
Standard
  9
$CLAYER
  8
0
  9
$CELTYPE
  6
Continuous
  9
$CECOLOR
 62
   256
  9
$CELTSCALE
 40
1.0
  9
$DISPSILH
 70
     0
  9
$DIMSCALE
 40
1.0
  9
$DIMASZ
 40
1.25
  9
$DIMEXO
 40
0.0
  9
$DIMDLI
 40
0.38
  9
$DIMRND
 40
0.0
  9
$DIMDLE
 40
0.0
  9
$DIMEXE
 40
0.75
  9
$DIMTP
 40
0.0
  9
$DIMTM
 40
0.0
  9
$DIMTXT
 40
2.5
  9
$DIMCEN
 40
0.09
  9
$DIMTSZ
 40
0.0
  9
$DIMTOL
 70
     0
  9
$DIMLIM
 70
     0
  9
$DIMTIH
 70
     0
  9
$DIMTOH
 70
     0
  9
$DIMSE1
 70
     0
  9
$DIMSE2
 70
     0
  9
$DIMTAD
 70
     1
  9
$DIMZIN
 70
     0
  9
$DIMBLK
  1

  9
$DIMASO
 70
     1
  9
$DIMSHO
 70
     1
  9
$DIMPOST
  1

  9
$DIMAPOST
  1

  9
$DIMALT
 70
     0
  9
$DIMALTD
 70
     2
  9
$DIMALTF
 40
25.4
  9
$DIMLFAC
 40
1.0
  9
$DIMTOFL
 70
     0
  9
$DIMTVP
 40
0.0
  9
$DIMTIX
 70
     0
  9
$DIMSOXD
 70
     0
  9
$DIMSAH
 70
     0
  9
$DIMBLK1
  1

  9
$DIMBLK2
  1

  9
$DIMSTYLE
  2
Standard
  9
$DIMCLRD
 70
     7
  9
$DIMCLRE
 70
     7
  9
$DIMCLRT
 70
     7
  9
$DIMTFAC
 40
0.8
  9
$DIMGAP
 40
1.25
  9
$DIMJUST
 70
     0
  9
$DIMSD1
 70
     0
  9
$DIMSD2
 70
     0
  9
$DIMTOLJ
 70
     1
  9
$DIMTZIN
 70
     0
  9
$DIMALTZ
 70
     0
  9
$DIMALTTZ
 70
     0
  9
$DIMUPT
 70
     0
  9
$DIMDEC
 70
     2
  9
$DIMTDEC
 70
     4
  9
$DIMALTU
 70
     2
  9
$DIMALTTD
 70
     2
  9
$DIMTXSTY
  7
Standard
  9
$DIMAUNIT
 70
     0
  9
$DIMADEC
 70
     0
  9
$DIMALTRND
 40
0.0
  9
$DIMAZIN
 70
     0
  9
$DIMDSEP
 70
     0
  9
$DIMATFIT
 70
     3
  9
$DIMFRAC
 70
     0
  9
$DIMLDRBLK
  1

  9
$DIMLUNIT
 70
     2
  9
$DIMLWD
 70
     0
  9
$DIMLWE
 70
     0
  9
$DIMTMOVE
 70
     0
  9
$LUNITS
 70
     2
  9
$LUPREC
 70
     4
  9
$SKETCHINC
 40
0.1
  9
$FILLETRAD
 40
0.0
  9
$AUNITS
 70
     0
  9
$AUPREC
 70
     0
  9
$MENU
  1
acad
  9
$ELEVATION
 40
0.0
  9
$PELEVATION
 40
0.0
  9
$THICKNESS
 40
0.0
  9
$LIMCHECK
 70
     0
  9
$CHAMFERA
 40
0.0
  9
$CHAMFERB
 40
0.0
  9
$CHAMFERC
 40
0.0
  9
$CHAMFERD
 40
0.0
  9
$SKPOLY
 70
     0
  9
$TDCREATE
 40
2455303.727916667
  9
$TDUCREATE
 40
2455303.644583334
  9
$TDUPDATE
 40
2455306.407103947
  9
$TDUUPDATE
 40
2455306.323770614
  9
$TDINDWG
 40
0.0019629745
  9
$TDUSRTIMER
 40
0.0019629745
  9
$USRTIMER
 70
     1
  9
$ANGBASE
 50
0.0
  9
$ANGDIR
 70
     0
  9
$PDMODE
 70
     0
  9
$PDSIZE
 40
0.0
  9
$PLINEWID
 40
0.0
  9
$SPLFRAME
 70
     0
  9
$SPLINETYPE
 70
     6
  9
$SPLINESEGS
 70
     8
  9
$HANDSEED
  5
6491
  9
$SURFTAB1
 70
     6
  9
$SURFTAB2
 70
     6
  9
$SURFTYPE
 70
     6
  9
$SURFU
 70
     6
  9
$SURFV
 70
     6
  9
$UCSBASE
  2

  9
$UCSNAME
  2

  9
$UCSORG
 10
0.0
 20
0.0
 30
0.0
  9
$UCSXDIR
 10
1.0
 20
0.0
 30
0.0
  9
$UCSYDIR
 10
0.0
 20
1.0
 30
0.0
  9
$UCSORTHOREF
  2

  9
$UCSORTHOVIEW
 70
     0
  9
$UCSORGTOP
 10
0.0
 20
0.0
 30
0.0
  9
$UCSORGBOTTOM
 10
0.0
 20
0.0
 30
0.0
  9
$UCSORGLEFT
 10
0.0
 20
0.0
 30
0.0
  9
$UCSORGRIGHT
 10
0.0
 20
0.0
 30
0.0
  9
$UCSORGFRONT
 10
0.0
 20
0.0
 30
0.0
  9
$UCSORGBACK
 10
0.0
 20
0.0
 30
0.0
  9
$PUCSBASE
  2

  9
$PUCSNAME
  2

  9
$PUCSORG
 10
0.0
 20
0.0
 30
0.0
  9
$PUCSXDIR
 10
1.0
 20
0.0
 30
0.0
  9
$PUCSYDIR
 10
0.0
 20
1.0
 30
0.0
  9
$PUCSORTHOREF
  2

  9
$PUCSORTHOVIEW
 70
     0
  9
$PUCSORGTOP
 10
0.0
 20
0.0
 30
0.0
  9
$PUCSORGBOTTOM
 10
0.0
 20
0.0
 30
0.0
  9
$PUCSORGLEFT
 10
0.0
 20
0.0
 30
0.0
  9
$PUCSORGRIGHT
 10
0.0
 20
0.0
 30
0.0
  9
$PUCSORGFRONT
 10
0.0
 20
0.0
 30
0.0
  9
$PUCSORGBACK
 10
0.0
 20
0.0
 30
0.0
  9
$USERI1
 70
     0
  9
$USERI2
 70
     0
  9
$USERI3
 70
     0
  9
$USERI4
 70
     0
  9
$USERI5
 70
     0
  9
$USERR1
 40
0.0
  9
$USERR2
 40
0.0
  9
$USERR3
 40
0.0
  9
$USERR4
 40
0.0
  9
$USERR5
 40
0.0
  9
$WORLDVIEW
 70
     1
  9
$SHADEDGE
 70
     3
  9
$SHADEDIF
 70
    70
  9
$TILEMODE
 70
     1
  9
$MAXACTVP
 70
    16
  9
$PINSBASE
 10
0.0
 20
0.0
 30
0.0
  9
$PLIMCHECK
 70
     0
  9
$PEXTMIN
 10
1.000000000000000E+20
 20
1.000000000000000E+20
 30
1.000000000000000E+20
  9
$PEXTMAX
 10
-1.000000000000000E+20
 20
-1.000000000000000E+20
 30
-1.000000000000000E+20
  9
$PLIMMIN
 10
0.0
 20
0.0
  9
$PLIMMAX
 10
12.0
 20
9.0
  9
$UNITMODE
 70
     0
  9
$VISRETAIN
 70
     0
  9
$PLINEGEN
 70
     1
  9
$PSLTSCALE
 70
     0
  9
$TREEDEPTH
 70
  3020
  9
$CMLSTYLE
  2
Standard
  9
$CMLJUST
 70
     0
  9
$CMLSCALE
 40
1.0
  9
$PROXYGRAPHICS
 70
     0
  9
$MEASUREMENT
 70
     1
  9
$CELWEIGHT
370
     0
  9
$ENDCAPS
280
     0
  9
$JOINSTYLE
280
     0
  9
$LWDISPLAY
290
     0
  9
$INSUNITS
 70
     0
  9
$HYPERLINKBASE
  1

  9
$STYLESHEET
  1

  9
$XEDIT
290
     1
  9
$CEPSNTYPE
380
     0
  9
$PSTYLEMODE
290
     1
  9
$FINGERPRINTGUID
  2

  9
$VERSIONGUID
  2
{03301D20-5461-423A-A560-EF3F804FBD8E}
  9
$EXTNAMES
290
     1
  9
$PSVPSCALE
 40
0.0
  9
$OLESTARTUP
290
     0
  0
ENDSEC
  0
SECTION
  2
CLASSES
  0
CLASS
  1
IMAGE
  2
AcDbRasterImage
  3
ISM
 90
    34943
280
     0
281
     1
  0
CLASS
  1
DICTIONARYVAR
  2
AcDbDictionaryVar
  3
ObjectDBX Classes
 90
        0
280
     0
281
     0
  0
CLASS
  1
RASTERVARIABLES
  2
AcDbRasterVariables
  3
ISM
 90
    32768
280
     0
281
     0
  0
CLASS
  1
IMAGEDEF
  2
AcDbRasterImageDef
  3
ISM
 90
    32768
280
     0
281
     0
  0
CLASS
  1
IMAGEDEF_REACTOR
  2
AcDbRasterImageDefReactor
  3
ISM
 90
    32769
280
     0
281
     0
  0
CLASS
  1
IDBUFFER
  2
AcDbIdBuffer
  3
ObjectDBX Classes
 90
    32768
280
     0
281
     0
  0
CLASS
  1
SPATIAL_FILTER
  2
AcDbSpatialFilter
  3
ObjectDBX Classes
 90
    32768
280
     0
281
     0
  0
CLASS
  1
SORTENTSTABLE
  2
AcDbSortentsTable
  3
ObjectDBX Classes
 90
        0
280
     0
281
     0
  0
CLASS
  1
LAYER_INDEX
  2
AcDbLayerIndex
  3
ObjectDBX Classes
 90
    32768
280
     0
281
     0
  0
CLASS
  1
SPATIAL_INDEX
  2
AcDbSpatialIndex
  3
ObjectDBX Classes
 90
    32768
280
     0
281
     0
  0
CLASS
  1
OBJECT_PTR
  2
CAseDLPNTableRecord
  3
ASE-LPNTableRecord
 90
    32769
280
     0
281
     0
  0
CLASS
  1
LAYOUT
  2
AcDbLayout
  3
ObjectDBX Classes
 90
        0
280
     0
281
     0
  0
CLASS
  1
PLOTSETTINGS
  2
AcDbPlotSettings
  3
ObjectDBX Classes
 90
    32768
280
     0
281
     0
  0
CLASS
  1
ACDBDICTIONARYWDFLT
  2
AcDbDictionaryWithDefault
  3
ObjectDBX Classes
 90
        0
280
     0
281
     0
  0
CLASS
  1
ACDBPLACEHOLDER
  2
AcDbPlaceHolder
  3
ObjectDBX Classes
 90
        0
280
     0
281
     0
  0
CLASS
  1
VBA_PROJECT
  2
AcDbVbaProject
  3
acad
 90
    32768
280
     0
281
     0
  0
CLASS
  1
WIPEOUT
  2
AcDbWipeout
  3
"WipeOut|Product Desc: Object Enabler for WipeOut entity                        |Company: Autodesk, Inc.                        |WEB Address: www.autodesk.com"
 90
    34943
280
     0
281
     1
  0
CLASS
  1
WIPEOUTVARIABLES
  2
AcDbWipeoutVariables
  3
"WipeOut|Product Desc:     WipeOut Dbx Application|Company:          Autodesk, Inc.|WEB Address:      www.autodesk.com"
 90
        0
280
     0
281
     0
  0
CLASS
  1
RTEXT
  2
RText
  3
RText|AutoCAD Express Tool|expresstools@autodesk.com
 90
    35839
280
     0
281
     1
  0
CLASS
  1
ARCALIGNEDTEXT
  2
AcDbArcAlignedText
  3
ATEXT|AutoCAD Express Tool|expresstools@autodesk.com
 90
    32768
280
     0
281
     1
  0
CLASS
  1
MATERIAL
  2
AcDbMaterial
  3
ObjectDBX Classes
 90
     1153
280
     0
281
     0
  0
CLASS
  1
VISUALSTYLE
  2
AcDbVisualStyle
  3
ObjectDBX Classes
 90
     4095
280
     0
281
     0
  0
CLASS
  1
TABLESTYLE
  2
AcDbTableStyle
  3
ObjectDBX Classes
 90
     4095
280
     0
281
     0
  0
CLASS
  1
SCALE
  2
AcDbScale
  3
ObjectDBX Classes
 90
     1153
280
     0
281
     0
  0
CLASS
  1
MLEADERSTYLE
  2
AcDbMLeaderStyle
  3
ACDB_MLEADERSTYLE_CLASS
 90
     4095
280
     0
281
     0
  0
CLASS
  1
CELLSTYLEMAP
  2
AcDbCellStyleMap
  3
ObjectDBX Classes
 90
     1152
280
     0
281
     0
  0
ENDSEC
  0
SECTION
  2
TABLES
  0
TABLE
  2
VPORT
  5
7
330
0
100
AcDbSymbolTable
 70
     1
  0
VPORT
  5
15
330
7
100
AcDbSymbolTableRecord
100
AcDbViewportTableRecord
  2
*ACTIVE
 70
     0
 10
0.0
 20
0.0
 11
1.0
 21
1.0
 12
373.2760786921968
 22
200.9584020823849
 13
0.0
 23
0.0
 14
1.0
 24
1.0
 15
0.0
 25
0.0
 16
0.0
 26
0.0
 36
1.0
 17
0.0
 27
0.0
 37
0.0
 40
296.0685941373462
 41
1.611330698287219
 42
50.0
 43
0.0
 44
0.0
 50
0.0
 51
0.0
 71
     0
 72
   100
 73
     1
 74
     1
 75
     0
 76
     0
 77
     0
 78
     0
281
     0
 65
     0
110
0.0
120
0.0
130
0.0
111
1.0
121
0.0
131
0.0
112
0.0
122
1.0
132
0.0
 79
     0
146
0.0
  0
ENDTAB
  0
TABLE
  2
LTYPE
  5
4
330
0
100
AcDbSymbolTable
 70
     3
  0
LTYPE
  5
11
330
4
100
AcDbSymbolTableRecord
100
AcDbLinetypeTableRecord
  2
ByBlock
 70
     0
  3

 72
    65
 73
     0
 40
0.0
  0
LTYPE
  5
12
330
4
100
AcDbSymbolTableRecord
100
AcDbLinetypeTableRecord
  2
ByLayer
 70
     0
  3

 72
    65
 73
     0
 40
0.0
  0
LTYPE
  5
13
330
4
100
AcDbSymbolTableRecord
100
AcDbLinetypeTableRecord
  2
Continuous
 70
     0
  3
Solid line
 72
    65
 73
     0
 40
0.0
  0
LTYPE
  5
1E4
330
4
100
AcDbSymbolTableRecord
100
AcDbLinetypeTableRecord
  2
CENTER
 70
     0
  3
____ _ ____ _ ____ _ ____ _ ____ _ ____ _ ____
 72
    65
 73
     4
 40
2.0
 49
1.25
 74
     0
 49
-0.25
 74
     0
 49
0.25
 74
     0
 49
-0.25
 74
     0
  0
ENDTAB
  0
TABLE
  2
LAYER
  5
2
330
0
100
AcDbSymbolTable
 70
     1
  0
LAYER
  5
14
102
{ACAD_XDICTIONARY
360
5E41
102
}
330
2
100
AcDbSymbolTableRecord
100
AcDbLayerTableRecord
  2
0
 70
     0
 62
     7
  6
Continuous
370
    -3
390
1D
  0
ENDTAB
  0
TABLE
  2
STYLE
  5
3
330
0
100
AcDbSymbolTable
 70
     1
  0
STYLE
  5
17
330
3
100
AcDbSymbolTableRecord
100
AcDbTextStyleTableRecord
  2
Standard
 70
     0
 40
0.0
 41
1.0
 50
0.0
 71
     0
 42
0.0
  3
I011000D.TTF
  4

1001
ACAD
1000
IsonormD
1071
        0
  0
ENDTAB
  0
TABLE
  2
VIEW
  5
5
330
0
100
AcDbSymbolTable
 70
     0
  0
ENDTAB
  0
TABLE
  2
UCS
  5
6
330
0
100
AcDbSymbolTable
 70
     0
  0
ENDTAB
  0
TABLE
  2
APPID
  5
8
330
0
100
AcDbSymbolTable
 70
     4
  0
APPID
  5
16
330
8
100
AcDbSymbolTableRecord
100
AcDbRegAppTableRecord
  2
ACAD
 70
     0
  0
APPID
  5
26
330
8
100
AcDbSymbolTableRecord
100
AcDbRegAppTableRecord
  2
TopSolid'Draft
 70
     0
  0
APPID
  5
319D
330
8
100
AcDbSymbolTableRecord
100
AcDbRegAppTableRecord
  2
ACAD_MLEADERVER
 70
     0
  0
APPID
  5
5E45
330
8
100
AcDbSymbolTableRecord
100
AcDbRegAppTableRecord
  2
DCO15
 70
     0
  0
ENDTAB
  0
TABLE
  2
DIMSTYLE
  5
9
330
0
100
AcDbSymbolTable
 70
     1
100
AcDbDimStyleTable
 71
     0
  0
DIMSTYLE
105
18
330
9
100
AcDbSymbolTableRecord
100
AcDbDimStyleTableRecord
  2
Standard
 70
     0
 41
1.25
 42
0.0
 44
0.75
 73
     0
 74
     0
 77
     1
140
2.5
146
0.8
147
1.25
176
     7
177
     7
178
     7
271
     2
340
17
  0
ENDTAB
  0
TABLE
  2
BLOCK_RECORD
  5
1
330
0
100
AcDbSymbolTable
 70
     1
  0
BLOCK_RECORD
  5
A
102
{ACAD_XDICTIONARY
360
31A7
102
}
330
1
100
AcDbSymbolTableRecord
100
AcDbBlockTableRecord
  2
*MODEL_SPACE
340
20
  0
BLOCK_RECORD
  5
B
330
1
100
AcDbSymbolTableRecord
100
AcDbBlockTableRecord
  2
*PAPER_SPACE
340
21
  0
ENDTAB
  0
ENDSEC
  0
SECTION
  2
BLOCKS
  0
BLOCK
  5
D
330
A
100
AcDbEntity
  8
0
100
AcDbBlockBegin
  2
*MODEL_SPACE
 70
     0
 10
0.0
 20
0.0
 30
0.0
  3
*MODEL_SPACE
  1

  0
ENDBLK
  5
E
330
A
100
AcDbEntity
  8
0
100
AcDbBlockEnd
  0
BLOCK
  5
F
330
B
100
AcDbEntity
 67
     1
  8
0
100
AcDbBlockBegin
  2
*PAPER_SPACE
 70
     0
 10
0.0
 20
0.0
 30
0.0
  3
*PAPER_SPACE
  1

  0
ENDBLK
  5
10
330
B
100
AcDbEntity
 67
     1
  8
0
100
AcDbBlockEnd
  0
ENDSEC
  0
SECTION
  2
ENTITIES
  0
LINE
  5
4D2
330
A
100
AcDbEntity
  8
0
  6
CENTER
 62
     1
100
AcDbLine
 10
377.3500000000638
 20
234.0000013074923
 30
0.0
 11
395.3500000000638
 21
234.0000013074923
 31
0.0
  0
LINE
  5
4D3
330
A
100
AcDbEntity
  8
0
  6
CENTER
 62
     1
100
AcDbLine
 10
386.3500000000638
 20
225.0000013074922
 30
0.0
 11
386.3500000000638
 21
243.0000013074923
 31
0.0
  0
LINE
  5
4D4
330
A
100
AcDbEntity
  8
0
  6
CENTER
 62
     1
100
AcDbLine
 10
377.3500000000638
 20
184.0000013074997
 30
0.0
 11
395.3500000000638
 21
184.0000013074997
 31
0.0
  0
LINE
  5
4D5
330
A
100
AcDbEntity
  8
0
  6
CENTER
 62
     1
100
AcDbLine
 10
386.3500000000638
 20
175.0000013074997
 30
0.0
 11
386.3500000000638
 21
193.0000013074998
 31
0.0
  0
LINE
  5
4D6
330
A
100
AcDbEntity
  8
0
  6
CENTER
 62
     1
100
AcDbLine
 10
280.1965704016605
 20
234.0000013075921
 30
0.0
 11
274.7465704016605
 21
234.0000013072424
 31
0.0
  0
LINE
  5
4D7
330
A
100
AcDbEntity
  8
0
  6
CENTER
 62
     1
100
AcDbLine
 10
280.1965704016611
 20
184.0000013076126
 30
0.0
 11
274.7465704016611
 21
184.0000013072626
 31
0.0
  0
LINE
  5
4D8
330
A
100
AcDbEntity
  8
0
  6
CENTER
 62
     1
100
AcDbLine
 10
288.145560788357
 20
183.9999698524235
 30
0.0
 11
304.5454980530263
 21
183.9999698524235
 31
0.0
  0
LINE
  5
4D9
330
A
100
AcDbEntity
  8
0
  6
CENTER
 62
     1
100
AcDbLine
 10
296.3455294206917
 20
175.8000012200889
 30
0.0
 11
296.3455294206917
 21
192.1999384847581
 31
0.0
  0
LINE
  5
4DA
330
A
100
AcDbEntity
  8
0
  6
CENTER
 62
     1
100
AcDbLine
 10
288.1464353190672
 20
233.9999816003011
 30
0.0
 11
304.5463959085745
 21
233.9999816003011
 31
0.0
  0
LINE
  5
4DB
330
A
100
AcDbEntity
  8
0
  6
CENTER
 62
     1
100
AcDbLine
 10
296.3464156138208
 20
225.8000013055476
 30
0.0
 11
296.3464156138208
 21
242.1999618950549
 31
0.0
  0
LINE
  5
4DC
330
A
100
AcDbEntity
  8
0
  6
CENTER
 62
     1
100
AcDbLine
 10
288.9337282919697
 20
184.0000013074715
 30
0.0
 11
303.7594125113198
 21
184.0000013074715
 31
0.0
  0
LINE
  5
4DD
330
A
100
AcDbEntity
  8
0
  6
CENTER
 62
     1
100
AcDbLine
 10
296.3465704016447
 20
176.5871591977965
 30
0.0
 11
296.3465704016447
 21
191.4128434171465
 31
0.0
  0
LINE
  5
4DE
330
A
100
AcDbEntity
  8
0
  6
CENTER
 62
     1
100
AcDbLine
 10
288.9337282924228
 20
234.0000013074475
 30
0.0
 11
303.7594125117729
 21
234.0000013074475
 31
0.0
  0
LINE
  5
4DF
330
A
100
AcDbEntity
  8
0
  6
CENTER
 62
     1
100
AcDbLine
 10
296.3465704020979
 20
226.5871591977724
 30
0.0
 11
296.3465704020979
 21
241.4128434171225
 31
0.0
  0
LINE
  5
4E0
330
A
100
AcDbEntity
  8
0
  6
CENTER
 62
     1
100
AcDbLine
 10
259.3465704016661
 20
184.0000013075007
 30
0.0
 11
272.4465704016611
 21
184.0000013075007
 31
0.0
  0
LINE
  5
4E1
330
A
100
AcDbEntity
  8
0
  6
CENTER
 62
     1
100
AcDbLine
 10
259.346570401666
 20
234.0000013075005
 30
0.0
 11
272.4465704016611
 21
234.0000013075005
 31
0.0
  0
LINE
  5
4E2
330
A
100
AcDbEntity
  8
0
  6
CENTER
 62
     1
100
AcDbLine
 10
386.3500000000638
 20
310.3034295983388
 30
0.0
 11
386.3500000000638
 21
315.7534295983389
 31
0.0
  0
LINE
  5
4E3
330
A
100
AcDbEntity
  8
0
  6
CENTER
 62
     1
100
AcDbLine
 10
360.1999999997778
 20
294.1534295982277
 30
0.0
 11
354.7499999997778
 21
294.1534295985753
 31
0.0
  0
LINE
  5
4E4
330
A
100
AcDbEntity
  8
0
  6
CENTER
 62
     1
100
AcDbLine
 10
339.3499999999757
 20
294.1534295972873
 30
0.0
 11
352.4499999997801
 21
294.1534295972873
 31
0.0
  0
LINE
  5
4E5
330
A
100
AcDbEntity
  8
0
  6
CENTER
 62
     1
100
AcDbLine
 10
339.3500000000754
 20
294.1762988127007
 30
0.0
 11
350.8500000000696
 21
294.1762988127008
 31
0.0
  0
LINE
  5
4E6
330
A
100
AcDbEntity
  8
0
  6
CENTER
 62
     1
100
AcDbLine
 10
386.3500000000638
 20
331.153429598334
 30
0.0
 11
386.3500000000638
 21
318.0534295983389
 31
0.0
  0
LINE
  5
4E7
330
A
100
AcDbEntity
  8
0
  6
CENTER
 62
     1
100
AcDbLine
 10
386.3500000000638
 20
112.6965704016604
 30
0.0
 11
386.3500000000638
 21
107.2465704016604
 31
0.0
  0
LINE
  5
4E8
330
A
100
AcDbEntity
  8
0
  6
CENTER
 62
     1
100
AcDbLine
 10
360.1999999997777
 20
128.8465704022255
 30
0.0
 11
354.7499999997778
 21
128.8465704018779
 31
0.0
  0
LINE
  5
4E9
330
A
100
AcDbEntity
  8
0
  6
CENTER
 62
     1
100
AcDbLine
 10
339.3500000000754
 20
128.8237011872993
 30
0.0
 11
350.8500000000696
 21
128.8237011872992
 31
0.0
  0
LINE
  5
4EA
330
A
100
AcDbEntity
  8
0
  6
CENTER
 62
     1
100
AcDbLine
 10
339.3499999999757
 20
128.8465704027127
 30
0.0
 11
352.4499999997802
 21
128.8465704027127
 31
0.0
  0
LINE
  5
4EB
330
A
100
AcDbEntity
  8
0
  6
CENTER
 62
     1
100
AcDbLine
 10
386.3500000000638
 20
91.84657040166605
 30
0.0
 11
386.3500000000638
 21
104.9465704016611
 31
0.0
  0
LINE
  5
4EC
330
A
100
AcDbEntity
  8
0
  6
CENTER
 62
     1
100
AcDbLine
 10
478.6534295983338
 20
234.0000013075005
 30
0.0
 11
465.5534295983389
 21
234.0000013075005
 31
0.0
  0
LINE
  5
4ED
330
A
100
AcDbEntity
  8
0
  6
CENTER
 62
     1
100
AcDbLine
 10
478.6534295983338
 20
184.0000013075007
 30
0.0
 11
465.5534295983389
 21
184.0000013075007
 31
0.0
  0
ELLIPSE
  5
59EA
330
A
100
AcDbEntity
  8
0
  6
Continuous
 62
     7
370
     0
100
AcDbEllipse
 10
442.9131862914026
 20
139.5307928297214
 30
0.0
 11
1.119999999667609
 21
5.486857023902169
 31
0.0
210
0.0
220
0.0
230
1.0
 40
0.4082482904891088
 41
0.5925843128831269
 42
3.141592653589811
  0
ELLIPSE
  5
59EB
330
A
100
AcDbEntity
  8
0
  6
Continuous
 62
     7
370
     0
100
AcDbEllipse
 10
442.9213682305723
 20
103.0226400076002
 30
0.0
 11
1.119999999667774
 21
5.486857023902126
 31
-0.0000000000000004
210
0.0
220
0.0000000000000001
230
0.9999999999999998
 40
0.4082482904890958
 41
0.6078818869664781
 42
3.141592653589802
  0
LINE
  5
59EC
330
A
100
AcDbEntity
  8
0
  6
Continuous
 62
     9
370
     0
100
AcDbLine
 10
436.4710200597351
 20
146.3163389821477
 30
0.0
 11
437.1865618125351
 21
146.1702796334781
 31
0.0
  0
ELLIPSE
  5
59ED
330
A
100
AcDbEntity
  8
0
  6
Continuous
 62
     7
370
     0
100
AcDbEllipse
 10
437.1867254513185
 20
145.440116577036
 30
0.0
 11
0.1600000000015478
 21
0.7838367176903061
 31
0.0
210
0.0
220
0.0
230
0.9999999999999998
 40
0.4082482904630534
 41
0.4641049933257785
 42
2.034901320120725
  0
LINE
  5
59EE
330
A
100
AcDbEntity
  8
0
  6
Continuous
 62
     9
370
     0
100
AcDbLine
 10
436.8289546123415
 20
145.1476638839849
 30
0.0
 11
436.1134128595416
 21
145.2937232326544
 31
0.0
  0
ELLIPSE
  5
59EF
330
A
100
AcDbEntity
  8
0
  6
Continuous
 62
     7
370
     0
100
AcDbEllipse
 10
436.4711836985185
 20
145.5861759257055
 30
0.0
 11
-0.1600000000015478
 21
-0.7838367176903061
 31
0.0000000000000001
210
0.0
220
0.0000000000000001
230
0.9999999999999998
 40
0.4082482904630539
 41
3.605697646915703
 42
5.176493973710551
  0
ELLIPSE
  5
59F0
330
A
100
AcDbEntity
  8
0
  6
Continuous
 62
     7
370
     0
100
AcDbEllipse
 10
441.8480556013725
 20
103.241729030844
 30
0.0
 11
0.8800000000084294
 21
4.311101947296667
 31
0.0
210
0.0
220
0.0
230
1.0
 40
0.4082482904630539
 41
0.4641049933258416
 42
2.936887062258105
  0
LINE
  5
59F1
330
A
100
AcDbEntity
  8
0
  6
Continuous
 62
     7
370
     0
100
AcDbLine
 10
437.1865618125351
 20
146.1702796334781
 30
0.0
 11
446.4886036259353
 21
153.7740496528064
 31
0.0
  0
ELLIPSE
  5
59F2
330
A
100
AcDbEntity
  8
0
  6
Continuous
 62
     7
370
     0
100
AcDbEllipse
 10
446.4887672647187
 20
153.0438865963643
 30
0.0
 11
0.1600000000015478
 21
0.7838367176902783
 31
-0.0000000000000001
210
0.0
220
0.0000000000000001
230
1.0
 40
0.4082482904630539
 41
5.176493973710526
 42
6.283185307179517
  0
LINE
  5
59F3
330
A
100
AcDbEntity
  8
0
  6
Continuous
 62
     7
370
     0
100
AcDbLine
 10
446.8465381036955
 20
153.3363392894154
 30
0.0
 11
446.8476846222762
 21
148.220525704418
 31
0.0
  0
LINE
  5
59F4
330
A
100
AcDbEntity
  8
0
  6
Continuous
 62
     7
370
     0
100
AcDbLine
 10
442.5645785130607
 20
93.60328103085876
 30
0.0
 11
437.1993256376398
 21
89.21756123098971
 31
0.0
  0
ELLIPSE
  5
59F5
330
A
100
AcDbEntity
  8
0
  6
Continuous
 62
     7
370
     0
100
AcDbEllipse
 10
437.1991619988564
 20
89.94772428743186
 30
0.0
 11
0.1600000000015478
 21
0.7838367176903061
 31
-0.0000000000000001
210
0.0
220
0.0000000000000001
230
0.9999999999999998
 40
0.4082482904630539
 41
2.034901320120689
 42
3.141592653589718
  0
LINE
  5
59F6
330
A
100
AcDbEntity
  8
0
  6
Continuous
 62
     7
370
     0
100
AcDbLine
 10
436.8413911598795
 20
89.65527159438076
 30
0.0
 11
436.8289546123415
 21
145.1476638839849
 31
0.0
  0
ELLIPSE
  5
59F7
330
A
100
AcDbEntity
  8
0
  6
Continuous
 62
     7
370
     0
100
AcDbEllipse
 10
441.8398736622028
 20
139.749881852952
 30
0.0
 11
0.8800000000084294
 21
4.311101947296667
 31
0.0
210
0.0
220
0.0
230
1.0
 40
0.4082482904630541
 41
0.4641049933258181
 42
2.93688706225825
  0
LINE
  5
59F8
330
A
100
AcDbEntity
  8
0
  6
Continuous
 62
     9
370
     0
100
AcDbLine
 10
436.1258494070797
 20
89.80133094305029
 30
0.0
 11
436.8413911598795
 21
89.65527159438076
 31
0.0
  0
LINE
  5
59F9
330
A
100
AcDbEntity
  8
0
  6
Continuous
 62
     7
370
     0
100
AcDbLine
 10
436.1258494070797
 20
89.80133094305029
 30
0.0
 11
436.1134128595416
 21
145.2937232326544
 31
0.0
  0
LINE
  5
59FA
330
A
100
AcDbEntity
  8
0
  6
Continuous
 62
     9
370
     0
100
AcDbLine
 10
446.4886036259353
 20
153.7740496528064
 30
0.0
 11
445.7730618731353
 21
153.9201090014759
 31
0.0
  0
LINE
  5
59FB
330
A
100
AcDbEntity
  8
0
  6
Continuous
 62
     7
370
     0
100
AcDbLine
 10
436.4710200597351
 20
146.3163389821477
 30
0.0
 11
445.7730618731353
 21
153.9201090014759
 31
0.0
  0
ELLIPSE
  5
59FC
330
A
100
AcDbEntity
  8
0
  6
Continuous
 62
     7
370
     0
100
AcDbEllipse
 10
441.8398736622028
 20
139.749881852952
 30
0.0
 11
0.8800000000084294
 21
4.311101947296667
 31
0.0000000000000003
210
0.0
220
-0.0000000000000001
230
1.0
 40
0.4082482904630541
 41
0.2047055913315144
 42
0.4641049933258059
  0
ELLIPSE
  5
59FD
330
A
100
AcDbEntity
  8
0
  6
Continuous
 62
     7
370
     0
100
AcDbEllipse
 10
446.4887672647187
 20
153.0438865963643
 30
0.0
 11
0.1600000000015478
 21
0.7838367176902783
 31
0.0
210
0.0
220
0.0
230
1.0
 40
0.4082482904630539
 41
6.283185307179517
 42
6.747290300505514
  0
ELLIPSE
  5
59FE
330
A
100
AcDbEntity
  8
0
  6
Continuous
 62
     7
370
     0
100
AcDbEllipse
 10
445.7732255119188
 20
153.1899459450338
 30
0.0
 11
-0.1600000000015478
 21
-0.7838367176903061
 31
0.0
210
0.0
220
0.0
230
0.9999999999999998
 40
0.4082482904630534
 41
3.141592653589936
 42
3.605697646915705
  0
ELLIPSE
  5
59FF
330
A
100
AcDbEntity
  8
0
  6
Continuous
 62
     7
370
     0
100
AcDbEllipse
 10
441.8480556013725
 20
103.241729030844
 30
0.0
 11
0.8800000000084294
 21
4.311101947296667
 31
0.0
210
0.0
220
0.0
230
1.0
 40
0.4082482904630541
 41
0.2047055913317039
 42
0.4641049933258421
  0
ELLIPSE
  5
5A00
330
A
100
AcDbEntity
  8
0
  6
Continuous
 62
     7
370
     0
100
AcDbEllipse
 10
437.1991619988564
 20
89.94772428743186
 30
0.0
 11
0.1600000000015478
 21
0.7838367176903061
 31
-0.0000000000000001
210
0.0000000000000001
220
0.0000000000000001
230
0.9999999999999998
 40
0.4082482904630539
 41
3.141592653589718
 42
3.605697646915705
  0
ELLIPSE
  5
5A01
330
A
100
AcDbEntity
  8
0
  6
Continuous
 62
     7
370
     0
100
AcDbEllipse
 10
436.4836202460566
 20
90.09378363610137
 30
0.0
 11
-0.1600000000015478
 21
-0.7838367176903061
 31
0.0000000000000001
210
0.0000000000000001
220
0.0000000000000001
230
0.9999999999999998
 40
0.4082482904630542
 41
5.176493973710498
 42
6.283185307179517
  0
LINE
  5
5A02
330
A
100
AcDbEntity
  8
0
  6
Continuous
 62
     9
370
     0
100
AcDbLine
 10
443.2688303881253
 20
143.8331307018649
 30
0.0
 11
442.5532886353253
 21
143.9791900505329
 31
0.0
  0
ELLIPSE
  5
5A03
330
A
100
AcDbEntity
  8
0
  6
Continuous
 62
     7
370
     0
100
AcDbEllipse
 10
442.9110594743025
 20
144.2716427435476
 30
0.0
 11
-0.1599999999999935
 21
-0.7838367176906113
 31
0.0
210
0.0
220
0.0
230
1.0
 40
0.4082482904638742
 41
3.605697646864863
 42
5.176493973659741
  0
LINE
  5
5A04
330
A
100
AcDbEntity
  8
0
  6
Continuous
 62
     9
370
     0
100
AcDbLine
 10
442.9108958355355
 20
145.001805800005
 30
0.0
 11
443.6264375883355
 21
144.8557464513369
 31
0.0
  0
ELLIPSE
  5
5A05
330
A
100
AcDbEntity
  8
0
  6
Continuous
 62
     7
370
     0
100
AcDbEllipse
 10
443.6266012271024
 20
144.1255833948796
 30
0.0
 11
0.1599999999999935
 21
0.7838367176906113
 31
-0.0000000000000001
210
0.0
220
0.0000000000000001
230
1.0
 40
0.4082482904638748
 41
0.4641049932750111
 42
2.03490132006988
  0
LINE
  5
5A06
330
A
100
AcDbEntity
  8
0
  6
Continuous
 62
     7
370
     0
100
AcDbLine
 10
443.6392014121548
 20
87.90302804766183
 30
0.0
 11
444.243348904262
 21
88.39687646065703
 31
0.0
  0
ELLIPSE
  5
5A07
330
A
100
AcDbEntity
  8
0
  6
Continuous
 62
     7
370
     0
100
AcDbEllipse
 10
443.639037773388
 20
88.63319110411925
 30
0.0
 11
0.1599999999999935
 21
0.7838367176906253
 31
0.0
210
0.0
220
0.0
230
0.9999999999999998
 40
0.4082482904638745
 41
2.03490132006986
 42
3.141592653589788
  0
LINE
  5
5A08
330
A
100
AcDbEntity
  8
0
  6
Continuous
 62
     7
370
     0
100
AcDbLine
 10
443.2688303881253
 20
143.8331307018649
 30
0.0
 11
443.2812669344108
 21
88.34073841110457
 31
0.0
  0
LINE
  5
5A09
330
A
100
AcDbEntity
  8
0
  6
Continuous
 62
     7
370
     0
100
AcDbLine
 10
445.067993488663
 20
146.034117797608
 30
0.0
 11
443.6264375883355
 21
144.8557464513369
 31
0.0
  0
LINE
  5
5A0A
330
A
100
AcDbEntity
  8
0
  6
Continuous
 62
     9
370
     0
100
AcDbLine
 10
442.5657251816108
 20
88.48679775977258
 30
0.0
 11
443.2812669344108
 21
88.34073841110457
 31
0.0
  0
LINE
  5
5A0B
330
A
100
AcDbEntity
  8
0
  6
Continuous
 62
     7
370
     0
100
AcDbLine
 10
442.5532886353253
 20
143.9791900505329
 30
0.0
 11
442.5657251816108
 21
88.48679775977259
 31
0.0
  0
LINE
  5
5A0C
330
A
100
AcDbEntity
  8
0
  6
Continuous
 62
     9
370
     0
100
AcDbLine
 10
452.217189337911
 20
152.6047079460091
 30
0.0
 11
452.2129376489396
 21
152.6055758183861
 31
0.0
  0
LINE
  5
5A0D
330
A
100
AcDbEntity
  8
0
  6
Continuous
 62
     7
370
     0
100
AcDbLine
 10
452.2129376489396
 20
152.6055758183861
 30
0.0
 11
447.5651076785566
 21
148.8062991769496
 31
0.0
  0
LINE
  5
5A0E
330
A
100
AcDbEntity
  8
0
  6
Continuous
 62
     7
370
     0
100
AcDbLine
 10
445.067993488663
 20
146.7650825934866
 30
0.0
 11
442.9108958355355
 21
145.001805800005
 31
0.0
  0
ELLIPSE
  5
5A0F
330
A
100
AcDbEntity
  8
0
  6
Continuous
 62
     7
370
     0
100
AcDbEllipse
 10
452.2131012877067
 20
151.8754127619287
 30
0.0
 11
-0.1599999999999935
 21
-0.7838367176906113
 31
0.0000000000000001
210
0.0
220
0.0000000000000001
230
1.0
 40
0.4082482904638749
 41
3.496172260700153
 42
3.605697646864803
  0
ELLIPSE
  5
5A10
330
A
100
AcDbEntity
  8
0
  6
Continuous
 62
     7
370
     0
100
AcDbEllipse
 10
442.9234960205882
 20
88.77925045278727
 30
0.0
 11
-0.1599999999999935
 21
-0.7838367176906113
 31
0.0000000000000001
210
0.0
220
0.0000000000000001
230
1.0
 40
0.4082482904638749
 41
5.176493973659655
 42
6.283185307179585
  0
ELLIPSE
  5
5A11
330
A
100
AcDbEntity
  8
0
  6
Continuous
 62
     7
370
     0
100
AcDbEllipse
 10
443.639037773388
 20
88.63319110411925
 30
0.0
 11
0.1599999999999935
 21
0.7838367176906253
 31
-0.0000000000000001
210
0.0
220
0.0000000000000001
230
0.9999999999999998
 40
0.4082482904638751
 41
3.141592653589788
 42
3.605697646864796
  0
LINE
  5
5A12
330
A
100
AcDbEntity
  8
0
  6
Continuous
 62
     7
370
     0
100
AcDbLine
 10
434.5519848659117
 20
88.29685302985891
 30
0.0
 11
435.7684058456716
 21
88.04855213712073
 31
0.0
  0
LINE
  5
5A13
330
A
100
AcDbEntity
  8
0
  6
Continuous
 62
     9
370
     0
100
AcDbLine
 10
434.5519848659117
 20
88.29685302985891
 30
0.0
 11
434.5388937632401
 21
146.7098975452529
 31
0.0
  0
LINE
  5
5A14
330
A
100
AcDbEntity
  8
0
  6
Continuous
 62
     7
370
     0
100
AcDbLine
 10
434.5388937632401
 20
146.7098975452529
 30
0.0
 11
435.755314743
 21
146.4615966525148
 31
0.0
  0
LINE
  5
5A15
330
A
100
AcDbEntity
  8
0
  6
Continuous
 62
     7
370
     0
100
AcDbLine
 10
435.755314743
 20
146.4615966525148
 30
0.0
 11
435.7684058456716
 21
88.04855213712073
 31
0.0
  0
LINE
  5
5A16
330
A
100
AcDbEntity
  8
0
  6
Continuous
 62
     7
370
     0
100
AcDbLine
 10
437.1840268979763
 20
89.20572355519992
 30
0.0
 11
435.7684058456716
 21
88.04855213712073
 31
0.0
  0
LINE
  5
5A17
330
A
100
AcDbEntity
  8
0
  6
Continuous
 62
     7
370
     0
100
AcDbLine
 10
446.4884399123118
 20
155.2351774440506
 30
0.0
 11
435.755314743
 21
146.4615966525148
 31
0.0
  0
LINE
  5
5A18
330
A
100
AcDbEntity
  8
0
  6
Continuous
 62
     7
370
     0
100
AcDbLine
 10
446.488748020229
 20
153.860387105557
 30
0.0
 11
446.4884399123118
 21
155.2351774440506
 31
0.0
  0
ELLIPSE
  5
5A19
330
A
100
AcDbEntity
  8
0
  6
Continuous
 62
     7
370
     0
100
AcDbEllipse
 10
435.6122062801713
 20
147.5872556244065
 30
0.0
 11
-2.399999939728225
 21
-0.0005378703658299
 31
-0.0000000000000001
210
0.0
220
0.0000000000000001
230
1.0
 40
0.4086217004856922
 41
5.81944616272367
 42
6.283185307179585
  0
LINE
  5
5A1A
330
A
100
AcDbEntity
  8
0
  6
Continuous
 62
     7
370
     0
100
AcDbLine
 10
442.0520811572211
 20
155.0442983036437
 30
0.0
 11
433.4655810217716
 21
148.025433670415
 31
0.0
  0
ELLIPSE
  5
5A1B
330
A
100
AcDbEntity
  8
0
  6
Continuous
 62
     7
370
     0
100
AcDbEllipse
 10
444.1987064156209
 20
154.6061202576352
 30
0.0
 11
-2.399999939728225
 21
-0.0005378703658299
 31
0.0000000000000001
210
0.0
220
0.0000000000000001
230
1.0
 40
0.4086217004856941
 41
4.248649835928773
 42
5.819446162723702
  0
LINE
  5
5A1C
330
A
100
AcDbEntity
  8
0
  6
Continuous
 62
     7
370
     0
100
AcDbLine
 10
446.4884399123118
 20
155.2351774440506
 30
0.0
 11
445.272018932552
 21
155.4834783367887
 31
0.0
  0
ELLIPSE
  5
5A1D
330
A
100
AcDbEntity
  8
0
  6
Continuous
 62
     7
370
     0
100
AcDbEllipse
 10
435.6252973828429
 20
89.1742111090125
 30
0.0
 11
-2.399999939728225
 21
-0.0005378703658299
 31
0.0000000000000001
210
0.0
220
0.0
230
1.0
 40
0.4086217004856922
 41
0.0000000000000058
 42
1.10705718233897
  0
ELLIPSE
  5
5A1E
330
A
100
AcDbEntity
  8
0
  6
Continuous
 62
     7
370
     0
100
AcDbEllipse
 10
435.6122062801713
 20
147.5872556244065
 30
0.0
 11
-2.399999939728225
 21
-0.0005378703658299
 31
0.0000000000000001
210
0.0
220
0.0
230
1.0
 40
0.4086217004856922
 41
6.283185307179585
 42
7.39024248951855
  0
ELLIPSE
  5
5A1F
330
A
100
AcDbEntity
  8
0
  6
Continuous
 62
     7
370
     0
100
AcDbEllipse
 10
441.124331909407
 20
139.8959412016463
 30
0.0
 11
0.7840000000075009
 21
3.840799916682486
 31
-0.0000000000000003
210
0.0
220
0.0000000000000001
230
0.9999999999999998
 40
0.4082482904630539
 41
0.0000000000000139
 42
0.0566164518329194
  0
ELLIPSE
  5
5A20
330
A
100
AcDbEntity
  8
0
  6
Continuous
 62
     7
370
     0
100
AcDbEllipse
 10
441.124331909407
 20
139.8959412016463
 30
0.0
 11
0.7840000000075009
 21
3.840799916682486
 31
0.0
210
0.0
220
0.0
230
0.9999999999999998
 40
0.4082482904630543
 41
3.084976201741108
 42
3.141592653589805
  0
ELLIPSE
  5
5A21
330
A
100
AcDbEntity
  8
0
  6
Continuous
 62
     7
370
     0
100
AcDbEllipse
 10
441.1325138485766
 20
103.387788379525
 30
0.0
 11
0.784000000007501
 21
3.840799916682498
 31
-0.0000000000000003
210
0.0
220
0.0000000000000001
230
1.0
 40
0.4082482904630539
 41
6.283185307179571
 42
6.339801758976657
  0
ELLIPSE
  5
5A22
330
A
100
AcDbEntity
  8
0
  6
Continuous
 62
     7
370
     0
100
AcDbEllipse
 10
441.1325138485766
 20
103.387788379525
 30
0.0
 11
0.7840000000075013
 21
3.840799916682513
 31
0.0000000000000003
210
0.0
220
-0.0000000000000001
230
1.0
 40
0.4082482904630541
 41
3.084976201779288
 42
3.141592653589821
  0
ELLIPSE
  5
5A23
330
A
100
AcDbEntity
  8
0
  6
Continuous
 62
     7
370
     0
100
AcDbEllipse
 10
468.7882025939821
 20
131.8109366751239
 30
0.0
 11
2.399999999999957
 21
0.0
 31
0.0
210
0.0
220
0.0000000000000001
230
1.0
 40
0.4082482904638613
 41
4.248741371383887
 42
5.819537698178746
  0
LINE
  5
5A24
330
A
100
AcDbEntity
  8
0
  6
Continuous
 62
     7
370
     0
100
AcDbLine
 10
467.7148899647824
 20
130.9345805831156
 30
0.0
 11
450.541887897584
 21
134.4400049511487
 31
0.0
  0
ELLIPSE
  5
5A25
330
A
100
AcDbEntity
  8
0
  6
Continuous
 62
     7
370
     0
100
AcDbEllipse
 10
451.6152005267839
 20
135.316361043157
 30
0.0
 11
2.399999999999957
 21
0.0
 31
0.0
210
0.0
220
0.0000000000000001
230
1.0
 40
0.4082482904638613
 41
3.141592653589792
 42
4.248741371383878
  0
LINE
  5
5A26
330
A
100
AcDbEntity
  8
0
  6
Continuous
 62
     7
370
     0
100
AcDbLine
 10
449.4685752683841
 20
135.7545390891611
 30
0.0
 11
450.0767857582641
 21
136.2511408746325
 31
0.0
  0
LINE
  5
5A27
330
A
100
AcDbEntity
  8
0
  6
Continuous
 62
     7
370
     0
100
AcDbLine
 10
471.543038342262
 20
131.8693604145911
 30
0.0
 11
450.0767857582641
 21
136.2511408746325
 31
0.0
  0
LINE
  5
5A28
330
A
100
AcDbEntity
  8
0
  6
Continuous
 62
     7
370
     0
100
AcDbLine
 10
471.543038342262
 20
131.8693604145911
 30
0.0
 11
470.934827852382
 21
131.3727586291198
 31
0.0
  0
LINE
  5
5A29
330
A
100
AcDbEntity
  8
0
  6
Continuous
 62
     9
370
     0
100
AcDbLine
 10
467.7148899647824
 20
130.9345805831156
 30
0.0
 11
467.7148899647824
 21
72.51084111589818
 31
0.0
  0
LINE
  5
5A2A
330
A
100
AcDbEntity
  8
0
  6
Continuous
 62
     9
370
     0
100
AcDbLine
 10
470.934827852382
 20
131.3727586291198
 30
0.0
 11
470.934827852382
 21
72.94901916190231
 31
0.0
  0
ELLIPSE
  5
5A2B
330
A
100
AcDbEntity
  8
0
  6
Continuous
 62
     7
370
     0
100
AcDbEllipse
 10
468.7882025939821
 20
73.38719720790646
 30
0.0
 11
2.399999999999957
 21
0.0
 31
0.0
210
0.0
220
0.0000000000000001
230
1.0
 40
0.4082482904638613
 41
4.248741371383883
 42
5.819537698178763
  0
LINE
  5
5A2C
330
A
100
AcDbEntity
  8
0
  6
Continuous
 62
     9
370
     0
100
AcDbLine
 10
450.541887897584
 20
134.4400049511487
 30
0.0
 11
450.541887897584
 21
76.01626548393124
 31
0.0
  0
LINE
  5
5A2D
330
A
100
AcDbEntity
  8
0
  6
Continuous
 62
     7
370
     0
100
AcDbLine
 10
467.7148899647824
 20
72.51084111589818
 30
0.0
 11
450.541887897584
 21
76.01626548393124
 31
0.0
  0
LINE
  5
5A2E
330
A
100
AcDbEntity
  8
0
  6
Continuous
 62
     7
370
     0
100
AcDbLine
 10
471.543038342262
 20
73.44562094737367
 30
0.0
 11
470.934827852382
 21
72.94901916190231
 31
0.0
  0
LINE
  5
5A2F
330
A
100
AcDbEntity
  8
0
  6
Continuous
 62
     7
370
     0
100
AcDbLine
 10
471.543038342262
 20
131.8693604145911
 30
0.0
 11
471.543038342262
 21
73.44562094737367
 31
0.0
  0
ELLIPSE
  5
5A30
330
A
100
AcDbEntity
  8
0
  6
Continuous
 62
     7
370
     0
100
AcDbEllipse
 10
451.6152005267839
 20
135.316361043157
 30
0.0
 11
2.399999999999957
 21
0.0
 31
0.0
210
0.0
220
0.0000000000000001
230
1.0
 40
0.4082482904638613
 41
2.677945044588965
 42
3.141592653589792
  0
ELLIPSE
  5
5A31
330
A
100
AcDbEntity
  8
0
  6
Continuous
 62
     7
370
     0
100
AcDbEllipse
 10
451.6152005267839
 20
76.89262157593951
 30
0.0
 11
2.399999999999957
 21
0.0
 31
0.0
210
0.0
220
0.0000000000000001
230
1.0
 40
0.4082482904638613
 41
3.141592653589803
 42
4.248741371383883
  0
LINE
  5
5A32
330
A
100
AcDbEntity
  8
0
  6
Continuous
 62
     7
370
     0
100
AcDbLine
 10
455.085578027862
 20
138.880209150641
 30
0.0
 11
455.085578027862
 21
138.1499124072964
 31
0.0
  0
LINE
  5
5A33
330
A
100
AcDbEntity
  8
0
  6
Continuous
 62
     7
370
     0
100
AcDbLine
 10
455.085578027862
 20
138.880209150641
 30
0.0
 11
475.1207471062602
 21
134.7905473879357
 31
0.0
  0
LINE
  5
5A34
330
A
100
AcDbEntity
  8
0
  6
Continuous
 62
     7
370
     0
100
AcDbLine
 10
475.1207471062602
 20
134.7905473879357
 30
0.0
 11
475.1207471062602
 21
76.366807920718
 31
0.0
  0
LINE
  5
5A35
330
A
100
AcDbEntity
  8
0
  6
Continuous
 62
     7
370
     0
100
AcDbLine
 10
471.543038342262
 20
77.09710466405794
 30
0.0
 11
475.1207471062602
 21
76.366807920718
 31
0.0
  0
LINE
  5
5A36
330
A
100
AcDbEntity
  8
0
  6
Continuous
 62
     7
370
     0
100
AcDbLine
 10
475.1207471062602
 20
134.7905473879357
 30
0.0
 11
475.9439281783188
 21
135.4626719187561
 31
0.0
  0
LINE
  5
5A37
330
A
100
AcDbEntity
  8
0
  6
Continuous
 62
     9
370
     0
100
AcDbLine
 10
475.9439281783188
 20
135.4626719187561
 30
0.0
 11
475.9439281783188
 21
77.03893245153837
 31
0.0
  0
LINE
  5
5A38
330
A
100
AcDbEntity
  8
0
  6
Continuous
 62
     7
370
     0
100
AcDbLine
 10
475.1207471062602
 20
76.366807920718
 30
0.0
 11
475.9439281783188
 21
77.03893245153837
 31
0.0
  0
ELLIPSE
  5
5A39
330
A
100
AcDbEntity
  8
0
  6
Continuous
 62
     7
370
     0
100
AcDbEllipse
 10
454.940793628624
 20
153.1505496375127
 30
0.0
 11
-0.7999999999999674
 21
0.0
 31
0.0
210
0.0
220
0.0000000000000001
230
0.9999999999999998
 40
0.4082482904638633
 41
3.020610529952323
 42
3.141592653589792
  0
ELLIPSE
  5
5A3A
330
A
100
AcDbEntity
  8
0
  6
Continuous
 62
     7
370
     0
100
AcDbEllipse
 10
376.3196993069843
 20
157.0527611401487
 30
0.0
 11
-80.00000000000001
 21
0.0
 31
0.0
210
0.0
220
0.0000000000000001
230
1.0
 40
0.4082482904638631
 41
2.775900681007297
 42
3.020610529952316
  0
ELLIPSE
  5
5A3B
330
A
100
AcDbEntity
  8
0
  6
Continuous
 62
     7
370
     0
100
AcDbEllipse
 10
456.2595309955546
 20
144.5562062175373
 30
0.0
 11
5.59999999999999
 21
0.0
 31
0.0
210
0.0
220
0.0000000000000001
230
0.9999999999999998
 40
0.408248290463863
 41
3.141592653589792
 42
4.246815440740101
  0
ELLIPSE
  5
5A3C
330
A
100
AcDbEntity
  8
0
  6
Continuous
 62
     7
370
     0
100
AcDbEllipse
 10
417.8306633435193
 20
113.3296626715347
 30
0.0
 11
-80.00000000000001
 21
0.0
 31
0.0
210
0.0
220
0.0000000000000001
230
1.0
 40
0.4082482904638631
 41
3.901762882659236
 42
4.246815440740098
  0
ELLIPSE
  5
5A3D
330
A
100
AcDbEntity
  8
0
  6
Continuous
 62
     7
370
     0
100
AcDbEllipse
 10
475.228386425519
 20
135.608731267424
 30
0.0
 11
-0.7999999999999674
 21
0.0
 31
0.0
210
0.0
220
0.0000000000000001
230
0.9999999999999998
 40
0.4082482904638633
 41
2.677945044588986
 42
3.141592653589792
  0
ELLIPSE
  5
5A3E
330
A
100
AcDbEntity
  8
0
  6
Continuous
 62
     7
370
     0
100
AcDbEllipse
 10
454.370036275062
 20
139.026268499309
 30
0.0
 11
0.8000000000000229
 21
0.0
 31
0.0
210
0.0
220
0.0000000000000001
230
1.0
 40
0.4082482904638633
 41
0.0
 42
1.107148717794057
  0
LINE
  5
5A3F
330
A
100
AcDbEntity
  8
0
  6
Continuous
 62
     7
370
     0
100
AcDbLine
 10
450.4345566346625
 20
140.1947432886534
 30
0.0
 11
454.7278071514622
 21
139.3183871966451
 31
0.0
  0
ELLIPSE
  5
5A40
330
A
100
AcDbEntity
  8
0
  6
Continuous
 62
     7
370
     0
100
AcDbEllipse
 10
455.4433489042621
 20
144.2844050513586
 30
0.0
 11
-11.19999999999998
 21
0.0
 31
0.0
210
0.0
220
0.0000000000000001
230
0.9999999999999998
 40
0.408248290463863
 41
5.819537698178783
 42
6.28318530717959
  0
ELLIPSE
  5
5A41
330
A
100
AcDbEntity
  8
0
  6
Continuous
 62
     7
370
     0
100
AcDbEllipse
 10
444.710222612263
 20
146.4752952813793
 30
0.0
 11
0.7999999999999674
 21
0.0
 31
0.0
210
0.0
220
0.0000000000000001
230
0.9999999999999998
 40
0.4082482904638633
 41
0.0
 42
1.10714871779412
  0
LINE
  5
5A42
330
A
100
AcDbEntity
  8
0
  6
Continuous
 62
     7
370
     0
100
AcDbLine
 10
453.6544945222622
 20
153.7782627147815
 30
0.0
 11
445.067993488663
 21
146.7674139787153
 31
0.0
  0
LINE
  5
5A43
330
A
100
AcDbEntity
  8
0
  6
Continuous
 62
     7
370
     0
100
AcDbLine
 10
455.298564505024
 20
153.4426683348488
 30
0.0
 11
453.6544945222622
 21
153.7782627147815
 31
0.0
  0
ELLIPSE
  5
5A44
330
A
100
AcDbEntity
  8
0
  6
Continuous
 62
     7
370
     0
100
AcDbEllipse
 10
475.228386425519
 20
135.608731267424
 30
0.0
 11
-0.7999999999999674
 21
0.0
 31
0.0
210
0.0
220
0.0000000000000001
230
0.9999999999999998
 40
0.4082482904638633
 41
3.141592653589792
 42
3.901762882659261
  0
ELLIPSE
  5
5A45
330
A
100
AcDbEntity
  8
0
  6
Continuous
 62
     7
370
     0
100
AcDbEllipse
 10
475.228386425519
 20
77.1849918002064
 30
0.0
 11
-0.7999999999999674
 21
0.0
 31
0.0
210
0.0
220
0.0000000000000001
230
0.9999999999999998
 40
0.4082482904638633
 41
2.677945044588986
 42
3.141592653589792
  0
ELLIPSE
  5
5A46
330
A
100
AcDbEntity
  8
0
  6
Continuous
 62
     7
370
     0
100
AcDbEllipse
 10
454.370036275062
 20
139.026268499309
 30
0.0
 11
0.8000000000000229
 21
0.0
 31
0.0
210
0.0
220
0.0000000000000001
230
1.0
 40
0.408248290463863
 41
5.819537698178686
 42
6.283185307179585
  0
LINE
  5
5A47
330
A
100
AcDbEntity
  8
0
  6
Continuous
 62
     9
370
     0
100
AcDbLine
 10
454.7278071514622
 20
139.3183871966451
 30
0.0
 11
454.7278071514622
 21
138.1251008703215
 31
0.0
  0
LINE
  5
5A48
330
A
100
AcDbEntity
  8
0
  6
Continuous
 62
     9
370
     0
100
AcDbLine
 10
450.4345566346625
 20
140.1947432886534
 30
0.0
 11
450.4345566346626
 21
136.1781112002987
 31
0.0
  0
ELLIPSE
  5
5A49
330
A
100
AcDbEntity
  8
0
  6
Continuous
 62
     7
370
     0
100
AcDbEllipse
 10
455.4433489042621
 20
144.2844050513586
 30
0.0
 11
-11.19999999999998
 21
0.0
 31
0.0
210
0.0
220
0.0000000000000001
230
0.9999999999999998
 40
0.408248290463863
 41
6.283185307179585
 42
7.390334024973676
  0
ELLIPSE
  5
5A4A
330
A
100
AcDbEntity
  8
0
  6
Continuous
 62
     7
370
     0
100
AcDbEllipse
 10
455.4433489042621
 20
85.86066558414087
 30
0.0
 11
-11.19999999999998
 21
0.0
 31
0.0
210
0.0
220
0.0000000000000001
230
0.9999999999999998
 40
0.408248290463863
 41
6.283185307179585
 42
7.2643141674555
  0
ELLIPSE
  5
5A4B
330
A
100
AcDbEntity
  8
0
  6
Continuous
 62
     7
370
     0
100
AcDbEllipse
 10
456.2595309955546
 20
144.5562062175373
 30
0.0
 11
5.59999999999999
 21
0.0
 31
0.0
210
0.0
220
0.0000000000000001
230
0.9999999999999998
 40
0.408248290463863
 41
2.775900681007305
 42
3.141592653589792
  0
LINE
  5
5A4C
330
A
100
AcDbEntity
  8
0
  6
Continuous
 62
     9
370
     0
100
AcDbLine
 10
451.0298223804143
 20
145.3737378479885
 30
0.0
 11
451.0298223804143
 21
143.738674587086
 31
0.0
  0
LINE
  5
5A4D
330
A
100
AcDbEntity
  8
0
  6
Continuous
 62
     9
370
     0
100
AcDbLine
 10
455.7349460965193
 20
153.1111333597083
 30
0.0
 11
455.7349460965193
 21
142.0909368348393
 31
0.0
  0
ELLIPSE
  5
5A4E
330
A
100
AcDbEntity
  8
0
  6
Continuous
 62
     7
370
     0
100
AcDbEllipse
 10
444.710222612263
 20
146.4752952813793
 30
0.0
 11
0.7999999999999674
 21
0.0
 31
0.0
210
0.0
220
0.0000000000000001
230
0.9999999999999998
 40
0.4082482904638633
 41
5.81953769817878
 42
6.283185307179585
  0
LINE
  5
5A4F
330
A
100
AcDbEntity
  8
0
  6
Continuous
 62
     7
370
     0
100
AcDbLine
 10
445.067993488663
 20
146.7674139787153
 30
0.0
 11
445.067993488663
 21
146.006419375728
 31
0.0
  0
ELLIPSE
  5
5A50
330
A
100
AcDbEntity
  8
0
  6
Continuous
 62
     7
370
     0
100
AcDbEllipse
 10
454.940793628624
 20
153.1505496375127
 30
0.0
 11
-0.7999999999999674
 21
0.0
 31
0.0
210
0.0
220
0.0000000000000001
230
0.9999999999999998
 40
0.4082482904638631
 41
3.141592653589792
 42
4.248741371383851
  0
LINE
  5
5A51
330
A
100
AcDbEntity
  8
0
  6
Continuous
 62
     9
370
     0
100
AcDbLine
 10
473.3318927242565
 20
134.060250644592
 30
0.0
 11
473.6896636006563
 21
134.3523693419281
 31
0.0
  0
ELLIPSE
  5
5A52
330
A
100
AcDbEntity
  8
0
  6
Continuous
 62
     7
370
     0
100
AcDbEllipse
 10
473.6896636006563
 20
133.6220725985882
 30
0.0
 11
-0.505964425626948
 21
0.6196773353931706
 31
0.0
210
0.0000000000000001
220
0.0000000000000001
230
1.0
 40
0.8164965809277259
 41
3.926990816987292
 42
5.497787143782181
  0
LINE
  5
5A53
330
A
100
AcDbEntity
  8
0
  6
Continuous
 62
     9
370
     0
100
AcDbLine
 10
474.4052053534559
 20
133.4760132499202
 30
0.0
 11
474.0474344770561
 21
133.1838945525841
 31
0.0
  0
ELLIPSE
  5
5A54
330
A
100
AcDbEntity
  8
0
  6
Continuous
 62
     7
370
     0
100
AcDbEllipse
 10
473.3318927242565
 20
133.3299539012521
 30
0.0
 11
0.505964425626948
 21
-0.6196773353931984
 31
0.0
210
0.0000000000000001
220
0.0000000000000001
230
1.0
 40
0.816496580927726
 41
0.7853981633974812
 42
2.356194490192343
  0
LINE
  5
5A55
330
A
100
AcDbEntity
  8
0
  6
Continuous
 62
     7
370
     0
100
AcDbLine
 10
474.0474344770562
 20
77.68134205875059
 30
0.0
 11
474.0474344770561
 21
133.1838945525841
 31
0.0
  0
ELLIPSE
  5
5A56
330
A
100
AcDbEntity
  8
0
  6
Continuous
 62
     7
370
     0
100
AcDbEllipse
 10
473.3318927242565
 20
77.82740140741856
 30
0.0
 11
0.505964425626948
 21
-0.6196773353931845
 31
0.0
210
0.0000000000000001
220
0.0000000000000001
230
1.0
 40
0.816496580927726
 41
5.497787143782128
 42
6.283185307179585
  0
LINE
  5
5A57
330
A
100
AcDbEntity
  8
0
  6
Continuous
 62
     7
370
     0
100
AcDbLine
 10
471.543038342262
 20
77.46225303574767
 30
0.0
 11
473.3318927242565
 21
77.09710466407866
 31
0.0
  0
LINE
  5
5A58
330
A
100
AcDbEntity
  8
0
  6
Continuous
 62
     7
370
     0
100
AcDbLine
 10
454.0122653986664
 20
137.2735563152875
 30
0.0
 11
454.0122653986664
 21
135.4478144569576
 31
0.0
  0
ELLIPSE
  5
5A59
330
A
100
AcDbEntity
  8
0
  6
Continuous
 62
     7
370
     0
100
AcDbEllipse
 10
454.7278071514661
 20
137.1274969666196
 30
0.0
 11
0.505964425626948
 21
-0.6196773353931706
 31
0.0
210
0.0000000000000001
220
0.0000000000000001
230
1.0
 40
0.8164965809277259
 41
2.356194490192395
 42
3.141592653589868
  0
LINE
  5
5A5A
330
A
100
AcDbEntity
  8
0
  6
Continuous
 62
     7
370
     0
100
AcDbLine
 10
473.3318927242565
 20
134.060250644592
 30
0.0
 11
454.7278071514661
 21
137.8577937099595
 31
0.0
  0
LINE
  5
5A5B
330
A
100
AcDbEntity
  8
0
  6
Continuous
 62
     9
370
     0
100
AcDbLine
 10
474.0474344770562
 20
77.68134205875059
 30
0.0
 11
474.4052053534559
 21
77.97346075608668
 31
0.0
  0
LINE
  5
5A5C
330
A
100
AcDbEntity
  8
0
  6
Continuous
 62
     7
370
     0
100
AcDbLine
 10
474.4052053534559
 20
77.97346075608668
 30
0.0
 11
474.4052053534559
 21
133.4760132499202
 31
0.0
  0
LINE
  5
5A5D
330
A
100
AcDbEntity
  8
0
  6
Continuous
 62
     9
370
     0
100
AcDbLine
 10
455.0855780278658
 20
138.1499124072956
 30
0.0
 11
454.7278071514661
 21
137.8577937099595
 31
0.0
  0
LINE
  5
5A5E
330
A
100
AcDbEntity
  8
0
  6
Continuous
 62
     7
370
     0
100
AcDbLine
 10
473.6896636006563
 20
134.3523693419281
 30
0.0
 11
455.0855780278658
 21
138.1499124072956
 31
0.0
  0
ELLIPSE
  5
5A5F
330
A
100
AcDbEntity
  8
0
  6
Continuous
 62
     7
370
     0
100
AcDbEllipse
 10
455.0855780278658
 20
137.4196156639557
 30
0.0
 11
-0.505964425626948
 21
0.6196773353931706
 31
0.0
210
0.0
220
0.0
230
1.0
 40
0.8164965809277266
 41
5.497787143782181
 42
6.283185307179585
  0
ELLIPSE
  5
5A60
330
A
100
AcDbEntity
  8
0
  6
Continuous
 62
     7
370
     0
100
AcDbEllipse
 10
454.7278071514661
 20
137.1274969666196
 30
0.0
 11
0.505964425626948
 21
-0.6196773353931706
 31
0.0
210
0.0
220
0.0
230
1.0
 40
0.8164965809277266
 41
3.141592653589868
 42
3.9269908169873
  0
ELLIPSE
  5
5A61
330
A
100
AcDbEntity
  8
0
  6
Continuous
 62
     7
370
     0
100
AcDbEllipse
 10
473.3318927242565
 20
77.82740140741856
 30
0.0
 11
0.505964425626948
 21
-0.6196773353931845
 31
0.0
210
0.0
220
0.0
230
1.0
 40
0.8164965809277264
 41
6.283185307179585
 42
7.068583470577022
  0
ELLIPSE
  5
5A62
330
A
100
AcDbEntity
  8
0
  6
Continuous
 62
     7
370
     0
100
AcDbEllipse
 10
473.6896636006563
 20
78.11952010475465
 30
0.0
 11
-0.505964425626948
 21
0.6196773353931567
 31
0.0
210
0.0000000000000001
220
0.0000000000000001
230
1.0
 40
0.8164965809277262
 41
3.141592653589845
 42
3.926990816987288
  0
LINE
  5
5A63
330
A
100
AcDbEntity
  8
0
  6
Continuous
 62
     7
370
     0
100
AcDbLine
 10
441.7931862917351
 20
134.0439358058192
 30
0.0
 11
442.5555501270443
 21
133.8883189396291
 31
0.0
  0
LINE
  5
5A64
330
A
100
AcDbEntity
  8
0
  6
Continuous
 62
     7
370
     0
100
AcDbLine
 10
441.8013682309046
 20
97.53578298369813
 30
0.0
 11
442.5637320653898
 21
97.38016611767614
 31
0.0
  0
LINE
  5
5A65
330
A
100
AcDbEntity
  8
0
  6
Continuous
 62
     7
370
     0
100
AcDbLine
 10
446.6487672647201
 20
153.8277233140543
 30
0.0
 11
445.9332255119203
 21
153.9737826627238
 31
0.0
  0
LINE
  5
5A66
330
A
100
AcDbEntity
  8
0
  6
Continuous
 62
     7
370
     0
100
AcDbLine
 10
436.3236202460551
 20
89.30994691841133
 30
0.0
 11
437.0391619988549
 21
89.16388756974184
 31
0.0
  0
LINE
  5
5A67
330
A
100
AcDbEntity
  8
0
  6
Continuous
 62
     7
370
     0
100
AcDbLine
 10
442.7634960205881
 20
87.99541373509667
 30
0.0
 11
443.479037773388
 21
87.84935438642859
 31
0.0
  0
LINE
  5
5A68
330
A
100
AcDbEntity
  8
0
  6
Continuous
 62
     7
370
     0
100
AcDbLine
 10
433.2122063404431
 20
147.5867177540407
 30
0.0
 11
433.2252974431146
 21
89.17367323864665
 31
0.0
  0
LINE
  5
5A69
330
A
100
AcDbEntity
  8
0
  6
Continuous
 62
     7
370
     0
100
AcDbLine
 10
442.0975063232644
 20
143.6981260528015
 30
0.0
 11
441.9083319094143
 21
143.7367411183288
 31
0.0
  0
LINE
  5
5A6A
330
A
100
AcDbEntity
  8
0
  6
Continuous
 62
     7
370
     0
100
AcDbLine
 10
440.3403319093992
 20
136.0551412849638
 30
0.0
 11
440.5295063234559
 21
136.0165262193944
 31
0.0
  0
LINE
  5
5A6B
330
A
100
AcDbEntity
  8
0
  6
Continuous
 62
     7
370
     0
100
AcDbLine
 10
442.1056882624341
 20
107.1899732306802
 30
0.0
 11
441.9165138485841
 21
107.2285882962075
 31
0.0
  0
LINE
  5
5A6C
330
A
100
AcDbEntity
  8
0
  6
Continuous
 62
     7
370
     0
100
AcDbLine
 10
440.3485138485691
 20
99.54698846284257
 30
0.0
 11
440.5376882626256
 21
99.50837339727312
 31
0.0
  0
LINE
  5
5A6D
330
A
100
AcDbEntity
  8
0
  6
Continuous
 62
     7
370
     0
100
AcDbLine
 10
449.2152005267839
 20
135.316361043157
 30
0.0
 11
449.2152005267839
 21
76.8926215759395
 31
0.0
  0
LINE
  5
5A6E
330
A
100
AcDbEntity
  8
0
  6
Continuous
 62
     7
370
     0
100
AcDbLine
 10
476.028386425519
 20
77.1849918002064
 30
0.0
 11
476.028386425519
 21
135.608731267424
 31
0.0
  0
LINE
  5
5A6F
330
A
100
AcDbEntity
  8
0
  6
Continuous
 62
     7
370
     0
100
AcDbLine
 10
444.243348904262
 20
144.2844050513586
 30
0.0
 11
444.243348904262
 21
85.86066558414087
 31
0.0
  0
LINE
  5
5A70
330
A
100
AcDbEntity
  8
0
  6
Continuous
 62
     7
370
     0
100
AcDbLine
 10
455.740793628624
 20
142.0896523034475
 30
0.0
 11
455.740793628624
 21
153.1505496375127
 31
0.0
  0
LINE
  5
5A71
330
A
100
AcDbEntity
  8
0
  6
Continuous
 62
     7
370
     0
100
AcDbLine
 10
454.5796136022393
 20
138.0392929993486
 30
0.0
 11
454.2218427258393
 21
137.7471743020125
 31
0.0
  0
LINE
  5
5A72
330
A
100
AcDbEntity
  8
0
  6
Continuous
 62
     7
370
     0
100
AcDbLine
 10
473.8378571498832
 20
77.20772407202564
 30
0.0
 11
474.1956280262832
 21
77.49984276936173
 31
0.0
  0
LINE
  5
5AB9
330
A
100
AcDbEntity
  8
0
  6
Continuous
 62
     7
370
     0
100
AcDbLine
 10
393.3500000000638
 20
101.346570401664
 30
0.0
 11
379.3500000000638
 21
101.346570401664
 31
0.0
  0
LINE
  5
5ABA
330
A
100
AcDbEntity
  8
0
  6
Continuous
 62
     7
370
     0
100
AcDbLine
 10
393.3500000000638
 20
96.34657040166402
 30
0.0
 11
379.3500000000638
 21
96.34657040166402
 31
0.0
  0
LINE
  5
5ABB
330
A
100
AcDbEntity
  8
0
  6
Continuous
 62
     7
370
     0
100
AcDbLine
 10
348.8500000000696
 20
135.8237011872991
 30
0.0
 11
348.8500000000696
 21
121.8237011872991
 31
0.0
  0
LINE
  5
5ABC
330
A
100
AcDbEntity
  8
0
  6
Continuous
 62
     7
370
     0
100
AcDbLine
 10
343.8500000000697
 20
135.8237011872992
 30
0.0
 11
343.8500000000695
 21
121.8237011872991
 31
0.0
  0
LINE
  5
5ABD
330
A
100
AcDbEntity
  8
0
  6
Continuous
 62
     7
370
     0
100
AcDbLine
 10
343.84999999997
 20
135.8465704027126
 30
0.0
 11
343.84999999997
 21
135.8237011872992
 31
0.0
  0
LINE
  5
5ABE
330
A
100
AcDbEntity
  8
0
  6
Continuous
 62
     9
370
     0
100
AcDbLine
 10
358.1999999996749
 20
130.4585439253103
 30
0.0
 11
358.1999999994325
 21
134.259412511773
 31
0.0
  0
LINE
  5
5ABF
330
A
100
AcDbEntity
  8
0
  6
Continuous
 62
     7
370
     0
100
AcDbLine
 10
358.4499999994601
 20
133.8263998098967
 30
0.0
 11
358.4499999997519
 21
129.2509491807448
 31
0.0
  0
LINE
  5
5AC0
330
A
100
AcDbEntity
  8
0
  6
Continuous
 62
     9
370
     0
100
AcDbLine
 10
341.3500000000956
 20
142.8177537268837
 30
0.0
 11
342.3500000000956
 21
142.8177537268837
 31
0.0
  0
LINE
  5
5AC1
330
A
100
AcDbEntity
  8
0
  6
Continuous
 62
     7
370
     0
100
AcDbLine
 10
342.3500000000956
 20
142.817753726884
 30
0.0
 11
342.3500000000956
 21
141.817296447176
 31
0.0
  0
LINE
  5
5AC2
330
A
100
AcDbEntity
  8
0
  6
Continuous
 62
     9
370
     0
100
AcDbLine
 10
342.3500000000976
 20
141.817296447176
 30
0.0
 11
341.3500000000976
 21
141.817296447176
 31
0.0
  0
LINE
  5
5AC3
330
A
100
AcDbEntity
  8
0
  6
Continuous
 62
     9
370
     0
100
AcDbLine
 10
341.3500000000974
 20
115.8172991667909
 30
0.0
 11
342.3500000000974
 21
115.8172991667909
 31
0.0
  0
LINE
  5
5AC4
330
A
100
AcDbEntity
  8
0
  6
Continuous
 62
     7
370
     0
100
AcDbLine
 10
342.3500000000974
 20
115.8172991667909
 30
0.0
 11
342.3500000000976
 21
141.817296447176
 31
0.0
  0
LINE
  5
5AC5
330
A
100
AcDbEntity
  8
0
  6
Continuous
 62
     7
370
     0
100
AcDbLine
 10
342.3500000000954
 20
114.8177566556997
 30
0.0
 11
341.3500000000953
 21
114.8177566556997
 31
0.0
  0
LINE
  5
5AC6
330
A
100
AcDbEntity
  8
0
  6
Continuous
 62
     7
370
     0
100
AcDbLine
 10
342.3500000000954
 20
115.8172991667909
 30
0.0
 11
342.3500000000954
 21
114.8177565510992
 31
0.0
  0
LINE
  5
5AC7
330
A
100
AcDbEntity
  8
0
  6
Continuous
 62
     7
370
     0
100
AcDbLine
 10
342.349999999944
 20
142.8525149343121
 30
0.0
 11
341.349999999944
 21
142.8525149343121
 31
0.0
  0
LINE
  5
5AC8
330
A
100
AcDbEntity
  8
0
  6
Continuous
 62
     7
370
     0
100
AcDbLine
 10
342.3500000000956
 20
142.8177537268837
 30
0.0
 11
342.349999999944
 21
142.8525149343121
 31
0.0
  0
LINE
  5
5AC9
330
A
100
AcDbEntity
  8
0
  6
Continuous
 62
     9
370
     0
100
AcDbLine
 10
351.350000000064
 20
141.8172964489337
 30
0.0
 11
350.350000000064
 21
141.8172964489337
 31
0.0
  0
LINE
  5
5ACA
330
A
100
AcDbEntity
  8
0
  6
Continuous
 62
     7
370
     0
100
AcDbLine
 10
350.350000000064
 20
141.8172964489337
 30
0.0
 11
350.3500000000641
 21
142.8177537285918
 31
0.0
  0
LINE
  5
5ACB
330
A
100
AcDbEntity
  8
0
  6
Continuous
 62
     9
370
     0
100
AcDbLine
 10
350.3500000000641
 20
142.8177537285918
 30
0.0
 11
351.3500000000641
 21
142.8177537285918
 31
0.0
  0
LINE
  5
5ACC
330
A
100
AcDbEntity
  8
0
  6
Continuous
 62
     9
370
     0
100
AcDbLine
 10
350.3500000000637
 20
115.8172991685379
 30
0.0
 11
351.3500000000637
 21
115.8172991685379
 31
0.0
  0
LINE
  5
5ACD
330
A
100
AcDbEntity
  8
0
  6
Continuous
 62
     7
370
     0
100
AcDbLine
 10
350.350000000064
 20
141.8172964489337
 30
0.0
 11
350.3500000000637
 21
115.8172991685379
 31
0.0
  0
LINE
  5
5ACE
330
A
100
AcDbEntity
  8
0
  6
Continuous
 62
     7
370
     0
100
AcDbLine
 10
351.3500000000638
 20
119.8465704016606
 30
0.0
 11
351.3500000000637
 21
115.8172991685379
 31
0.0
  0
LINE
  5
5ACF
330
A
100
AcDbEntity
  8
0
  6
Continuous
 62
     7
370
     0
100
AcDbLine
 10
351.3500000000637
 20
114.8177566573963
 30
0.0
 11
350.3500000000637
 21
114.8177566573963
 31
0.0
  0
LINE
  5
5AD0
330
A
100
AcDbEntity
  8
0
  6
Continuous
 62
     7
370
     0
100
AcDbLine
 10
350.3500000000637
 20
114.8177565527961
 30
0.0
 11
350.3500000000637
 21
115.8172991685379
 31
0.0
  0
LINE
  5
5AD1
330
A
100
AcDbEntity
  8
0
  6
Continuous
 62
     7
370
     0
100
AcDbLine
 10
351.3500000000637
 20
115.8172991685379
 30
0.0
 11
351.3500000000637
 21
114.8177565527961
 31
0.0
  0
LINE
  5
5AD2
330
A
100
AcDbEntity
  8
0
  6
Continuous
 62
     7
370
     0
100
AcDbLine
 10
351.3500000000641
 20
142.8525149322167
 30
0.0
 11
350.3500000000641
 21
142.8525149322167
 31
0.0
  0
LINE
  5
5AD3
330
A
100
AcDbEntity
  8
0
  6
Continuous
 62
     7
370
     0
100
AcDbLine
 10
350.3500000000641
 20
142.8525149322167
 30
0.0
 11
350.3500000000641
 21
142.8177537285918
 31
0.0
  0
LINE
  5
5AD4
330
A
100
AcDbEntity
  8
0
  6
Continuous
 62
     7
370
     0
100
AcDbLine
 10
339.6500000001051
 20
113.8168419916783
 30
0.0
 11
341.3500000001051
 21
113.8168419916783
 31
0.0
  0
ELLIPSE
  5
5AD5
330
A
100
AcDbEntity
  8
0
  6
Continuous
 62
     7
370
     0
100
AcDbEllipse
 10
339.6500000001051
 20
116.8168416778776
 30
0.0
 11
3.000000000000001
 21
0.0000000130772199
 31
0.0
210
0.0
220
0.0
230
1.0
 40
0.9999998953997918
 41
3.141592649230709
 42
4.712388976025617
  0
LINE
  5
5AD6
330
A
100
AcDbEntity
  8
0
  6
Continuous
 62
     7
370
     0
100
AcDbLine
 10
336.6500000001053
 20
140.8168391674727
 30
0.0
 11
336.6500000001051
 21
116.8168416778777
 31
0.0
  0
ELLIPSE
  5
5AD7
330
A
100
AcDbEntity
  8
0
  6
Continuous
 62
     7
370
     0
100
AcDbEllipse
 10
339.6500000001053
 20
140.8168391674727
 30
0.0
 11
3.000000000000001
 21
0.0000000130786215
 31
0.0
210
0.0
220
0.0
230
1.0
 40
0.9999998953997918
 41
1.570796322435336
 42
3.141592649230243
  0
LINE
  5
5AD8
330
A
100
AcDbEntity
  8
0
  6
Continuous
 62
     7
370
     0
100
AcDbLine
 10
341.3500000001054
 20
143.816838853672
 30
0.0
 11
339.6500000001054
 21
143.816838853672
 31
0.0
  0
LINE
  5
5AD9
330
A
100
AcDbEntity
  8
0
  6
Continuous
 62
     7
370
     0
100
AcDbLine
 10
341.3500000001054
 20
143.816838853672
 30
0.0
 11
341.3500000001051
 21
113.8168419916783
 31
0.0
  0
LINE
  5
5ADA
330
A
100
AcDbEntity
  8
0
  6
Continuous
 62
     7
370
     0
100
AcDbLine
 10
336.6499999999458
 20
140.8534299121341
 30
0.0
 11
336.6500000001053
 21
140.8168391674727
 31
0.0
  0
ELLIPSE
  5
5ADB
330
A
100
AcDbEntity
  8
0
  6
Continuous
 62
     7
370
     0
100
AcDbEllipse
 10
339.6499999999458
 20
140.8534299121341
 30
0.0
 11
2.999999999999947
 21
0.0000000130786215
 31
0.0
210
0.0
220
0.0
230
1.0
 40
0.9999998953997918
 41
1.570796322435356
 42
3.141592649230243
  0
LINE
  5
5ADC
330
A
100
AcDbEntity
  8
0
  6
Continuous
 62
     9
370
     0
100
AcDbLine
 10
339.6499999999458
 20
143.8534295983335
 30
0.0
 11
339.6500000001054
 21
143.816838853672
 31
0.0
  0
LINE
  5
5ADD
330
A
100
AcDbEntity
  8
0
  6
Continuous
 62
     7
370
     0
100
AcDbLine
 10
341.3499999999459
 20
143.8534295983335
 30
0.0
 11
339.6499999999458
 21
143.8534295983335
 31
0.0
  0
LINE
  5
5ADE
330
A
100
AcDbEntity
  8
0
  6
Continuous
 62
     7
370
     0
100
AcDbLine
 10
341.3499999999459
 20
143.8534295983335
 30
0.0
 11
341.3500000001054
 21
143.816838853672
 31
0.0
  0
LINE
  5
5ADF
330
A
100
AcDbEntity
  8
0
  6
Continuous
 62
     9
370
     0
100
AcDbLine
 10
391.7628421097388
 20
110.6965704016604
 30
0.0
 11
388.2397039308773
 21
110.6965704016604
 31
0.0
  0
LINE
  5
5AE0
330
A
100
AcDbEntity
  8
0
  6
Continuous
 62
     7
370
     0
100
AcDbLine
 10
387.0742099184757
 20
110.9465704016604
 30
0.0
 11
391.3298294078467
 21
110.9465704016604
 31
0.0
  0
ARC
  5
5AE1
330
A
100
AcDbEntity
  8
0
  6
Continuous
 62
     7
370
     0
100
AcDbCircle
 10
374.3500000000639
 20
92.14657040166477
 30
0.0
 40
3.000000000000001
100
AcDbArc
 50
180.0
 51
270.0
  0
LINE
  5
5AE2
330
A
100
AcDbEntity
  8
0
  6
Continuous
 62
     7
370
     0
100
AcDbLine
 10
398.3500000000637
 20
89.14657040166478
 30
0.0
 11
374.3500000000639
 21
89.14657040166478
 31
0.0
  0
LINE
  5
5AE3
330
A
100
AcDbEntity
  8
0
  6
Continuous
 62
     7
370
     0
100
AcDbLine
 10
401.3500000000637
 20
93.84657040166478
 30
0.0
 11
401.3500000000637
 21
92.14657040166477
 31
0.0
  0
LINE
  5
5AE4
330
A
100
AcDbEntity
  8
0
  6
Continuous
 62
     7
370
     0
100
AcDbLine
 10
371.3500000000639
 20
92.14657040166477
 30
0.0
 11
371.3500000000639
 21
93.84657040166478
 31
0.0
  0
ARC
  5
5AE5
330
A
100
AcDbEntity
  8
0
  6
Continuous
 62
     7
370
     0
100
AcDbCircle
 10
398.3500000000637
 20
92.14657040166477
 30
0.0
 40
3.000000000000001
100
AcDbArc
 50
270.0
 51
0.0
  0
LINE
  5
5AE6
330
A
100
AcDbEntity
  8
0
  6
Continuous
 62
     7
370
     0
100
AcDbLine
 10
401.3500000000637
 20
93.84657040166478
 30
0.0
 11
371.3500000000639
 21
93.84657040166478
 31
0.0
  0
LINE
  5
5AE7
330
A
100
AcDbEntity
  8
0
  6
Continuous
 62
     7
370
     0
100
AcDbLine
 10
353.6476576508277
 20
143.8465704016605
 30
0.0
 11
351.3500000000638
 21
143.8465704016605
 31
0.0
  0
LINE
  5
5AE8
330
A
100
AcDbEntity
  8
0
  6
Continuous
 62
     7
370
     0
100
AcDbLine
 10
351.3500000000638
 20
143.8465704016605
 30
0.0
 11
351.3500000000638
 21
119.8465704016606
 31
0.0
  0
ARC
  5
5AE9
330
A
100
AcDbEntity
  8
0
  6
Continuous
 62
     7
370
     0
100
AcDbCircle
 10
400.3500000000638
 20
106.1474314453037
 30
0.0
 40
1.0
100
AcDbArc
 50
0.0
 51
70.11959701424989
  0
ARC
  5
5AEA
330
A
100
AcDbEntity
  8
0
  6
Continuous
 62
     7
370
     0
100
AcDbCircle
 10
366.3500000000638
 20
118.8465704016606
 30
0.0
 40
14.00000000000001
100
AcDbArc
 50
180.0
 51
270.0
  0
ARC
  5
5AEB
330
A
100
AcDbEntity
  8
0
  6
Continuous
 62
     7
370
     0
100
AcDbCircle
 10
351.3500000000638
 20
118.8465704016606
 30
0.0
 40
1.0
100
AcDbArc
 50
0.0
 51
90.0
  0
ARC
  5
5AEC
330
A
100
AcDbEntity
  8
0
  6
Continuous
 62
     7
370
     0
100
AcDbCircle
 10
366.6842657929678
 20
13.04738665317082
 30
0.0
 40
100.0
100
AcDbArc
 50
70.11959701425016
 51
89.88965230247623
  0
ARC
  5
5AED
330
A
100
AcDbEntity
  8
0
  6
Continuous
 62
     7
370
     0
100
AcDbCircle
 10
353.6476576508277
 20
142.8465704016605
 30
0.0
 40
0.9999999999999776
100
AcDbArc
 50
19.63328609612137
 51
90.00000000000055
  0
LINE
  5
5AEE
330
A
100
AcDbEntity
  8
0
  6
Continuous
 62
     7
370
     0
100
AcDbLine
 10
401.3500000000638
 20
103.8465704016606
 30
0.0
 11
401.3500000000638
 21
106.1474314453037
 31
0.0
  0
LINE
  5
5AEF
330
A
100
AcDbEntity
  8
0
  6
Continuous
 62
     7
370
     0
100
AcDbLine
 10
373.3500000000638
 20
103.8465704016606
 30
0.0
 11
401.3500000000638
 21
103.8465704016606
 31
0.0
  0
ARC
  5
5AF0
330
A
100
AcDbEntity
  8
0
  6
Continuous
 62
     7
370
     0
100
AcDbCircle
 10
372.3500000000638
 20
103.8465704016606
 30
0.0
 40
1.0
100
AcDbArc
 50
0.0
 51
90.0
  0
LINE
  5
5AF1
330
A
100
AcDbEntity
  8
0
  6
Continuous
 62
     7
370
     0
100
AcDbLine
 10
366.3500000000638
 20
104.8465704016606
 30
0.0
 11
372.3500000000638
 21
104.8465704016606
 31
0.0
  0
ARC
  5
5AF2
330
A
100
AcDbEntity
  8
0
  6
Continuous
 62
     7
370
     0
100
AcDbCircle
 10
260.4032788061484
 20
109.5826888802577
 30
0.0
 40
100.0
100
AcDbArc
 50
5.612444546287161
 51
19.63328609612055
  0
ARC
  5
5AF3
330
A
100
AcDbEntity
  8
0
  6
Continuous
 62
     7
370
     0
100
AcDbCircle
 10
366.8903402444571
 20
120.0471882105589
 30
0.0
 40
7.000000000000017
100
AcDbArc
 50
185.6124445462872
 51
269.8896523024763
  0
LINE
  5
5AF4
330
A
100
AcDbEntity
  8
0
  6
Continuous
 62
     7
370
     0
100
AcDbLine
 10
400.3500000000613
 20
94.84657040166473
 30
0.0
 11
400.3500000000613
 21
93.84657040166471
 31
0.0
  0
LINE
  5
5AF5
330
A
100
AcDbEntity
  8
0
  6
Continuous
 62
     9
370
     0
100
AcDbLine
 10
399.3500000000616
 20
93.84657040166471
 30
0.0
 11
399.3500000000616
 21
94.84657040166473
 31
0.0
  0
LINE
  5
5AF6
330
A
100
AcDbEntity
  8
0
  6
Continuous
 62
     7
370
     0
100
AcDbLine
 10
399.3500000000616
 20
94.84657040166473
 30
0.0
 11
400.3500000000616
 21
94.84657040166473
 31
0.0
  0
LINE
  5
5AF7
330
A
100
AcDbEntity
  8
0
  6
Continuous
 62
     9
370
     0
100
AcDbLine
 10
373.350000000066
 20
94.84657040166473
 30
0.0
 11
373.350000000066
 21
93.84657040166471
 31
0.0
  0
LINE
  5
5AF8
330
A
100
AcDbEntity
  8
0
  6
Continuous
 62
     7
370
     0
100
AcDbLine
 10
373.350000000066
 20
94.84657040166473
 30
0.0
 11
399.3500000000616
 21
94.84657040166473
 31
0.0
  0
LINE
  5
5AF9
330
A
100
AcDbEntity
  8
0
  6
Continuous
 62
     7
370
     0
100
AcDbLine
 10
372.3500000000661
 20
93.84657040166471
 30
0.0
 11
372.3500000000661
 21
94.84657040166473
 31
0.0
  0
LINE
  5
5AFA
330
A
100
AcDbEntity
  8
0
  6
Continuous
 62
     7
370
     0
100
AcDbLine
 10
372.3500000000659
 20
94.84657040166473
 30
0.0
 11
373.350000000066
 21
94.84657040166473
 31
0.0
  0
LINE
  5
5AFB
330
A
100
AcDbEntity
  8
0
  6
Continuous
 62
     7
370
     0
100
AcDbLine
 10
372.3500000000697
 20
102.8465704016606
 30
0.0
 11
372.3500000000697
 21
103.8465704016606
 31
0.0
  0
LINE
  5
5AFC
330
A
100
AcDbEntity
  8
0
  6
Continuous
 62
     7
370
     0
100
AcDbLine
 10
372.3500000000693
 20
103.8465704016606
 30
0.0
 11
373.3500000000693
 21
103.8465704016606
 31
0.0
  0
LINE
  5
5AFD
330
A
100
AcDbEntity
  8
0
  6
Continuous
 62
     9
370
     0
100
AcDbLine
 10
373.3500000000693
 20
103.8465704016606
 30
0.0
 11
373.3500000000693
 21
102.8465704016606
 31
0.0
  0
LINE
  5
5AFE
330
A
100
AcDbEntity
  8
0
  6
Continuous
 62
     7
370
     0
100
AcDbLine
 10
373.3500000000693
 20
102.8465704016606
 30
0.0
 11
372.3500000000693
 21
102.8465704016606
 31
0.0
  0
LINE
  5
5AFF
330
A
100
AcDbEntity
  8
0
  6
Continuous
 62
     9
370
     0
100
AcDbLine
 10
399.3500000000583
 20
102.8465704016606
 30
0.0
 11
399.3500000000583
 21
103.8465704016606
 31
0.0
  0
LINE
  5
5B00
330
A
100
AcDbEntity
  8
0
  6
Continuous
 62
     7
370
     0
100
AcDbLine
 10
399.3500000000583
 20
102.8465704016606
 30
0.0
 11
373.3500000000693
 21
102.8465704016606
 31
0.0
  0
LINE
  5
5B01
330
A
100
AcDbEntity
  8
0
  6
Continuous
 62
     7
370
     0
100
AcDbLine
 10
400.3500000000578
 20
103.8465704016606
 30
0.0
 11
400.3500000000578
 21
102.8465704016606
 31
0.0
  0
LINE
  5
5B02
330
A
100
AcDbEntity
  8
0
  6
Continuous
 62
     7
370
     0
100
AcDbLine
 10
400.3500000000583
 20
102.8465704016606
 30
0.0
 11
399.3500000000583
 21
102.8465704016606
 31
0.0
  0
LINE
  5
5B03
330
A
100
AcDbEntity
  8
0
  6
Continuous
 62
     9
370
     0
100
AcDbLine
 10
348.8499999996648
 20
126.3465704015015
 30
0.0
 11
350.3500000000638
 21
126.3465704015972
 31
0.0
  0
LINE
  5
5B04
330
A
100
AcDbEntity
  8
0
  6
Continuous
 62
     9
370
     0
100
AcDbLine
 10
350.350000000064
 20
131.3465704015972
 30
0.0
 11
348.849999999666
 21
131.3465704015015
 31
0.0
  0
LINE
  5
5B05
330
A
100
AcDbEntity
  8
0
  6
Continuous
 62
     9
370
     0
100
AcDbLine
 10
388.8500000000638
 20
101.3465704020996
 30
0.0
 11
388.8500000000638
 21
102.8465704016606
 31
0.0
  0
LINE
  5
5B06
330
A
100
AcDbEntity
  8
0
  6
Continuous
 62
     9
370
     0
100
AcDbLine
 10
383.8500000000638
 20
102.8465704016606
 30
0.0
 11
383.8500000000638
 21
101.3465704020996
 31
0.0
  0
LINE
  5
5B07
330
A
100
AcDbEntity
  8
0
  6
Continuous
 62
     7
370
     0
100
AcDbLine
 10
393.3500000000638
 20
96.34657040166402
 30
0.0
 11
393.3500000000638
 21
101.346570401664
 31
0.0
  0
LINE
  5
5B08
330
A
100
AcDbEntity
  8
0
  6
Continuous
 62
     7
370
     0
100
AcDbLine
 10
379.3500000000638
 20
101.346570401664
 30
0.0
 11
379.3500000000638
 21
96.34657040166402
 31
0.0
  0
LINE
  5
5B09
330
A
100
AcDbEntity
  8
0
  6
Continuous
 62
     7
370
     0
100
AcDbLine
 10
348.8500000000696
 20
135.8237011872992
 30
0.0
 11
343.8500000000697
 21
135.8237011872992
 31
0.0
  0
LINE
  5
5B0A
330
A
100
AcDbEntity
  8
0
  6
Continuous
 62
     7
370
     0
100
AcDbLine
 10
343.8500000000695
 20
121.8237011872991
 30
0.0
 11
348.8500000000696
 21
121.8237011872991
 31
0.0
  0
LINE
  5
5B0B
330
A
100
AcDbEntity
  8
0
  6
Continuous
 62
     7
370
     0
100
AcDbLine
 10
348.8499999999699
 20
135.8465704027125
 30
0.0
 11
343.84999999997
 21
135.8465704027126
 31
0.0
  0
LINE
  5
5B0C
330
A
100
AcDbEntity
  8
0
  6
Continuous
 62
     7
370
     0
100
AcDbLine
 10
358.1999999994325
 20
134.259412511773
 30
0.0
 11
357.1551416949982
 21
134.8626617350143
 31
0.0
  0
ARC
  5
5B0D
330
A
100
AcDbEntity
  8
0
  6
Continuous
 62
     7
370
     0
100
AcDbCircle
 10
357.9499999994601
 20
133.8263998098648
 30
0.0
 40
0.5000000000000006
100
AcDbArc
 50
0.0000000036544573
 51
60.00000000365439
  0
LINE
  5
5B0E
330
A
100
AcDbEntity
  8
0
  6
Continuous
 62
     7
370
     0
100
AcDbLine
 10
348.8499999995791
 20
125.8465704015015
 30
0.0
 11
350.3500000000638
 21
125.8465704015972
 31
0.0
  0
LINE
  5
5B0F
330
A
100
AcDbEntity
  8
0
  6
Continuous
 62
     7
370
     0
100
AcDbLine
 10
350.350000000064
 20
131.8465704015972
 30
0.0
 11
348.8499999995791
 21
131.8465704015015
 31
0.0
  0
LINE
  5
5B10
330
A
100
AcDbEntity
  8
0
  6
Continuous
 62
     7
370
     0
100
AcDbLine
 10
343.8499999996596
 20
133.7237011872992
 30
0.0
 11
342.3500000000975
 21
133.7237011872992
 31
0.0
  0
LINE
  5
5B11
330
A
100
AcDbEntity
  8
0
  6
Continuous
 62
     7
370
     0
100
AcDbLine
 10
342.3500000000974
 20
123.9237011872992
 30
0.0
 11
343.8499999996624
 21
123.9237011872992
 31
0.0
  0
LINE
  5
5B12
330
A
100
AcDbEntity
  8
0
  6
Continuous
 62
     7
370
     0
100
AcDbLine
 10
343.8499999996611
 20
133.7465704027125
 30
0.0
 11
342.3500000000975
 21
133.7465704027126
 31
0.0
  0
LINE
  5
5B13
330
A
100
AcDbEntity
  8
0
  6
Continuous
 62
     7
370
     0
100
AcDbLine
 10
392.3376925203143
 20
109.7009002837919
 30
0.0
 11
391.7628421097388
 21
110.6965704016604
 31
0.0
  0
ARC
  5
5B14
330
A
100
AcDbEntity
  8
0
  6
Continuous
 62
     7
370
     0
100
AcDbCircle
 10
391.3298294078467
 20
110.4465704016604
 30
0.0
 40
0.500000000000002
100
AcDbArc
 50
29.99999999999993
 51
90.00000000000005
  0
LINE
  5
5B15
330
A
100
AcDbEntity
  8
0
  6
Continuous
 62
     7
370
     0
100
AcDbLine
 10
389.3500000000638
 20
101.3465704020859
 30
0.0
 11
389.3500000000638
 21
102.8465704016606
 31
0.0
  0
LINE
  5
5B16
330
A
100
AcDbEntity
  8
0
  6
Continuous
 62
     7
370
     0
100
AcDbLine
 10
383.3500000000638
 20
102.8465704016606
 30
0.0
 11
383.3500000000638
 21
101.3465704020859
 31
0.0
  0
LINE
  5
5B17
330
A
100
AcDbEntity
  8
0
  6
Continuous
 62
     7
370
     0
100
AcDbLine
 10
381.4500000000638
 20
96.3465704019957
 30
0.0
 11
381.4500000000638
 21
94.84657040166473
 31
0.0
  0
LINE
  5
5B18
330
A
100
AcDbEntity
  8
0
  6
Continuous
 62
     7
370
     0
100
AcDbLine
 10
391.2500000000638
 20
94.84657040166473
 30
0.0
 11
391.2500000000638
 21
96.3465704019957
 31
0.0
  0
LINE
  5
5B19
330
A
100
AcDbEntity
  8
0
  6
Continuous
 62
     7
370
     0
100
AcDbLine
 10
474.1534295978693
 20
191.0000013074997
 30
0.0
 11
474.1534295988024
 21
177.0000013074997
 31
0.0
  0
LINE
  5
5B1A
330
A
100
AcDbEntity
  8
0
  6
Continuous
 62
     7
370
     0
100
AcDbLine
 10
469.1534295978692
 20
191.0000013071664
 30
0.0
 11
469.1534295988025
 21
177.0000013071665
 31
0.0
  0
LINE
  5
5B1B
330
A
100
AcDbEntity
  8
0
  6
Continuous
 62
     7
370
     0
100
AcDbLine
 10
474.1534295978696
 20
241.0000013074923
 30
0.0
 11
474.1534295988024
 21
227.0000013074922
 31
0.0
  0
LINE
  5
5B1C
330
A
100
AcDbEntity
  8
0
  6
Continuous
 62
     7
370
     0
100
AcDbLine
 10
469.1534295978696
 20
241.0000013071592
 30
0.0
 11
469.1534295988023
 21
227.0000013071592
 31
0.0
  0
LINE
  5
5B1D
330
A
100
AcDbEntity
  8
0
  6
Continuous
 62
     7
370
     0
100
AcDbLine
 10
456.6465672636602
 20
168.993143419411
 30
0.0
 11
456.6831580083215
 21
248.9931350513944
 31
0.0
  0
LINE
  5
5B1E
330
A
100
AcDbEntity
  8
0
  6
Continuous
 62
     7
370
     0
100
AcDbLine
 10
453.6465675774607
 20
168.9945155723358
 30
0.0
 11
456.6465672636602
 21
168.9931434194111
 31
0.0
  0
LINE
  5
5B1F
330
A
100
AcDbEntity
  8
0
  6
Continuous
 62
     9
370
     0
100
AcDbLine
 10
453.6465675774607
 20
168.9945155723418
 30
0.0
 11
453.6831583221221
 21
248.9945072043252
 31
0.0
  0
LINE
  5
5B20
330
A
100
AcDbEntity
  8
0
  6
Continuous
 62
     7
370
     0
100
AcDbLine
 10
453.6831583221221
 20
248.9945072043193
 30
0.0
 11
456.6831580083215
 21
248.9931350513944
 31
0.0
  0
LINE
  5
5B21
330
A
100
AcDbEntity
  8
0
  6
Continuous
 62
     9
370
     0
100
AcDbLine
 10
429.6465700878658
 20
169.0054927957403
 30
0.0
 11
429.6831608325272
 21
249.0054844277237
 31
0.0
  0
LINE
  5
5B22
330
A
100
AcDbEntity
  8
0
  6
Continuous
 62
     7
370
     0
100
AcDbLine
 10
429.6831608325272
 20
249.0054844277237
 30
0.0
 11
453.6831583221221
 21
248.9945072043252
 31
0.0
  0
LINE
  5
5B23
330
A
100
AcDbEntity
  8
0
  6
Continuous
 62
     7
370
     0
100
AcDbLine
 10
429.6465700878658
 20
169.0054927957403
 30
0.0
 11
453.6465675774607
 21
168.9945155723418
 31
0.0
  0
LINE
  5
5B24
330
A
100
AcDbEntity
  8
0
  6
Continuous
 62
     7
370
     0
100
AcDbLine
 10
426.6465704016665
 20
169.0068649486591
 30
0.0
 11
426.6831611463278
 21
249.0068565806425
 31
0.0
  0
LINE
  5
5B25
330
A
100
AcDbEntity
  8
0
  6
Continuous
 62
     7
370
     0
100
AcDbLine
 10
426.6831611463278
 20
249.0068565806425
 30
0.0
 11
429.6831608325272
 21
249.0054844277177
 31
0.0
  0
LINE
  5
5B26
330
A
100
AcDbEntity
  8
0
  6
Continuous
 62
     7
370
     0
100
AcDbLine
 10
426.6465704016665
 20
169.0068649486591
 30
0.0
 11
429.6465700878658
 21
169.0054927957343
 31
0.0
  0
LINE
  5
5B27
330
A
100
AcDbEntity
  8
0
  6
Continuous
 62
     9
370
     0
100
AcDbLine
 10
478.3534295983352
 20
249.0000013075004
 30
0.0
 11
478.3534295983352
 21
169.0000013075008
 31
0.0
  0
LINE
  5
5B28
330
A
100
AcDbEntity
  8
0
  6
Continuous
 62
     7
370
     0
100
AcDbLine
 10
478.3534295983352
 20
169.0000013075008
 30
0.0
 11
476.6534295983352
 21
169.0000013075008
 31
0.0
  0
LINE
  5
5B29
330
A
100
AcDbEntity
  8
0
  6
Continuous
 62
     7
370
     0
100
AcDbLine
 10
476.6534295983352
 20
169.0000013075008
 30
0.0
 11
476.6534295983352
 21
249.0000013075004
 31
0.0
  0
LINE
  5
5B2A
330
A
100
AcDbEntity
  8
0
  6
Continuous
 62
     7
370
     0
100
AcDbLine
 10
478.3534295983352
 20
249.0000013075004
 30
0.0
 11
476.6534295983352
 21
249.0000013075004
 31
0.0
  0
LINE
  5
5B2B
330
A
100
AcDbEntity
  8
0
  6
Continuous
 62
     7
370
     0
100
AcDbLine
 10
481.3534295983352
 20
249.0000013075004
 30
0.0
 11
481.3534295983352
 21
169.0000013075008
 31
0.0
  0
LINE
  5
5B2C
330
A
100
AcDbEntity
  8
0
  6
Continuous
 62
     7
370
     0
100
AcDbLine
 10
481.3534295983352
 20
169.0000013075008
 30
0.0
 11
478.3534295983352
 21
169.0000013075008
 31
0.0
  0
LINE
  5
5B2D
330
A
100
AcDbEntity
  8
0
  6
Continuous
 62
     7
370
     0
100
AcDbLine
 10
481.3534295983352
 20
249.0000013075004
 30
0.0
 11
478.3534295983352
 21
249.0000013075004
 31
0.0
  0
LINE
  5
5B2E
330
A
100
AcDbEntity
  8
0
  6
Continuous
 62
     7
370
     0
100
AcDbLine
 10
450.6534295983391
 20
249.0000013074797
 30
0.0
 11
450.6534295983391
 21
248.9958929548468
 31
0.0
  0
LINE
  5
5B2F
330
A
100
AcDbEntity
  8
0
  6
Continuous
 62
     7
370
     0
100
AcDbLine
 10
451.6534295983393
 20
249.0000013074797
 30
0.0
 11
450.6534295983391
 21
249.0000013074797
 31
0.0
  0
LINE
  5
5B30
330
A
100
AcDbEntity
  8
0
  6
Continuous
 62
     9
370
     0
100
AcDbLine
 10
451.6534295983393
 20
249.0000013074797
 30
0.0
 11
451.6534295983393
 21
248.9954355704906
 31
0.0
  0
LINE
  5
5B31
330
A
100
AcDbEntity
  8
0
  6
Continuous
 62
     7
370
     0
100
AcDbLine
 10
426.6534295983393
 20
249.0000013074797
 30
0.0
 11
426.6831580108331
 21
249.0000013074797
 31
0.0
  0
LINE
  5
5B32
330
A
100
AcDbEntity
  8
0
  6
Continuous
 62
     7
370
     0
100
AcDbLine
 10
441.6711533614477
 20
249.0000013074797
 30
0.0
 11
450.6534295983391
 21
249.0000013074797
 31
0.0
  0
LINE
  5
5B33
330
A
100
AcDbEntity
  8
0
  6
Continuous
 62
     7
370
     0
100
AcDbLine
 10
426.6534295983393
 20
249.0000013074797
 30
0.0
 11
426.6534295983393
 21
184.0034352974049
 31
0.0
  0
LINE
  5
5B34
330
A
100
AcDbEntity
  8
0
  6
Continuous
 62
     7
370
     0
100
AcDbLine
 10
426.6534295983393
 20
169.0068618113703
 30
0.0
 11
426.6534295983393
 21
169.0000013074797
 31
0.0
  0
LINE
  5
5B35
330
A
100
AcDbEntity
  8
0
  6
Continuous
 62
     7
370
     0
100
AcDbLine
 10
426.6534295983393
 20
169.0000013074797
 30
0.0
 11
441.6528579881729
 21
169.0000013074797
 31
0.0
  0
LINE
  5
5B36
330
A
100
AcDbEntity
  8
0
  6
Continuous
 62
     7
370
     0
100
AcDbLine
 10
465.6534295983393
 20
249.0000013074797
 30
0.0
 11
465.6534295983393
 21
169.0000013074797
 31
0.0
  0
LINE
  5
5B37
330
A
100
AcDbEntity
  8
0
  6
Continuous
 62
     7
370
     0
100
AcDbLine
 10
451.6534295983393
 20
249.0000013074797
 30
0.0
 11
465.6534295983393
 21
249.0000013074797
 31
0.0
  0
LINE
  5
5B38
330
A
100
AcDbEntity
  8
0
  6
Continuous
 62
     7
370
     0
100
AcDbLine
 10
456.6465704003508
 20
169.0000013074797
 30
0.0
 11
465.6534295983393
 21
169.0000013074797
 31
0.0
  0
LINE
  5
5B39
330
A
100
AcDbEntity
  8
0
  6
Continuous
 62
     7
370
     0
100
AcDbLine
 10
466.6534295983391
 20
249.0000013074797
 30
0.0
 11
466.6534295983391
 21
248.0000013074739
 31
0.0
  0
LINE
  5
5B3A
330
A
100
AcDbEntity
  8
0
  6
Continuous
 62
     7
370
     0
100
AcDbLine
 10
466.6534295983391
 20
248.0000013074739
 30
0.0
 11
466.6534295983391
 21
247.0000013074743
 31
0.0
  0
LINE
  5
5B3B
330
A
100
AcDbEntity
  8
0
  6
Continuous
 62
     7
370
     0
100
AcDbLine
 10
466.6534295983391
 20
171.0000013075062
 30
0.0
 11
466.6534295983391
 21
170.0000013075062
 31
0.0
  0
LINE
  5
5B3C
330
A
100
AcDbEntity
  8
0
  6
Continuous
 62
     7
370
     0
100
AcDbLine
 10
466.6534295983391
 20
170.0000013075062
 30
0.0
 11
466.6534295983391
 21
169.0000013074797
 31
0.0
  0
LINE
  5
5B3D
330
A
100
AcDbEntity
  8
0
  6
Continuous
 62
     7
370
     0
100
AcDbLine
 10
466.6534295983391
 20
249.0000013074797
 30
0.0
 11
465.6534295983393
 21
249.0000013074797
 31
0.0
  0
LINE
  5
5B3E
330
A
100
AcDbEntity
  8
0
  6
Continuous
 62
     7
370
     0
100
AcDbLine
 10
466.6534295983391
 20
169.0000013074797
 30
0.0
 11
465.6534295983393
 21
169.0000013074797
 31
0.0
  0
LINE
  5
5B3F
330
A
100
AcDbEntity
  8
0
  6
Continuous
 62
     7
370
     0
100
AcDbLine
 10
475.6534295983351
 20
248.0000013074903
 30
0.0
 11
476.6534295983352
 21
248.0000013074903
 31
0.0
  0
LINE
  5
5B40
330
A
100
AcDbEntity
  8
0
  6
Continuous
 62
     9
370
     0
100
AcDbLine
 10
476.6534295983352
 20
247.0000013074904
 30
0.0
 11
475.6534295983351
 21
247.0000013074904
 31
0.0
  0
LINE
  5
5B41
330
A
100
AcDbEntity
  8
0
  6
Continuous
 62
     7
370
     0
100
AcDbLine
 10
475.6534295983351
 20
247.0000013074904
 30
0.0
 11
475.6534295983351
 21
248.0000013074904
 31
0.0
  0
LINE
  5
5B42
330
A
100
AcDbEntity
  8
0
  6
Continuous
 62
     9
370
     0
100
AcDbLine
 10
475.6534295983351
 20
171.0000013075029
 30
0.0
 11
476.6534295983352
 21
171.0000013075029
 31
0.0
  0
LINE
  5
5B43
330
A
100
AcDbEntity
  8
0
  6
Continuous
 62
     7
370
     0
100
AcDbLine
 10
476.6534295983352
 20
170.000001307503
 30
0.0
 11
475.6534295983351
 21
170.000001307503
 31
0.0
  0
LINE
  5
5B44
330
A
100
AcDbEntity
  8
0
  6
Continuous
 62
     7
370
     0
100
AcDbLine
 10
475.6534295983351
 20
170.0000013075029
 30
0.0
 11
475.6534295983351
 21
171.0000013075029
 31
0.0
  0
LINE
  5
5B45
330
A
100
AcDbEntity
  8
0
  6
Continuous
 62
     7
370
     0
100
AcDbLine
 10
475.6534295983351
 20
171.0000013075029
 30
0.0
 11
475.6534295983351
 21
247.0000013074904
 31
0.0
  0
LINE
  5
5B46
330
A
100
AcDbEntity
  8
0
  6
Continuous
 62
     9
370
     0
100
AcDbLine
 10
467.6534295983393
 20
247.0000013074743
 30
0.0
 11
466.6534295983391
 21
247.0000013074743
 31
0.0
  0
LINE
  5
5B47
330
A
100
AcDbEntity
  8
0
  6
Continuous
 62
     7
370
     0
100
AcDbLine
 10
466.6534295983391
 20
247.0000013074743
 30
0.0
 11
466.6534295983391
 21
248.0000013074743
 31
0.0
  0
LINE
  5
5B48
330
A
100
AcDbEntity
  8
0
  6
Continuous
 62
     7
370
     0
100
AcDbLine
 10
466.6534295983391
 20
248.0000013074739
 30
0.0
 11
467.6534295983393
 21
248.0000013074739
 31
0.0
  0
LINE
  5
5B49
330
A
100
AcDbEntity
  8
0
  6
Continuous
 62
     7
370
     0
100
AcDbLine
 10
467.6534295983393
 20
248.0000013074743
 30
0.0
 11
467.6534295983393
 21
247.0000013074743
 31
0.0
  0
LINE
  5
5B4A
330
A
100
AcDbEntity
  8
0
  6
Continuous
 62
     7
370
     0
100
AcDbLine
 10
466.6534295983391
 20
247.0000013074743
 30
0.0
 11
466.6534295983391
 21
171.0000013075062
 31
0.0
  0
LINE
  5
5B4B
330
A
100
AcDbEntity
  8
0
  6
Continuous
 62
     7
370
     0
100
AcDbLine
 10
467.6534295983393
 20
247.0000013074743
 30
0.0
 11
467.6534295983393
 21
171.0000013075062
 31
0.0
  0
LINE
  5
5B4C
330
A
100
AcDbEntity
  8
0
  6
Continuous
 62
     7
370
     0
100
AcDbLine
 10
467.6534295983393
 20
170.0000013075066
 30
0.0
 11
466.6534295983391
 21
170.0000013075066
 31
0.0
  0
LINE
  5
5B4D
330
A
100
AcDbEntity
  8
0
  6
Continuous
 62
     7
370
     0
100
AcDbLine
 10
466.6534295983391
 20
170.0000013075062
 30
0.0
 11
466.6534295983391
 21
171.0000013075062
 31
0.0
  0
LINE
  5
5B4E
330
A
100
AcDbEntity
  8
0
  6
Continuous
 62
     9
370
     0
100
AcDbLine
 10
466.6534295983391
 20
171.0000013075062
 30
0.0
 11
467.6534295983393
 21
171.0000013075062
 31
0.0
  0
LINE
  5
5B4F
330
A
100
AcDbEntity
  8
0
  6
Continuous
 62
     7
370
     0
100
AcDbLine
 10
467.6534295983393
 20
171.0000013075062
 30
0.0
 11
467.6534295983393
 21
170.0000013075062
 31
0.0
  0
LINE
  5
5B50
330
A
100
AcDbEntity
  8
0
  6
Continuous
 62
     9
370
     0
100
AcDbLine
 10
469.1534295981694
 20
236.5000013074797
 30
0.0
 11
467.6534295983393
 21
236.5000013074797
 31
0.0
  0
LINE
  5
5B51
330
A
100
AcDbEntity
  8
0
  6
Continuous
 62
     9
370
     0
100
AcDbLine
 10
467.6534295983393
 20
231.5000013074798
 30
0.0
 11
469.1534295985024
 21
231.5000013074798
 31
0.0
  0
LINE
  5
5B52
330
A
100
AcDbEntity
  8
0
  6
Continuous
 62
     9
370
     0
100
AcDbLine
 10
469.1534295981693
 20
186.5000013074797
 30
0.0
 11
467.6534295983393
 21
186.5000013074797
 31
0.0
  0
LINE
  5
5B53
330
A
100
AcDbEntity
  8
0
  6
Continuous
 62
     9
370
     0
100
AcDbLine
 10
467.6534295983393
 20
181.5000013074797
 30
0.0
 11
469.1534295985026
 21
181.5000013074797
 31
0.0
  0
LINE
  5
5B54
330
A
100
AcDbEntity
  8
0
  6
Continuous
 62
     7
370
     0
100
AcDbLine
 10
474.1534295978693
 20
191.0000013074997
 30
0.0
 11
469.1534295978692
 21
191.0000013071664
 31
0.0
  0
LINE
  5
5B55
330
A
100
AcDbEntity
  8
0
  6
Continuous
 62
     7
370
     0
100
AcDbLine
 10
469.1534295988025
 20
177.0000013071665
 30
0.0
 11
474.1534295988024
 21
177.0000013074997
 31
0.0
  0
LINE
  5
5B56
330
A
100
AcDbEntity
  8
0
  6
Continuous
 62
     7
370
     0
100
AcDbLine
 10
474.1534295978696
 20
241.0000013074923
 30
0.0
 11
469.1534295978696
 21
241.0000013071591
 31
0.0
  0
LINE
  5
5B57
330
A
100
AcDbEntity
  8
0
  6
Continuous
 62
     7
370
     0
100
AcDbLine
 10
469.1534295988023
 20
227.0000013071591
 30
0.0
 11
474.1534295988024
 21
227.0000013074922
 31
0.0
  0
LINE
  5
5B58
330
A
100
AcDbEntity
  8
0
  6
Continuous
 62
     7
370
     0
100
AcDbLine
 10
469.1534295981354
 20
237.0000013074799
 30
0.0
 11
467.6534295983393
 21
237.0000013074799
 31
0.0
  0
LINE
  5
5B59
330
A
100
AcDbEntity
  8
0
  6
Continuous
 62
     7
370
     0
100
AcDbLine
 10
467.6534295983393
 20
231.0000013074796
 30
0.0
 11
469.1534295985353
 21
231.0000013074796
 31
0.0
  0
LINE
  5
5B5A
330
A
100
AcDbEntity
  8
0
  6
Continuous
 62
     7
370
     0
100
AcDbLine
 10
469.1534295981353
 20
187.0000013074798
 30
0.0
 11
467.6534295983393
 21
187.0000013074798
 31
0.0
  0
LINE
  5
5B5B
330
A
100
AcDbEntity
  8
0
  6
Continuous
 62
     7
370
     0
100
AcDbLine
 10
467.6534295983393
 20
181.0000013074795
 30
0.0
 11
469.1534295985353
 21
181.0000013074795
 31
0.0
  0
LINE
  5
5B5C
330
A
100
AcDbEntity
  8
0
  6
Continuous
 62
     7
370
     0
100
AcDbLine
 10
474.1534295986637
 20
179.1000013075007
 30
0.0
 11
475.6534295983351
 21
179.1000013075007
 31
0.0
  0
LINE
  5
5B5D
330
A
100
AcDbEntity
  8
0
  6
Continuous
 62
     7
370
     0
100
AcDbLine
 10
475.6534295983351
 20
188.9000013075007
 30
0.0
 11
474.1534295980108
 21
188.9000013075007
 31
0.0
  0
LINE
  5
5B5E
330
A
100
AcDbEntity
  8
0
  6
Continuous
 62
     7
370
     0
100
AcDbLine
 10
474.1534295986637
 20
229.1000013075005
 30
0.0
 11
475.6534295983351
 21
229.1000013075005
 31
0.0
  0
LINE
  5
5B5F
330
A
100
AcDbEntity
  8
0
  6
Continuous
 62
     7
370
     0
100
AcDbLine
 10
475.6534295983351
 20
238.9000013075005
 30
0.0
 11
474.1534295980108
 21
238.9000013075005
 31
0.0
  0
LINE
  5
5B60
330
A
100
AcDbEntity
  8
0
  6
Continuous
 62
     7
370
     0
100
AcDbLine
 10
263.8465704011975
 20
177.0000013074997
 30
0.0
 11
263.846570401664
 21
184.0000013074997
 31
0.0
  0
LINE
  5
5B61
330
A
100
AcDbEntity
  8
0
  6
Continuous
 62
     7
370
     0
100
AcDbLine
 10
268.8465704011975
 20
177.0000013071665
 30
0.0
 11
268.846570401664
 21
184.0000013071666
 31
0.0
  0
LINE
  5
5B62
330
A
100
AcDbEntity
  8
0
  6
Continuous
 62
     7
370
     0
100
AcDbLine
 10
268.846570401664
 20
184.0000013071666
 30
0.0
 11
268.8465704021305
 21
191.0000013071664
 31
0.0
  0
LINE
  5
5B63
330
A
100
AcDbEntity
  8
0
  6
Continuous
 62
     7
370
     0
100
AcDbLine
 10
263.846570401664
 20
184.0000013074997
 30
0.0
 11
263.8465704021304
 21
191.0000013074997
 31
0.0
  0
LINE
  5
5B64
330
A
100
AcDbEntity
  8
0
  6
Continuous
 62
     7
370
     0
100
AcDbLine
 10
263.8465704011977
 20
227.0000013074922
 30
0.0
 11
263.846570401664
 21
234.0000013074923
 31
0.0
  0
LINE
  5
5B65
330
A
100
AcDbEntity
  8
0
  6
Continuous
 62
     7
370
     0
100
AcDbLine
 10
268.8465704011977
 20
227.0000013071592
 30
0.0
 11
268.846570401664
 21
234.0000013071592
 31
0.0
  0
LINE
  5
5B66
330
A
100
AcDbEntity
  8
0
  6
Continuous
 62
     7
370
     0
100
AcDbLine
 10
268.846570401664
 20
234.0000013071592
 30
0.0
 11
268.8465704021303
 21
241.0000013071591
 31
0.0
  0
LINE
  5
5B67
330
A
100
AcDbEntity
  8
0
  6
Continuous
 62
     7
370
     0
100
AcDbLine
 10
263.846570401664
 20
234.0000013074923
 30
0.0
 11
263.8465704021303
 21
241.0000013074923
 31
0.0
  0
CIRCLE
  5
5B68
330
A
100
AcDbEntity
  8
0
  6
Continuous
 62
     9
370
     0
100
AcDbCircle
 10
296.3465704021139
 20
234.0000013074639
 30
0.0
 40
4.979829407782798
  0
CIRCLE
  5
5B69
330
A
100
AcDbEntity
  8
0
  6
Continuous
 62
     9
370
     0
100
AcDbCircle
 10
296.3465704020979
 20
234.0000013074475
 30
0.0
 40
5.412842109675074
  0
CIRCLE
  5
5B6A
330
A
100
AcDbEntity
  8
0
  6
Continuous
 62
     9
370
     0
100
AcDbCircle
 10
296.3465704016607
 20
184.0000013074879
 30
0.0
 40
4.979829407782853
  0
CIRCLE
  5
5B6B
330
A
100
AcDbEntity
  8
0
  6
Continuous
 62
     9
370
     0
100
AcDbCircle
 10
296.3465704016447
 20
184.0000013074715
 30
0.0
 40
5.412842109675019
  0
LINE
  5
5B6C
330
A
100
AcDbEntity
  8
0
  6
Continuous
 62
     7
370
     0
100
AcDbLine
 10
311.3534295983334
 20
169.0068649486557
 30
0.0
 11
311.3465704016606
 21
169.0068618113665
 31
0.0
  0
LINE
  5
5B6D
330
A
100
AcDbEntity
  8
0
  6
Continuous
 62
     7
370
     0
100
AcDbLine
 10
296.3471420323081
 20
169.0000013074797
 30
0.0
 11
281.3534327363397
 21
168.9931434194077
 31
0.0
  0
LINE
  5
5B6E
330
A
100
AcDbEntity
  8
0
  6
Continuous
 62
     7
370
     0
100
AcDbLine
 10
281.353429599649
 20
169.0000013074797
 30
0.0
 11
281.3534327363397
 21
168.9931434194077
 31
0.0
  0
LINE
  5
5B6F
330
A
100
AcDbEntity
  8
0
  6
Continuous
 62
     7
370
     0
100
AcDbLine
 10
311.3534295983334
 20
169.0068649486557
 30
0.0
 11
311.3465704016606
 21
184.0034352973574
 31
0.0
  0
LINE
  5
5B70
330
A
100
AcDbEntity
  8
0
  6
Continuous
 62
     7
370
     0
100
AcDbLine
 10
311.3168419891667
 20
249.0000013074797
 30
0.0
 11
311.316838853672
 21
249.0068565806391
 31
0.0
  0
LINE
  5
5B71
330
A
100
AcDbEntity
  8
0
  6
Continuous
 62
     7
370
     0
100
AcDbLine
 10
311.316838853672
 20
249.0068565806391
 30
0.0
 11
296.3288466590334
 21
249.0000013074797
 31
0.0
  0
LINE
  5
5B72
330
A
100
AcDbEntity
  8
0
  6
Continuous
 62
     9
370
     0
100
AcDbLine
 10
278.1965704020088
 20
178.5871591978091
 30
0.0
 11
278.1965704016611
 21
184.0000013074843
 31
0.0
  0
LINE
  5
5B73
330
A
100
AcDbEntity
  8
0
  6
Continuous
 62
     9
370
     0
100
AcDbLine
 10
278.1965704016611
 20
184.0000013074843
 30
0.0
 11
278.1965704013135
 21
189.4128434171593
 31
0.0
  0
LINE
  5
5B74
330
A
100
AcDbEntity
  8
0
  6
Continuous
 62
     7
370
     0
100
AcDbLine
 10
278.4465704013413
 20
188.9798307152832
 30
0.0
 11
278.4465704016612
 21
184.0000013075003
 31
0.0
  0
LINE
  5
5B75
330
A
100
AcDbEntity
  8
0
  6
Continuous
 62
     7
370
     0
100
AcDbLine
 10
278.4465704016612
 20
184.0000013075003
 30
0.0
 11
278.446570401981
 21
179.0201718997175
 31
0.0
  0
LINE
  5
5B76
330
A
100
AcDbEntity
  8
0
  6
Continuous
 62
     9
370
     0
100
AcDbLine
 10
278.1965704020076
 20
228.5871591977886
 30
0.0
 11
278.1965704016605
 21
234.0000013074638
 31
0.0
  0
LINE
  5
5B77
330
A
100
AcDbEntity
  8
0
  6
Continuous
 62
     9
370
     0
100
AcDbLine
 10
278.1965704016605
 20
234.0000013074638
 30
0.0
 11
278.1965704013132
 21
239.4128434171387
 31
0.0
  0
LINE
  5
5B78
330
A
100
AcDbEntity
  8
0
  6
Continuous
 62
     7
370
     0
100
AcDbLine
 10
278.446570401341
 20
238.9798307152626
 30
0.0
 11
278.4465704016604
 21
234.0000013074797
 31
0.0
  0
LINE
  5
5B79
330
A
100
AcDbEntity
  8
0
  6
Continuous
 62
     7
370
     0
100
AcDbLine
 10
278.4465704016604
 20
234.0000013074797
 30
0.0
 11
278.4465704019798
 21
229.0201718996969
 31
0.0
  0
LINE
  5
5B7A
330
A
100
AcDbEntity
  8
0
  6
Continuous
 62
     9
370
     0
100
AcDbLine
 10
259.6465704016647
 20
249.0000013075004
 30
0.0
 11
259.6465704016647
 21
169.0000013075008
 31
0.0
  0
LINE
  5
5B7B
330
A
100
AcDbEntity
  8
0
  6
Continuous
 62
     7
370
     0
100
AcDbLine
 10
261.3465704016647
 20
169.0000013075008
 30
0.0
 11
259.6465704016647
 21
169.0000013075008
 31
0.0
  0
LINE
  5
5B7C
330
A
100
AcDbEntity
  8
0
  6
Continuous
 62
     7
370
     0
100
AcDbLine
 10
261.3465704016647
 20
249.0000013075004
 30
0.0
 11
259.6465704016647
 21
249.0000013075004
 31
0.0
  0
LINE
  5
5B7D
330
A
100
AcDbEntity
  8
0
  6
Continuous
 62
     7
370
     0
100
AcDbLine
 10
261.3465704016647
 20
249.0000013075004
 30
0.0
 11
261.3465704016647
 21
169.0000013075008
 31
0.0
  0
LINE
  5
5B7E
330
A
100
AcDbEntity
  8
0
  6
Continuous
 62
     7
370
     0
100
AcDbLine
 10
256.6465704016648
 20
249.0000013075004
 30
0.0
 11
256.6465704016648
 21
169.0000013075008
 31
0.0
  0
LINE
  5
5B7F
330
A
100
AcDbEntity
  8
0
  6
Continuous
 62
     7
370
     0
100
AcDbLine
 10
259.6465704016647
 20
169.0000013075008
 30
0.0
 11
256.6465704016648
 21
169.0000013075008
 31
0.0
  0
LINE
  5
5B80
330
A
100
AcDbEntity
  8
0
  6
Continuous
 62
     7
370
     0
100
AcDbLine
 10
259.6465704016647
 20
249.0000013075004
 30
0.0
 11
256.6465704016648
 21
249.0000013075004
 31
0.0
  0
LINE
  5
5B81
330
A
100
AcDbEntity
  8
0
  6
Continuous
 62
     9
370
     0
100
AcDbLine
 10
273.6474314453037
 20
249.0000013074797
 30
0.0
 11
273.6474314453037
 21
169.0000013074797
 31
0.0
  0
LINE
  5
5B82
330
A
100
AcDbEntity
  8
0
  6
Continuous
 62
     7
370
     0
100
AcDbLine
 10
271.3465704016607
 20
169.0000013074797
 30
0.0
 11
273.6474314453037
 21
169.0000013074797
 31
0.0
  0
LINE
  5
5B83
330
A
100
AcDbEntity
  8
0
  6
Continuous
 62
     7
370
     0
100
AcDbLine
 10
271.3465704016607
 20
249.0000013074797
 30
0.0
 11
271.3465704016607
 21
169.0000013074797
 31
0.0
  0
LINE
  5
5B84
330
A
100
AcDbEntity
  8
0
  6
Continuous
 62
     7
370
     0
100
AcDbLine
 10
271.3465704016607
 20
249.0000013074797
 30
0.0
 11
273.6474314453037
 21
249.0000013074797
 31
0.0
  0
LINE
  5
5B85
330
A
100
AcDbEntity
  8
0
  6
Continuous
 62
     9
370
     0
100
AcDbLine
 10
274.5878359381535
 20
249.0000013074797
 30
0.0
 11
274.5878359381535
 21
169.0000013074797
 31
0.0
  0
LINE
  5
5B86
330
A
100
AcDbEntity
  8
0
  6
Continuous
 62
     7
370
     0
100
AcDbLine
 10
273.6474314453037
 20
169.0000013074797
 30
0.0
 11
274.5878359381535
 21
169.0000013074797
 31
0.0
  0
LINE
  5
5B87
330
A
100
AcDbEntity
  8
0
  6
Continuous
 62
     7
370
     0
100
AcDbLine
 10
273.6474314453037
 20
249.0000013074797
 30
0.0
 11
274.5878359381535
 21
249.0000013074797
 31
0.0
  0
LINE
  5
5B88
330
A
100
AcDbEntity
  8
0
  6
Continuous
 62
     9
370
     0
100
AcDbLine
 10
280.5472011927859
 20
249.0000013074797
 30
0.0
 11
280.5472011927859
 21
169.0000013074797
 31
0.0
  0
LINE
  5
5BA1
330
A
100
AcDbEntity
  8
0
  6
Continuous
 62
     7
370
     0
100
AcDbLine
 10
274.5878359381535
 20
169.0000013074797
 30
0.0
 11
280.5472011927858
 21
169.0000013074797
 31
0.0
  0
LINE
  5
5BA2
330
A
100
AcDbEntity
  8
0
  6
Continuous
 62
     7
370
     0
100
AcDbLine
 10
274.5878359381535
 20
249.0000013074797
 30
0.0
 11
280.5472011927858
 21
249.0000013074797
 31
0.0
  0
LINE
  5
5BBB
330
A
100
AcDbEntity
  8
0
  6
Continuous
 62
     9
370
     0
100
AcDbLine
 10
286.8625947964271
 20
249.0000013074797
 30
0.0
 11
286.8625947964271
 21
169.0000013074797
 31
0.0
  0
LINE
  5
5BBC
330
A
100
AcDbEntity
  8
0
  6
Continuous
 62
     7
370
     0
100
AcDbLine
 10
286.8625947964271
 20
169.0000013074797
 30
0.0
 11
280.5472011927859
 21
169.0000013074797
 31
0.0
  0
LINE
  5
5BBD
330
A
100
AcDbEntity
  8
0
  6
Continuous
 62
     7
370
     0
100
AcDbLine
 10
286.8625947964271
 20
249.0000013074797
 30
0.0
 11
280.5472011927859
 21
249.0000013074797
 31
0.0
  0
LINE
  5
5BBE
330
A
100
AcDbEntity
  8
0
  6
Continuous
 62
     9
370
     0
100
AcDbLine
 10
310.6825692049071
 20
249.0000013074797
 30
0.0
 11
310.6825692049071
 21
169.0000013074797
 31
0.0
  0
CIRCLE
  5
5BBF
330
A
100
AcDbEntity
  8
0
  6
Continuous
 62
     7
370
     0
100
AcDbCircle
 10
296.3464156138208
 20
233.9999816003011
 30
0.0
 40
6.199980294753659
  0
CIRCLE
  5
5BC0
330
A
100
AcDbEntity
  8
0
  6
Continuous
 62
     7
370
     0
100
AcDbCircle
 10
296.3455294206917
 20
183.9999698524235
 30
0.0
 40
6.199968632334632
  0
LINE
  5
5BC1
330
A
100
AcDbEntity
  8
0
  6
Continuous
 62
     7
370
     0
100
AcDbLine
 10
286.8625947964271
 20
169.0000013074797
 30
0.0
 11
310.6825692049071
 21
169.0000013074797
 31
0.0
  0
LINE
  5
5BC2
330
A
100
AcDbEntity
  8
0
  6
Continuous
 62
     7
370
     0
100
AcDbLine
 10
286.8625947964271
 20
249.0000013074797
 30
0.0
 11
310.6825692049071
 21
249.0000013074797
 31
0.0
  0
LINE
  5
5BC3
330
A
100
AcDbEntity
  8
0
  6
Continuous
 62
     7
370
     0
100
AcDbLine
 10
311.3465704016606
 20
249.0000013074797
 30
0.0
 11
311.3465704016606
 21
169.0000013074797
 31
0.0
  0
LINE
  5
5BC4
330
A
100
AcDbEntity
  8
0
  6
Continuous
 62
     7
370
     0
100
AcDbLine
 10
310.6825692049071
 20
169.0000013074797
 30
0.0
 11
311.3465704016606
 21
169.0000013074797
 31
0.0
  0
LINE
  5
5BC5
330
A
100
AcDbEntity
  8
0
  6
Continuous
 62
     7
370
     0
100
AcDbLine
 10
310.6825692049071
 20
249.0000013074797
 30
0.0
 11
311.3465704016606
 21
249.0000013074797
 31
0.0
  0
LINE
  5
5BC6
330
A
100
AcDbEntity
  8
0
  6
Continuous
 62
     9
370
     0
100
AcDbLine
 10
262.3465704016646
 20
247.0000013074904
 30
0.0
 11
261.3465704016646
 21
247.0000013074904
 31
0.0
  0
LINE
  5
5BC7
330
A
100
AcDbEntity
  8
0
  6
Continuous
 62
     7
370
     0
100
AcDbLine
 10
261.3465704016646
 20
248.0000013074903
 30
0.0
 11
262.3465704016646
 21
248.0000013074903
 31
0.0
  0
LINE
  5
5BC8
330
A
100
AcDbEntity
  8
0
  6
Continuous
 62
     7
370
     0
100
AcDbLine
 10
262.3465704016646
 20
248.0000013074904
 30
0.0
 11
262.3465704016646
 21
247.0000013074904
 31
0.0
  0
LINE
  5
5BC9
330
A
100
AcDbEntity
  8
0
  6
Continuous
 62
     7
370
     0
100
AcDbLine
 10
262.3465704016646
 20
170.000001307503
 30
0.0
 11
261.3465704016646
 21
170.000001307503
 31
0.0
  0
LINE
  5
5BCA
330
A
100
AcDbEntity
  8
0
  6
Continuous
 62
     9
370
     0
100
AcDbLine
 10
261.3465704016647
 20
171.0000013075028
 30
0.0
 11
262.3465704016647
 21
171.0000013075028
 31
0.0
  0
LINE
  5
5BCB
330
A
100
AcDbEntity
  8
0
  6
Continuous
 62
     7
370
     0
100
AcDbLine
 10
262.3465704016646
 20
171.0000013075028
 30
0.0
 11
262.3465704016646
 21
170.0000013075029
 31
0.0
  0
LINE
  5
5BCC
330
A
100
AcDbEntity
  8
0
  6
Continuous
 62
     7
370
     0
100
AcDbLine
 10
262.3465704016646
 20
247.0000013074904
 30
0.0
 11
262.3465704016647
 21
171.0000013075028
 31
0.0
  0
LINE
  5
5BCD
330
A
100
AcDbEntity
  8
0
  6
Continuous
 62
     9
370
     0
100
AcDbLine
 10
270.3465704016606
 20
171.0000013075062
 30
0.0
 11
271.3465704016607
 21
171.0000013075062
 31
0.0
  0
LINE
  5
5BCE
330
A
100
AcDbEntity
  8
0
  6
Continuous
 62
     7
370
     0
100
AcDbLine
 10
271.3465704016607
 20
170.0000013075066
 30
0.0
 11
270.3465704016606
 21
170.0000013075066
 31
0.0
  0
LINE
  5
5BCF
330
A
100
AcDbEntity
  8
0
  6
Continuous
 62
     7
370
     0
100
AcDbLine
 10
270.3465704016606
 20
170.0000013075062
 30
0.0
 11
270.3465704016606
 21
171.0000013075062
 31
0.0
  0
LINE
  5
5BD0
330
A
100
AcDbEntity
  8
0
  6
Continuous
 62
     7
370
     0
100
AcDbLine
 10
270.3465704016606
 20
171.0000013075062
 30
0.0
 11
270.3465704016606
 21
247.0000013074743
 31
0.0
  0
LINE
  5
5BD1
330
A
100
AcDbEntity
  8
0
  6
Continuous
 62
     7
370
     0
100
AcDbLine
 10
270.3465704016606
 20
248.0000013074739
 30
0.0
 11
271.3465704016607
 21
248.0000013074739
 31
0.0
  0
LINE
  5
5BD2
330
A
100
AcDbEntity
  8
0
  6
Continuous
 62
     9
370
     0
100
AcDbLine
 10
271.3465704016607
 20
247.0000013074743
 30
0.0
 11
270.3465704016606
 21
247.0000013074743
 31
0.0
  0
LINE
  5
5BD3
330
A
100
AcDbEntity
  8
0
  6
Continuous
 62
     7
370
     0
100
AcDbLine
 10
270.3465704016606
 20
247.0000013074743
 30
0.0
 11
270.3465704016606
 21
248.0000013074743
 31
0.0
  0
LINE
  5
5BD4
330
A
100
AcDbEntity
  8
0
  6
Continuous
 62
     9
370
     0
100
AcDbLine
 10
268.8465704014975
 20
231.5000013074798
 30
0.0
 11
270.3465704016606
 21
231.5000013074798
 31
0.0
  0
LINE
  5
5BD5
330
A
100
AcDbEntity
  8
0
  6
Continuous
 62
     9
370
     0
100
AcDbLine
 10
270.3465704016606
 20
236.5000013074797
 30
0.0
 11
268.8465704018305
 21
236.5000013074797
 31
0.0
  0
LINE
  5
5BD6
330
A
100
AcDbEntity
  8
0
  6
Continuous
 62
     9
370
     0
100
AcDbLine
 10
268.8465704014975
 20
181.5000013074797
 30
0.0
 11
270.3465704016606
 21
181.5000013074797
 31
0.0
  0
LINE
  5
5BD7
330
A
100
AcDbEntity
  8
0
  6
Continuous
 62
     9
370
     0
100
AcDbLine
 10
270.3465704016606
 20
186.5000013074797
 30
0.0
 11
268.8465704018306
 21
186.5000013074797
 31
0.0
  0
LINE
  5
5BD8
330
A
100
AcDbEntity
  8
0
  6
Continuous
 62
     7
370
     0
100
AcDbLine
 10
263.8465704011975
 20
177.0000013074997
 30
0.0
 11
268.8465704011975
 21
177.0000013071665
 31
0.0
  0
LINE
  5
5BD9
330
A
100
AcDbEntity
  8
0
  6
Continuous
 62
     7
370
     0
100
AcDbLine
 10
268.8465704021305
 20
191.0000013071664
 30
0.0
 11
263.8465704021304
 21
191.0000013074997
 31
0.0
  0
LINE
  5
5BDA
330
A
100
AcDbEntity
  8
0
  6
Continuous
 62
     7
370
     0
100
AcDbLine
 10
263.8465704011977
 20
227.0000013074922
 30
0.0
 11
268.8465704011977
 21
227.0000013071591
 31
0.0
  0
LINE
  5
5BDB
330
A
100
AcDbEntity
  8
0
  6
Continuous
 62
     7
370
     0
100
AcDbLine
 10
268.8465704021303
 20
241.0000013071591
 30
0.0
 11
263.8465704021303
 21
241.0000013074923
 31
0.0
  0
LINE
  5
5BDC
330
A
100
AcDbEntity
  8
0
  6
Continuous
 62
     7
370
     0
100
AcDbLine
 10
277.9912033265443
 20
178.4685904614895
 30
0.0
 11
278.1965704020088
 21
178.5871591978091
 31
0.0
  0
LINE
  5
5BDD
330
A
100
AcDbEntity
  8
0
  6
Continuous
 62
     7
370
     0
100
AcDbLine
 10
278.1965704013135
 20
189.4128434171593
 30
0.0
 11
277.9915511616953
 21
189.5312113303243
 31
0.0
  0
ARC
  5
5BDE
330
A
100
AcDbEntity
  8
0
  6
Continuous
 62
     7
370
     0
100
AcDbCircle
 10
277.9465704013412
 20
188.979830715251
 30
0.0
 40
0.5000000000000006
100
AcDbArc
 50
0.0000000036799018
 51
60.00000000367995
  0
ARC
  5
5BDF
330
A
100
AcDbEntity
  8
0
  6
Continuous
 62
     7
370
     0
100
AcDbCircle
 10
277.946570401981
 20
179.0201718996853
 30
0.0
 40
0.500000000000028
100
AcDbArc
 50
300.0000000036818
 51
0.0000000036818619
  0
LINE
  5
5BE0
330
A
100
AcDbEntity
  8
0
  6
Continuous
 62
     7
370
     0
100
AcDbLine
 10
277.9912033265516
 20
228.468590461474
 30
0.0
 11
278.1965704020076
 21
228.5871591977886
 31
0.0
  0
LINE
  5
5BE1
330
A
100
AcDbEntity
  8
0
  6
Continuous
 62
     7
370
     0
100
AcDbLine
 10
278.1965704013132
 20
239.4128434171387
 30
0.0
 11
277.9915511616879
 21
239.531211330308
 31
0.0
  0
ARC
  5
5BE2
330
A
100
AcDbEntity
  8
0
  6
Continuous
 62
     7
370
     0
100
AcDbCircle
 10
277.946570401341
 20
238.9798307152305
 30
0.0
 40
0.5000000000000006
100
AcDbArc
 50
0.0000000036767212
 51
60.00000000367721
  0
ARC
  5
5BE3
330
A
100
AcDbEntity
  8
0
  6
Continuous
 62
     7
370
     0
100
AcDbCircle
 10
277.9465704019798
 20
229.0201718996648
 30
0.0
 40
0.5000000000000001
100
AcDbArc
 50
300.0000000036763
 51
0.000000003676405
  0
LINE
  5
5BE4
330
A
100
AcDbEntity
  8
0
  6
Continuous
 62
     7
370
     0
100
AcDbLine
 10
268.8465704014646
 20
231.0000013074796
 30
0.0
 11
270.3465704016606
 21
231.0000013074796
 31
0.0
  0
LINE
  5
5BE5
330
A
100
AcDbEntity
  8
0
  6
Continuous
 62
     7
370
     0
100
AcDbLine
 10
270.3465704016606
 20
237.0000013074799
 30
0.0
 11
268.8465704018644
 21
237.0000013074799
 31
0.0
  0
LINE
  5
5BE6
330
A
100
AcDbEntity
  8
0
  6
Continuous
 62
     7
370
     0
100
AcDbLine
 10
268.8465704014646
 20
181.0000013074795
 30
0.0
 11
270.3465704016606
 21
181.0000013074795
 31
0.0
  0
LINE
  5
5BE7
330
A
100
AcDbEntity
  8
0
  6
Continuous
 62
     7
370
     0
100
AcDbLine
 10
270.3465704016606
 20
187.0000013074798
 30
0.0
 11
268.8465704018644
 21
187.0000013074798
 31
0.0
  0
LINE
  5
5BE8
330
A
100
AcDbEntity
  8
0
  6
Continuous
 62
     7
370
     0
100
AcDbLine
 10
263.8465704019891
 20
238.9000013075005
 30
0.0
 11
262.3465704016646
 21
238.9000013075005
 31
0.0
  0
LINE
  5
5BE9
330
A
100
AcDbEntity
  8
0
  6
Continuous
 62
     7
370
     0
100
AcDbLine
 10
262.3465704016646
 20
229.1000013075005
 30
0.0
 11
263.8465704013362
 21
229.1000013075005
 31
0.0
  0
LINE
  5
5BEA
330
A
100
AcDbEntity
  8
0
  6
Continuous
 62
     7
370
     0
100
AcDbLine
 10
263.8465704019891
 20
188.9000013075007
 30
0.0
 11
262.3465704016647
 21
188.9000013075007
 31
0.0
  0
LINE
  5
5BEB
330
A
100
AcDbEntity
  8
0
  6
Continuous
 62
     7
370
     0
100
AcDbLine
 10
262.3465704016647
 20
179.1000013075007
 30
0.0
 11
263.8465704013361
 21
179.1000013075007
 31
0.0
  0
LINE
  5
5BEC
330
A
100
AcDbEntity
  8
0
  6
Continuous
 62
     7
370
     0
100
AcDbLine
 10
379.3500000000638
 20
326.653429598336
 30
0.0
 11
393.3500000000638
 21
326.653429598336
 31
0.0
  0
LINE
  5
5BED
330
A
100
AcDbEntity
  8
0
  6
Continuous
 62
     7
370
     0
100
AcDbLine
 10
379.3500000000638
 20
321.653429598336
 30
0.0
 11
393.3500000000638
 21
321.653429598336
 31
0.0
  0
LINE
  5
5BEE
330
A
100
AcDbEntity
  8
0
  6
Continuous
 62
     7
370
     0
100
AcDbLine
 10
348.8500000000696
 20
301.1762988127009
 30
0.0
 11
348.8500000000696
 21
301.1534295972875
 31
0.0
  0
LINE
  5
5BEF
330
A
100
AcDbEntity
  8
0
  6
Continuous
 62
     7
370
     0
100
AcDbLine
 10
348.8500000000696
 20
301.1534295972875
 30
0.0
 11
348.8500000000696
 21
297.1534295984985
 31
0.0
  0
LINE
  5
5BF0
330
A
100
AcDbEntity
  8
0
  6
Continuous
 62
     7
370
     0
100
AcDbLine
 10
343.8500000000695
 20
301.1762988127008
 30
0.0
 11
343.8500000000695
 21
301.1534295972873
 31
0.0
  0
LINE
  5
5BF1
330
A
100
AcDbEntity
  8
0
  6
Continuous
 62
     7
370
     0
100
AcDbLine
 10
348.8500000000696
 20
291.1534295984985
 30
0.0
 11
348.8500000000696
 21
287.1762988127009
 31
0.0
  0
LINE
  5
5BF2
330
A
100
AcDbEntity
  8
0
  6
Continuous
 62
     7
370
     0
100
AcDbLine
 10
348.8499999999699
 20
301.1534295972873
 30
0.0
 11
348.8499999999699
 21
294.1534295972873
 31
0.0
  0
LINE
  5
5BF3
330
A
100
AcDbEntity
  8
0
  6
Continuous
 62
     7
370
     0
100
AcDbLine
 10
343.8499999999698
 20
301.1534295972873
 30
0.0
 11
343.8499999999698
 21
294.1534295972873
 31
0.0
  0
LINE
  5
5BF4
330
A
100
AcDbEntity
  8
0
  6
Continuous
 62
     7
370
     0
100
AcDbLine
 10
348.8499999999699
 20
294.1534295972875
 30
0.0
 11
348.8499999999699
 21
287.1534295972875
 31
0.0
  0
LINE
  5
5BF5
330
A
100
AcDbEntity
  8
0
  6
Continuous
 62
     7
370
     0
100
AcDbLine
 10
343.8499999999698
 20
294.1534295972873
 30
0.0
 11
343.84999999997
 21
287.1534295972874
 31
0.0
  0
LINE
  5
5BF6
330
A
100
AcDbEntity
  8
0
  6
Continuous
 62
     9
370
     0
100
AcDbLine
 10
358.1999999994326
 20
288.7405874886802
 30
0.0
 11
358.199999999675
 21
292.5414560778731
 31
0.0
  0
LINE
  5
5BF7
330
A
100
AcDbEntity
  8
0
  6
Continuous
 62
     7
370
     0
100
AcDbLine
 10
358.449999999752
 20
293.7490508225089
 30
0.0
 11
358.4499999994602
 21
289.1736001905564
 31
0.0
  0
LINE
  5
5BF8
330
A
100
AcDbEntity
  8
0
  6
Continuous
 62
     9
370
     0
100
AcDbLine
 10
341.3499999999439
 20
308.1474821368719
 30
0.0
 11
342.3499999999439
 21
308.1474821368719
 31
0.0
  0
LINE
  5
5BF9
330
A
100
AcDbEntity
  8
0
  6
Continuous
 62
     7
370
     0
100
AcDbLine
 10
342.3499999999439
 20
308.1474821368723
 30
0.0
 11
342.3499999999439
 21
307.1470248571642
 31
0.0
  0
LINE
  5
5BFA
330
A
100
AcDbEntity
  8
0
  6
Continuous
 62
     9
370
     0
100
AcDbLine
 10
342.3499999999419
 20
307.1470248571642
 30
0.0
 11
341.3499999999419
 21
307.1470248571642
 31
0.0
  0
LINE
  5
5BFB
330
A
100
AcDbEntity
  8
0
  6
Continuous
 62
     9
370
     0
100
AcDbLine
 10
341.349999999942
 20
281.1470275767791
 30
0.0
 11
342.3499999999422
 21
281.1470275767791
 31
0.0
  0
LINE
  5
5BFC
330
A
100
AcDbEntity
  8
0
  6
Continuous
 62
     7
370
     0
100
AcDbLine
 10
342.3499999999422
 20
281.1470275767791
 30
0.0
 11
342.3499999999419
 21
307.1470248571642
 31
0.0
  0
LINE
  5
5BFD
330
A
100
AcDbEntity
  8
0
  6
Continuous
 62
     7
370
     0
100
AcDbLine
 10
342.349999999944
 20
280.1474850656879
 30
0.0
 11
341.349999999944
 21
280.1474850656879
 31
0.0
  0
LINE
  5
5BFE
330
A
100
AcDbEntity
  8
0
  6
Continuous
 62
     7
370
     0
100
AcDbLine
 10
342.349999999944
 20
281.1470275767791
 30
0.0
 11
342.349999999944
 21
280.1474849610874
 31
0.0
  0
LINE
  5
5BFF
330
A
100
AcDbEntity
  8
0
  6
Continuous
 62
     7
370
     0
100
AcDbLine
 10
342.3500000000954
 20
308.1822433443003
 30
0.0
 11
341.3500000000953
 21
308.1822433443003
 31
0.0
  0
LINE
  5
5C00
330
A
100
AcDbEntity
  8
0
  6
Continuous
 62
     7
370
     0
100
AcDbLine
 10
342.3499999999439
 20
308.1474821368719
 30
0.0
 11
342.3500000000954
 21
308.1822433443003
 31
0.0
  0
LINE
  5
5C01
330
A
100
AcDbEntity
  8
0
  6
Continuous
 62
     9
370
     0
100
AcDbLine
 10
351.3500000000637
 20
307.1470248593208
 30
0.0
 11
350.3500000000637
 21
307.1470248593208
 31
0.0
  0
LINE
  5
5C02
330
A
100
AcDbEntity
  8
0
  6
Continuous
 62
     9
370
     0
100
AcDbLine
 10
350.3500000000637
 20
308.1474821389788
 30
0.0
 11
351.3500000000637
 21
308.1474821389788
 31
0.0
  0
LINE
  5
5C03
330
A
100
AcDbEntity
  8
0
  6
Continuous
 62
     7
370
     0
100
AcDbLine
 10
350.3500000000637
 20
307.1470248593208
 30
0.0
 11
350.3500000000637
 21
308.1474821389788
 31
0.0
  0
LINE
  5
5C04
330
A
100
AcDbEntity
  8
0
  6
Continuous
 62
     7
370
     0
100
AcDbLine
 10
351.3500000000637
 20
308.1474821389788
 30
0.0
 11
351.3500000000637
 21
307.1470248593208
 31
0.0
  0
LINE
  5
5C05
330
A
100
AcDbEntity
  8
0
  6
Continuous
 62
     9
370
     0
100
AcDbLine
 10
350.350000000064
 20
281.1470275789249
 30
0.0
 11
351.350000000064
 21
281.1470275789249
 31
0.0
  0
LINE
  5
5C06
330
A
100
AcDbEntity
  8
0
  6
Continuous
 62
     7
370
     0
100
AcDbLine
 10
350.3500000000637
 20
307.1470248593208
 30
0.0
 11
350.350000000064
 21
281.1470275789249
 31
0.0
  0
LINE
  5
5C07
330
A
100
AcDbEntity
  8
0
  6
Continuous
 62
     7
370
     0
100
AcDbLine
 10
351.3500000000637
 20
307.1470248593208
 30
0.0
 11
351.3500000000638
 21
303.1534295983393
 31
0.0
  0
LINE
  5
5C08
330
A
100
AcDbEntity
  8
0
  6
Continuous
 62
     7
370
     0
100
AcDbLine
 10
351.3500000000641
 20
280.1474850677833
 30
0.0
 11
350.3500000000641
 21
280.1474850677832
 31
0.0
  0
LINE
  5
5C09
330
A
100
AcDbEntity
  8
0
  6
Continuous
 62
     7
370
     0
100
AcDbLine
 10
350.3500000000641
 20
280.1474849631831
 30
0.0
 11
350.350000000064
 21
281.1470275789249
 31
0.0
  0
LINE
  5
5C0A
330
A
100
AcDbEntity
  8
0
  6
Continuous
 62
     7
370
     0
100
AcDbLine
 10
351.3500000000637
 20
308.1822433426037
 30
0.0
 11
350.3500000000637
 21
308.1822433426037
 31
0.0
  0
LINE
  5
5C0B
330
A
100
AcDbEntity
  8
0
  6
Continuous
 62
     7
370
     0
100
AcDbLine
 10
350.3500000000637
 20
308.1822433426037
 30
0.0
 11
350.3500000000637
 21
308.1474821389788
 31
0.0
  0
LINE
  5
5C0C
330
A
100
AcDbEntity
  8
0
  6
Continuous
 62
     7
370
     0
100
AcDbLine
 10
351.3500000000637
 20
308.1822433426037
 30
0.0
 11
351.3500000000637
 21
308.1474821389788
 31
0.0
  0
LINE
  5
5C0D
330
A
100
AcDbEntity
  8
0
  6
Continuous
 62
     7
370
     0
100
AcDbLine
 10
339.6499999999456
 20
309.1465672636602
 30
0.0
 11
341.3499999999456
 21
309.1465672636602
 31
0.0
  0
LINE
  5
5C0E
330
A
100
AcDbEntity
  8
0
  6
Continuous
 62
     9
370
     0
100
AcDbLine
 10
339.6499999999456
 20
309.1465672636602
 30
0.0
 11
339.6500000001051
 21
309.1831580083217
 31
0.0
  0
LINE
  5
5C0F
330
A
100
AcDbEntity
  8
0
  6
Continuous
 62
     7
370
     0
100
AcDbLine
 10
339.6500000001051
 20
309.1831580083217
 30
0.0
 11
341.3500000001051
 21
309.1831580083217
 31
0.0
  0
LINE
  5
5C10
330
A
100
AcDbEntity
  8
0
  6
Continuous
 62
     7
370
     0
100
AcDbLine
 10
341.3500000001051
 20
309.1831580083217
 30
0.0
 11
341.3499999999456
 21
309.1465672636602
 31
0.0
  0
ELLIPSE
  5
5C11
330
A
100
AcDbEntity
  8
0
  6
Continuous
 62
     7
370
     0
100
AcDbEllipse
 10
339.6499999999458
 20
282.1465700878659
 30
0.0
 11
-3.000000000000001
 21
0.0000000130786493
 31
0.0
210
0.0
220
0.0
230
1.0
 40
0.9999998953997918
 41
0.0000000043595496
 42
1.570796331154445
  0
LINE
  5
5C12
330
A
100
AcDbEntity
  8
0
  6
Continuous
 62
     7
370
     0
100
AcDbLine
 10
336.6499999999458
 20
282.1465700878659
 30
0.0
 11
336.6499999999456
 21
306.1465675774608
 31
0.0
  0
ELLIPSE
  5
5C13
330
A
100
AcDbEntity
  8
0
  6
Continuous
 62
     7
370
     0
100
AcDbEllipse
 10
339.6499999999456
 20
306.1465675774609
 30
0.0
 11
-2.999999999999947
 21
0.000000013077206
 31
0.0
210
0.0
220
0.0
230
1.0
 40
0.9999998953997918
 41
4.712388984743757
 42
6.283185311538672
  0
LINE
  5
5C14
330
A
100
AcDbEntity
  8
0
  6
Continuous
 62
     7
370
     0
100
AcDbLine
 10
341.3499999999459
 20
279.1465704016665
 30
0.0
 11
341.3499999999456
 21
309.1465672636602
 31
0.0
  0
LINE
  5
5C15
330
A
100
AcDbEntity
  8
0
  6
Continuous
 62
     7
370
     0
100
AcDbLine
 10
341.3499999999459
 20
279.1465704016665
 30
0.0
 11
339.6499999999458
 21
279.1465704016665
 31
0.0
  0
LINE
  5
5C16
330
A
100
AcDbEntity
  8
0
  6
Continuous
 62
     7
370
     0
100
AcDbLine
 10
336.6499999999456
 20
306.1465675774608
 30
0.0
 11
336.6500000001051
 21
306.1831583221223
 31
0.0
  0
ELLIPSE
  5
5C17
330
A
100
AcDbEntity
  8
0
  6
Continuous
 62
     7
370
     0
100
AcDbEllipse
 10
339.6500000001051
 20
306.1831583221223
 30
0.0
 11
-3.000000000000001
 21
0.000000013077206
 31
0.0
210
0.0
220
0.0
230
1.0
 40
0.9999998953997918
 41
4.712388984743757
 42
6.283185311538653
  0
LINE
  5
5C18
330
A
100
AcDbEntity
  8
0
  6
Continuous
 62
     9
370
     0
100
AcDbLine
 10
388.2397039279242
 20
312.3034295983388
 30
0.0
 11
391.7628421097388
 21
312.3034295983388
 31
0.0
  0
LINE
  5
5C19
330
A
100
AcDbEntity
  8
0
  6
Continuous
 62
     7
370
     0
100
AcDbLine
 10
391.3298294078467
 20
312.0534295983388
 30
0.0
 11
387.0742099154354
 21
312.0534295983388
 31
0.0
  0
LINE
  5
5C1A
330
A
100
AcDbEntity
  8
0
  6
Continuous
 62
     7
370
     0
100
AcDbLine
 10
371.3500000000639
 20
330.8534295983353
 30
0.0
 11
371.3500000000639
 21
329.1534295983353
 31
0.0
  0
ARC
  5
5C1B
330
A
100
AcDbEntity
  8
0
  6
Continuous
 62
     7
370
     0
100
AcDbCircle
 10
374.3500000000639
 20
330.8534295983353
 30
0.0
 40
3.000000000000001
100
AcDbArc
 50
90.0
 51
180.0
  0
LINE
  5
5C1C
330
A
100
AcDbEntity
  8
0
  6
Continuous
 62
     7
370
     0
100
AcDbLine
 10
398.3500000000637
 20
333.8534295983353
 30
0.0
 11
374.3500000000639
 21
333.8534295983353
 31
0.0
  0
LINE
  5
5C1D
330
A
100
AcDbEntity
  8
0
  6
Continuous
 62
     7
370
     0
100
AcDbLine
 10
401.3500000000637
 20
329.1534295983353
 30
0.0
 11
401.3500000000637
 21
330.8534295983353
 31
0.0
  0
LINE
  5
5C1E
330
A
100
AcDbEntity
  8
0
  6
Continuous
 62
     7
370
     0
100
AcDbLine
 10
401.3500000000637
 20
329.1534295983353
 30
0.0
 11
371.3500000000639
 21
329.1534295983353
 31
0.0
  0
ARC
  5
5C1F
330
A
100
AcDbEntity
  8
0
  6
Continuous
 62
     7
370
     0
100
AcDbCircle
 10
398.3500000000637
 20
330.8534295983353
 30
0.0
 40
3.000000000000001
100
AcDbArc
 50
0.0
 51
90.0
  0
LINE
  5
5C20
330
A
100
AcDbEntity
  8
0
  6
Continuous
 62
     7
370
     0
100
AcDbLine
 10
351.3500000000638
 20
279.1534295983394
 30
0.0
 11
351.3500000000638
 21
303.1534295983393
 31
0.0
  0
ARC
  5
5C21
330
A
100
AcDbEntity
  8
0
  6
Continuous
 62
     7
370
     0
100
AcDbCircle
 10
351.3500000000638
 20
304.1534295983393
 30
0.0
 40
1.0
100
AcDbArc
 50
270.0
 51
0.0
  0
ARC
  5
5C22
330
A
100
AcDbEntity
  8
0
  6
Continuous
 62
     7
370
     0
100
AcDbCircle
 10
366.3500000000638
 20
304.1534295983393
 30
0.0
 40
14.00000000000001
100
AcDbArc
 50
90.0
 51
180.0
  0
LINE
  5
5C23
330
A
100
AcDbEntity
  8
0
  6
Continuous
 62
     7
370
     0
100
AcDbLine
 10
366.3500000000638
 20
318.1534295983393
 30
0.0
 11
372.3500000000638
 21
318.1534295983393
 31
0.0
  0
ARC
  5
5C24
330
A
100
AcDbEntity
  8
0
  6
Continuous
 62
     7
370
     0
100
AcDbCircle
 10
400.3500000000638
 20
316.8525685546963
 30
0.0
 40
1.0
100
AcDbArc
 50
289.8804029857501
 51
0.0
  0
ARC
  5
5C25
330
A
100
AcDbEntity
  8
0
  6
Continuous
 62
     7
370
     0
100
AcDbCircle
 10
366.6842657929678
 20
409.9526133468292
 30
0.0
 40
100.0
100
AcDbArc
 50
270.110347697524
 51
289.8804029857499
  0
ARC
  5
5C26
330
A
100
AcDbEntity
  8
0
  6
Continuous
 62
     7
370
     0
100
AcDbCircle
 10
366.8903402444571
 20
302.9528117894411
 30
0.0
 40
6.999999999999988
100
AcDbArc
 50
90.1103476975237
 51
174.3875554537129
  0
ARC
  5
5C27
330
A
100
AcDbEntity
  8
0
  6
Continuous
 62
     7
370
     0
100
AcDbCircle
 10
260.4032788061484
 20
313.4173111197423
 30
0.0
 40
100.0
100
AcDbArc
 50
340.3667139038794
 51
354.3875554537128
  0
ARC
  5
5C28
330
A
100
AcDbEntity
  8
0
  6
Continuous
 62
     7
370
     0
100
AcDbCircle
 10
353.6476576508277
 20
280.1534295983394
 30
0.0
 40
0.9999999999999683
100
AcDbArc
 50
270.0000000000009
 51
340.36671390388
  0
LINE
  5
5C29
330
A
100
AcDbEntity
  8
0
  6
Continuous
 62
     7
370
     0
100
AcDbLine
 10
353.6476576508277
 20
279.1534295983394
 30
0.0
 11
351.3500000000638
 21
279.1534295983394
 31
0.0
  0
ARC
  5
5C2A
330
A
100
AcDbEntity
  8
0
  6
Continuous
 62
     7
370
     0
100
AcDbCircle
 10
372.3500000000638
 20
319.1534295983393
 30
0.0
 40
1.0
100
AcDbArc
 50
270.0
 51
0.0
  0
LINE
  5
5C2B
330
A
100
AcDbEntity
  8
0
  6
Continuous
 62
     7
370
     0
100
AcDbLine
 10
373.3500000000638
 20
319.1534295983393
 30
0.0
 11
401.3500000000638
 21
319.1534295983393
 31
0.0
  0
LINE
  5
5C2C
330
A
100
AcDbEntity
  8
0
  6
Continuous
 62
     7
370
     0
100
AcDbLine
 10
401.3500000000638
 20
319.1534295983393
 30
0.0
 11
401.3500000000638
 21
316.8525685546963
 31
0.0
  0
LINE
  5
5C2D
330
A
100
AcDbEntity
  8
0
  6
Continuous
 62
     7
370
     0
100
AcDbLine
 10
372.3500000000661
 20
328.1534295983353
 30
0.0
 11
372.3500000000661
 21
329.1534295983353
 31
0.0
  0
LINE
  5
5C2E
330
A
100
AcDbEntity
  8
0
  6
Continuous
 62
     9
370
     0
100
AcDbLine
 10
373.350000000066
 20
329.1534295983353
 30
0.0
 11
373.350000000066
 21
328.1534295983353
 31
0.0
  0
LINE
  5
5C2F
330
A
100
AcDbEntity
  8
0
  6
Continuous
 62
     7
370
     0
100
AcDbLine
 10
373.350000000066
 20
328.1534295983353
 30
0.0
 11
372.3500000000659
 21
328.1534295983353
 31
0.0
  0
LINE
  5
5C30
330
A
100
AcDbEntity
  8
0
  6
Continuous
 62
     9
370
     0
100
AcDbLine
 10
399.3500000000616
 20
328.1534295983353
 30
0.0
 11
399.3500000000616
 21
329.1534295983353
 31
0.0
  0
LINE
  5
5C31
330
A
100
AcDbEntity
  8
0
  6
Continuous
 62
     7
370
     0
100
AcDbLine
 10
399.3500000000616
 20
328.1534295983353
 30
0.0
 11
373.350000000066
 21
328.1534295983353
 31
0.0
  0
LINE
  5
5C32
330
A
100
AcDbEntity
  8
0
  6
Continuous
 62
     7
370
     0
100
AcDbLine
 10
400.3500000000613
 20
329.1534295983353
 30
0.0
 11
400.3500000000613
 21
328.1534295983353
 31
0.0
  0
LINE
  5
5C33
330
A
100
AcDbEntity
  8
0
  6
Continuous
 62
     7
370
     0
100
AcDbLine
 10
400.3500000000616
 20
328.1534295983353
 30
0.0
 11
399.3500000000616
 21
328.1534295983353
 31
0.0
  0
LINE
  5
5C34
330
A
100
AcDbEntity
  8
0
  6
Continuous
 62
     9
370
     0
100
AcDbLine
 10
373.3500000000693
 20
320.1534295983393
 30
0.0
 11
373.3500000000693
 21
319.1534295983393
 31
0.0
  0
LINE
  5
5C35
330
A
100
AcDbEntity
  8
0
  6
Continuous
 62
     9
370
     0
100
AcDbLine
 10
399.3500000000583
 20
319.1534295983393
 30
0.0
 11
399.3500000000583
 21
320.1534295983393
 31
0.0
  0
LINE
  5
5C36
330
A
100
AcDbEntity
  8
0
  6
Continuous
 62
     7
370
     0
100
AcDbLine
 10
373.3500000000693
 20
320.1534295983393
 30
0.0
 11
399.3500000000583
 21
320.1534295983393
 31
0.0
  0
LINE
  5
5C37
330
A
100
AcDbEntity
  8
0
  6
Continuous
 62
     7
370
     0
100
AcDbLine
 10
373.3500000000693
 20
319.1534295983393
 30
0.0
 11
372.3500000000693
 21
319.1534295983393
 31
0.0
  0
LINE
  5
5C38
330
A
100
AcDbEntity
  8
0
  6
Continuous
 62
     7
370
     0
100
AcDbLine
 10
372.3500000000697
 20
319.1534295983393
 30
0.0
 11
372.3500000000697
 21
320.1534295983393
 31
0.0
  0
LINE
  5
5C39
330
A
100
AcDbEntity
  8
0
  6
Continuous
 62
     7
370
     0
100
AcDbLine
 10
372.3500000000693
 20
320.1534295983393
 30
0.0
 11
373.3500000000693
 21
320.1534295983393
 31
0.0
  0
LINE
  5
5C3A
330
A
100
AcDbEntity
  8
0
  6
Continuous
 62
     7
370
     0
100
AcDbLine
 10
400.3500000000578
 20
320.1534295983393
 30
0.0
 11
400.3500000000578
 21
319.1534295983393
 31
0.0
  0
LINE
  5
5C3B
330
A
100
AcDbEntity
  8
0
  6
Continuous
 62
     7
370
     0
100
AcDbLine
 10
399.3500000000583
 20
320.1534295983393
 30
0.0
 11
400.3500000000583
 21
320.1534295983393
 31
0.0
  0
LINE
  5
5C3C
330
A
100
AcDbEntity
  8
0
  6
Continuous
 62
     9
370
     0
100
AcDbLine
 10
348.850000000374
 20
291.6534295984985
 30
0.0
 11
350.350000000064
 21
291.6534295984028
 31
0.0
  0
LINE
  5
5C3D
330
A
100
AcDbEntity
  8
0
  6
Continuous
 62
     9
370
     0
100
AcDbLine
 10
350.3500000000638
 20
296.6534295984029
 30
0.0
 11
348.850000000374
 21
296.6534295984985
 31
0.0
  0
LINE
  5
5C3E
330
A
100
AcDbEntity
  8
0
  6
Continuous
 62
     9
370
     0
100
AcDbLine
 10
383.8500000000638
 20
321.6534295987717
 30
0.0
 11
383.8500000000638
 21
320.1534295983393
 31
0.0
  0
LINE
  5
5C3F
330
A
100
AcDbEntity
  8
0
  6
Continuous
 62
     9
370
     0
100
AcDbLine
 10
388.8500000000638
 20
320.1534295983393
 30
0.0
 11
388.8500000000638
 21
321.6534295987717
 31
0.0
  0
LINE
  5
5C40
330
A
100
AcDbEntity
  8
0
  6
Continuous
 62
     7
370
     0
100
AcDbLine
 10
379.3500000000638
 20
326.653429598336
 30
0.0
 11
379.3500000000638
 21
321.653429598336
 31
0.0
  0
LINE
  5
5C41
330
A
100
AcDbEntity
  8
0
  6
Continuous
 62
     7
370
     0
100
AcDbLine
 10
393.3500000000638
 20
321.653429598336
 30
0.0
 11
393.3500000000638
 21
326.653429598336
 31
0.0
  0
LINE
  5
5C42
330
A
100
AcDbEntity
  8
0
  6
Continuous
 62
     7
370
     0
100
AcDbLine
 10
348.8500000000696
 20
301.1762988127009
 30
0.0
 11
343.8500000000695
 21
301.1762988127008
 31
0.0
  0
LINE
  5
5C43
330
A
100
AcDbEntity
  8
0
  6
Continuous
 62
     7
370
     0
100
AcDbLine
 10
348.8499999999699
 20
301.1534295972873
 30
0.0
 11
343.8499999999698
 21
301.1534295972873
 31
0.0
  0
LINE
  5
5C44
330
A
100
AcDbEntity
  8
0
  6
Continuous
 62
     7
370
     0
100
AcDbLine
 10
343.84999999997
 20
287.1534295972874
 30
0.0
 11
348.8499999999699
 21
287.1534295972875
 31
0.0
  0
LINE
  5
5C45
330
A
100
AcDbEntity
  8
0
  6
Continuous
 62
     7
370
     0
100
AcDbLine
 10
357.1551416951376
 20
288.1373382655194
 30
0.0
 11
358.1999999994326
 21
288.7405874886802
 31
0.0
  0
ARC
  5
5C46
330
A
100
AcDbEntity
  8
0
  6
Continuous
 62
     7
370
     0
100
AcDbCircle
 10
357.9499999994602
 20
289.1736001905883
 30
0.0
 40
0.4999999999999908
100
AcDbArc
 50
299.9999999963463
 51
359.9999999963466
  0
LINE
  5
5C47
330
A
100
AcDbEntity
  8
0
  6
Continuous
 62
     7
370
     0
100
AcDbLine
 10
348.8500000003607
 20
291.1534295984985
 30
0.0
 11
350.350000000064
 21
291.1534295984028
 31
0.0
  0
LINE
  5
5C48
330
A
100
AcDbEntity
  8
0
  6
Continuous
 62
     7
370
     0
100
AcDbLine
 10
350.3500000000638
 20
297.1534295984028
 30
0.0
 11
348.8500000003607
 21
297.1534295984985
 31
0.0
  0
LINE
  5
5C49
330
A
100
AcDbEntity
  8
0
  6
Continuous
 62
     7
370
     0
100
AcDbLine
 10
343.8500000002788
 20
299.0534295972874
 30
0.0
 11
342.3499999999419
 21
299.0534295972874
 31
0.0
  0
LINE
  5
5C4A
330
A
100
AcDbEntity
  8
0
  6
Continuous
 62
     7
370
     0
100
AcDbLine
 10
342.3499999999421
 20
289.2534295972874
 30
0.0
 11
343.850000000279
 21
289.2534295972875
 31
0.0
  0
LINE
  5
5C4B
330
A
100
AcDbEntity
  8
0
  6
Continuous
 62
     7
370
     0
100
AcDbLine
 10
343.8500000002775
 20
299.0762988127008
 30
0.0
 11
342.3499999999419
 21
299.0762988127008
 31
0.0
  0
LINE
  5
5C4C
330
A
100
AcDbEntity
  8
0
  6
Continuous
 62
     7
370
     0
100
AcDbLine
 10
391.7628421097388
 20
312.3034295983388
 30
0.0
 11
392.3376925203148
 21
313.2990997162082
 31
0.0
  0
ARC
  5
5C4D
330
A
100
AcDbEntity
  8
0
  6
Continuous
 62
     7
370
     0
100
AcDbCircle
 10
391.3298294078467
 20
312.5534295983389
 30
0.0
 40
0.5000000000000561
100
AcDbArc
 50
270.0
 51
330.0000000000001
  0
LINE
  5
5C4E
330
A
100
AcDbEntity
  8
0
  6
Continuous
 62
     7
370
     0
100
AcDbLine
 10
383.3500000000638
 20
321.6534295987569
 30
0.0
 11
383.3500000000638
 21
320.1534295983393
 31
0.0
  0
LINE
  5
5C4F
330
A
100
AcDbEntity
  8
0
  6
Continuous
 62
     7
370
     0
100
AcDbLine
 10
389.3500000000638
 20
320.1534295983393
 30
0.0
 11
389.3500000000638
 21
321.6534295987569
 31
0.0
  0
LINE
  5
5C50
330
A
100
AcDbEntity
  8
0
  6
Continuous
 62
     7
370
     0
100
AcDbLine
 10
391.2500000000638
 20
326.6534295986705
 30
0.0
 11
391.2500000000638
 21
328.1534295983353
 31
0.0
  0
LINE
  5
5C51
330
A
100
AcDbEntity
  8
0
  6
Continuous
 62
     7
370
     0
100
AcDbLine
 10
381.4500000000638
 20
328.1534295983353
 30
0.0
 11
381.4500000000638
 21
326.6534295986705
 31
0.0
  0
LINE
  5
5C52
330
A
100
AcDbEntity
  8
0
  6
Continuous
 62
     7
370
     0
100
AcDbLine
 10
348.8499999996368
 20
240.9999973849773
 30
0.0
 11
348.8500000005024
 21
226.9999973849773
 31
0.0
  0
LINE
  5
5C53
330
A
100
AcDbEntity
  8
0
  6
Continuous
 62
     7
370
     0
100
AcDbLine
 10
343.8499999996369
 20
240.9999973846681
 30
0.0
 11
343.8500000005023
 21
226.9999973846682
 31
0.0
  0
LINE
  5
5C54
330
A
100
AcDbEntity
  8
0
  6
Continuous
 62
     7
370
     0
100
AcDbLine
 10
348.8499999995374
 20
191.0000026149876
 30
0.0
 11
348.8500000004025
 21
177.0000026149876
 31
0.0
  0
LINE
  5
5C55
330
A
100
AcDbEntity
  8
0
  6
Continuous
 62
     7
370
     0
100
AcDbLine
 10
343.8499999995374
 20
191.0000026146787
 30
0.0
 11
343.8500000004026
 21
177.0000026146787
 31
0.0
  0
LINE
  5
5C56
330
A
100
AcDbEntity
  8
0
  6
Continuous
 62
     9
370
     0
100
AcDbLine
 10
341.3500000000974
 20
247.9940499245676
 30
0.0
 11
342.3500000000974
 21
247.9940499245656
 31
0.0
  0
LINE
  5
5C57
330
A
100
AcDbEntity
  8
0
  6
Continuous
 62
     7
370
     0
100
AcDbLine
 10
342.3500000000974
 20
247.994049924566
 30
0.0
 11
342.3500000000954
 21
246.993592644858
 31
0.0
  0
LINE
  5
5C58
330
A
100
AcDbEntity
  8
0
  6
Continuous
 62
     9
370
     0
100
AcDbLine
 10
342.3500000000954
 20
246.993592644858
 30
0.0
 11
341.3500000000953
 21
246.99359264486
 31
0.0
  0
LINE
  5
5C59
330
A
100
AcDbEntity
  8
0
  6
Continuous
 62
     9
370
     0
100
AcDbLine
 10
341.3499999999439
 20
170.9936005945034
 30
0.0
 11
342.3499999999439
 21
170.9936005945014
 31
0.0
  0
LINE
  5
5C5A
330
A
100
AcDbEntity
  8
0
  6
Continuous
 62
     7
370
     0
100
AcDbLine
 10
342.3499999999439
 20
170.9936005945014
 30
0.0
 11
342.3500000000954
 21
246.993592644858
 31
0.0
  0
LINE
  5
5C5B
330
A
100
AcDbEntity
  8
0
  6
Continuous
 62
     7
370
     0
100
AcDbLine
 10
342.3499999999419
 20
169.9940580834103
 30
0.0
 11
341.3499999999419
 21
169.9940580834122
 31
0.0
  0
LINE
  5
5C5C
330
A
100
AcDbEntity
  8
0
  6
Continuous
 62
     7
370
     0
100
AcDbLine
 10
342.3499999999439
 20
170.9936005945014
 30
0.0
 11
342.3499999999419
 21
169.9940579788097
 31
0.0
  0
LINE
  5
5C5D
330
A
100
AcDbEntity
  8
0
  6
Continuous
 62
     7
370
     0
100
AcDbLine
 10
342.3500000000976
 20
248.0059419165806
 30
0.0
 11
341.3500000000976
 21
248.0059419165826
 31
0.0
  0
LINE
  5
5C5E
330
A
100
AcDbEntity
  8
0
  6
Continuous
 62
     7
370
     0
100
AcDbLine
 10
342.3500000000974
 20
247.9940499245656
 30
0.0
 11
342.3500000000976
 21
248.0059419165806
 31
0.0
  0
LINE
  5
5C5F
330
A
100
AcDbEntity
  8
0
  6
Continuous
 62
     9
370
     0
100
AcDbLine
 10
351.3500000000637
 20
246.9935939530826
 30
0.0
 11
350.3500000000637
 21
246.9935939530826
 31
0.0
  0
LINE
  5
5C60
330
A
100
AcDbEntity
  8
0
  6
Continuous
 62
     7
370
     0
100
AcDbLine
 10
350.3500000000637
 20
246.9935939530826
 30
0.0
 11
350.3500000000637
 21
247.9940512327406
 31
0.0
  0
LINE
  5
5C61
330
A
100
AcDbEntity
  8
0
  6
Continuous
 62
     9
370
     0
100
AcDbLine
 10
350.3500000000637
 20
247.9940512327406
 30
0.0
 11
351.3500000000637
 21
247.9940512327406
 31
0.0
  0
LINE
  5
5C62
330
A
100
AcDbEntity
  8
0
  6
Continuous
 62
     7
370
     0
100
AcDbLine
 10
351.3500000000637
 20
247.9940512327406
 30
0.0
 11
351.3500000000637
 21
246.9935939530826
 31
0.0
  0
LINE
  5
5C63
330
A
100
AcDbEntity
  8
0
  6
Continuous
 62
     9
370
     0
100
AcDbLine
 10
350.3500000000637
 20
170.9936019026945
 30
0.0
 11
351.3500000000637
 21
170.9936019026945
 31
0.0
  0
LINE
  5
5C64
330
A
100
AcDbEntity
  8
0
  6
Continuous
 62
     7
370
     0
100
AcDbLine
 10
350.3500000000637
 20
246.9935939530826
 30
0.0
 11
350.3500000000637
 21
170.9936019026945
 31
0.0
  0
LINE
  5
5C65
330
A
100
AcDbEntity
  8
0
  6
Continuous
 62
     7
370
     0
100
AcDbLine
 10
351.3500000000637
 20
246.9935939530826
 30
0.0
 11
351.3500000000637
 21
170.9936019026945
 31
0.0
  0
LINE
  5
5C66
330
A
100
AcDbEntity
  8
0
  6
Continuous
 62
     7
370
     0
100
AcDbLine
 10
351.3500000000637
 20
169.9940593915529
 30
0.0
 11
350.3500000000637
 21
169.9940593915529
 31
0.0
  0
LINE
  5
5C67
330
A
100
AcDbEntity
  8
0
  6
Continuous
 62
     7
370
     0
100
AcDbLine
 10
350.3500000000637
 20
169.9940592869528
 30
0.0
 11
350.3500000000637
 21
170.9936019026945
 31
0.0
  0
LINE
  5
5C68
330
A
100
AcDbEntity
  8
0
  6
Continuous
 62
     7
370
     0
100
AcDbLine
 10
351.3500000000637
 20
170.9936019026945
 30
0.0
 11
351.3500000000637
 21
169.9940592869528
 31
0.0
  0
LINE
  5
5C69
330
A
100
AcDbEntity
  8
0
  6
Continuous
 62
     7
370
     0
100
AcDbLine
 10
351.350000000064
 20
248.0059432234544
 30
0.0
 11
350.350000000064
 21
248.0059432234544
 31
0.0
  0
LINE
  5
5C6A
330
A
100
AcDbEntity
  8
0
  6
Continuous
 62
     7
370
     0
100
AcDbLine
 10
350.350000000064
 20
248.0059432234544
 30
0.0
 11
350.3500000000637
 21
247.9940512327406
 31
0.0
  0
LINE
  5
5C6B
330
A
100
AcDbEntity
  8
0
  6
Continuous
 62
     7
370
     0
100
AcDbLine
 10
351.350000000064
 20
248.0059432234544
 30
0.0
 11
351.3500000000638
 21
247.9958941581676
 31
0.0
  0
LINE
  5
5C6C
330
A
100
AcDbEntity
  8
0
  6
Continuous
 62
     7
370
     0
100
AcDbLine
 10
351.3500000000638
 20
247.9958941581676
 30
0.0
 11
351.3500000000637
 21
247.9940512327406
 31
0.0
  0
LINE
  5
5C6D
330
A
100
AcDbEntity
  8
0
  6
Continuous
 62
     7
370
     0
100
AcDbLine
 10
339.6500000001051
 20
248.9931350513945
 30
0.0
 11
341.3500000001051
 21
248.9931350513911
 31
0.0
  0
ELLIPSE
  5
5C6E
330
A
100
AcDbEntity
  8
0
  6
Continuous
 62
     7
370
     0
100
AcDbEllipse
 10
339.6500000001051
 20
248.9945072043193
 30
0.0
 11
-3.000000000000001
 21
0.0000000000059674
 31
0.0
210
0.0
220
0.0
230
1.0
 40
0.0004573843082682
 41
0.000000000010103
 42
1.570796326794886
  0
LINE
  5
5C6F
330
A
100
AcDbEntity
  8
0
  6
Continuous
 62
     7
370
     0
100
AcDbLine
 10
336.6500000001053
 20
249.0054844277237
 30
0.0
 11
336.6500000001051
 21
248.9945072043252
 31
0.0
  0
ELLIPSE
  5
5C70
330
A
100
AcDbEntity
  8
0
  6
Continuous
 62
     7
370
     0
100
AcDbEllipse
 10
339.6500000001053
 20
249.0054844277177
 30
0.0
 11
-3.000000000000001
 21
0.0000000000059952
 31
0.0
210
0.0
220
0.0
230
1.0
 40
0.0004573843082704
 41
4.712388980384661
 42
6.283185307190152
  0
LINE
  5
5C71
330
A
100
AcDbEntity
  8
0
  6
Continuous
 62
     7
370
     0
100
AcDbLine
 10
341.3500000001054
 20
249.0068565806391
 30
0.0
 11
339.6500000001054
 21
249.0068565806425
 31
0.0
  0
LINE
  5
5C72
330
A
100
AcDbEntity
  8
0
  6
Continuous
 62
     7
370
     0
100
AcDbLine
 10
341.3500000001054
 20
249.0068565806391
 30
0.0
 11
341.3500000001051
 21
248.9931350513911
 31
0.0
  0
LINE
  5
5C73
330
A
100
AcDbEntity
  8
0
  6
Continuous
 62
     7
370
     0
100
AcDbLine
 10
339.6499999999456
 20
168.993143419411
 30
0.0
 11
341.3499999999456
 21
168.9931434194077
 31
0.0
  0
LINE
  5
5C74
330
A
100
AcDbEntity
  8
0
  6
Continuous
 62
     9
370
     0
100
AcDbLine
 10
339.6499999999456
 20
168.993143419411
 30
0.0
 11
339.6500000001051
 21
248.9931350513944
 31
0.0
  0
LINE
  5
5C75
330
A
100
AcDbEntity
  8
0
  6
Continuous
 62
     7
370
     0
100
AcDbLine
 10
341.3500000001051
 20
248.9931350513911
 30
0.0
 11
341.3499999999456
 21
168.9931434194077
 31
0.0
  0
ELLIPSE
  5
5C76
330
A
100
AcDbEntity
  8
0
  6
Continuous
 62
     7
370
     0
100
AcDbEllipse
 10
339.6499999999456
 20
168.9945155723358
 30
0.0
 11
-2.999999999999947
 21
0.0000000000059674
 31
0.0
210
0.0
220
0.0
230
1.0
 40
0.0004573843082682
 41
6.283185307169473
 42
7.853981633974482
  0
LINE
  5
5C77
330
A
100
AcDbEntity
  8
0
  6
Continuous
 62
     7
370
     0
100
AcDbLine
 10
336.6499999999456
 20
168.9945155723418
 30
0.0
 11
336.6500000001051
 21
248.9945072043252
 31
0.0
  0
LINE
  5
5C78
330
A
100
AcDbEntity
  8
0
  6
Continuous
 62
     9
370
     0
100
AcDbLine
 10
374.3500000000639
 20
249.0000013075004
 30
0.0
 11
374.3500000000639
 21
169.0000013075008
 31
0.0
  0
LINE
  5
5C79
330
A
100
AcDbEntity
  8
0
  6
Continuous
 62
     7
370
     0
100
AcDbLine
 10
398.3500000000637
 20
249.0000013075004
 30
0.0
 11
374.3500000000639
 21
249.0000013075004
 31
0.0
  0
LINE
  5
5C7A
330
A
100
AcDbEntity
  8
0
  6
Continuous
 62
     9
370
     0
100
AcDbLine
 10
398.3500000000637
 20
249.0000013075004
 30
0.0
 11
398.3500000000637
 21
169.0000013075008
 31
0.0
  0
LINE
  5
5C7B
330
A
100
AcDbEntity
  8
0
  6
Continuous
 62
     7
370
     0
100
AcDbLine
 10
398.3500000000637
 20
169.0000013075008
 30
0.0
 11
374.3500000000639
 21
169.0000013075008
 31
0.0
  0
LINE
  5
5C7C
330
A
100
AcDbEntity
  8
0
  6
Continuous
 62
     7
370
     0
100
AcDbLine
 10
401.3500000000637
 20
249.0000013075004
 30
0.0
 11
398.3500000000637
 21
249.0000013075004
 31
0.0
  0
LINE
  5
5C7D
330
A
100
AcDbEntity
  8
0
  6
Continuous
 62
     7
370
     0
100
AcDbLine
 10
401.3500000000637
 20
249.0000013075004
 30
0.0
 11
401.3500000000637
 21
169.0000013075008
 31
0.0
  0
LINE
  5
5C7E
330
A
100
AcDbEntity
  8
0
  6
Continuous
 62
     7
370
     0
100
AcDbLine
 10
401.3500000000637
 20
169.0000013075008
 30
0.0
 11
398.3500000000637
 21
169.0000013075008
 31
0.0
  0
LINE
  5
5C7F
330
A
100
AcDbEntity
  8
0
  6
Continuous
 62
     7
370
     0
100
AcDbLine
 10
371.3500000000639
 20
249.0000013075004
 30
0.0
 11
371.3500000000639
 21
169.0000013075008
 31
0.0
  0
LINE
  5
5C80
330
A
100
AcDbEntity
  8
0
  6
Continuous
 62
     7
370
     0
100
AcDbLine
 10
374.3500000000639
 20
169.0000013075008
 30
0.0
 11
371.3500000000639
 21
169.0000013075008
 31
0.0
  0
LINE
  5
5C81
330
A
100
AcDbEntity
  8
0
  6
Continuous
 62
     7
370
     0
100
AcDbLine
 10
374.3500000000639
 20
249.0000013075004
 30
0.0
 11
371.3500000000639
 21
249.0000013075004
 31
0.0
  0
LINE
  5
5C82
330
A
100
AcDbEntity
  8
0
  6
Continuous
 62
     9
370
     0
100
AcDbLine
 10
366.3500000000638
 20
249.0000013074797
 30
0.0
 11
366.3500000000638
 21
169.0000013074797
 31
0.0
  0
LINE
  5
5C83
330
A
100
AcDbEntity
  8
0
  6
Continuous
 62
     7
370
     0
100
AcDbLine
 10
366.3500000000638
 20
169.0000013074797
 30
0.0
 11
371.3500000000639
 21
169.0000013074797
 31
0.0
  0
LINE
  5
5C84
330
A
100
AcDbEntity
  8
0
  6
Continuous
 62
     7
370
     0
100
AcDbLine
 10
366.3500000000638
 20
249.0000013074797
 30
0.0
 11
371.3500000000639
 21
249.0000013074797
 31
0.0
  0
LINE
  5
5C85
330
A
100
AcDbEntity
  8
0
  6
Continuous
 62
     7
370
     0
100
AcDbLine
 10
352.3500000000638
 20
249.0000013074797
 30
0.0
 11
352.3500000000638
 21
169.0000013074797
 31
0.0
  0
LINE
  5
5C86
330
A
100
AcDbEntity
  8
0
  6
Continuous
 62
     7
370
     0
100
AcDbLine
 10
352.3500000000638
 20
169.0000013074797
 30
0.0
 11
366.3500000000638
 21
169.0000013074797
 31
0.0
  0
LINE
  5
5C87
330
A
100
AcDbEntity
  8
0
  6
Continuous
 62
     7
370
     0
100
AcDbLine
 10
352.3500000000638
 20
249.0000013074797
 30
0.0
 11
366.3500000000638
 21
249.0000013074797
 31
0.0
  0
LINE
  5
5C88
330
A
100
AcDbEntity
  8
0
  6
Continuous
 62
     7
370
     0
100
AcDbLine
 10
351.3500000000638
 20
249.0000013074797
 30
0.0
 11
351.3500000000638
 21
247.9958941581676
 31
0.0
  0
LINE
  5
5C89
330
A
100
AcDbEntity
  8
0
  6
Continuous
 62
     7
370
     0
100
AcDbLine
 10
351.3500000000638
 20
169.9940593915529
 30
0.0
 11
351.3500000000638
 21
169.0000013074797
 31
0.0
  0
LINE
  5
5C8A
330
A
100
AcDbEntity
  8
0
  6
Continuous
 62
     7
370
     0
100
AcDbLine
 10
352.3500000000638
 20
169.0000013074797
 30
0.0
 11
351.3500000000638
 21
169.0000013074797
 31
0.0
  0
LINE
  5
5C8B
330
A
100
AcDbEntity
  8
0
  6
Continuous
 62
     7
370
     0
100
AcDbLine
 10
352.3500000000638
 20
249.0000013074797
 30
0.0
 11
351.3500000000638
 21
249.0000013074797
 31
0.0
  0
LINE
  5
5C8C
330
A
100
AcDbEntity
  8
0
  6
Continuous
 62
     9
370
     0
100
AcDbLine
 10
348.8500000002241
 20
231.5000013074798
 30
0.0
 11
350.3500000000637
 21
231.5000013074798
 31
0.0
  0
LINE
  5
5C8D
330
A
100
AcDbEntity
  8
0
  6
Continuous
 62
     9
370
     0
100
AcDbLine
 10
350.3500000000637
 20
236.5000013074798
 30
0.0
 11
348.849999999915
 21
236.5000013074798
 31
0.0
  0
LINE
  5
5C8E
330
A
100
AcDbEntity
  8
0
  6
Continuous
 62
     9
370
     0
100
AcDbLine
 10
348.8500000001244
 20
181.5000013074797
 30
0.0
 11
350.3500000000637
 21
181.5000013074797
 31
0.0
  0
LINE
  5
5C8F
330
A
100
AcDbEntity
  8
0
  6
Continuous
 62
     9
370
     0
100
AcDbLine
 10
350.3500000000637
 20
186.5000013074797
 30
0.0
 11
348.8499999998154
 21
186.5000013074797
 31
0.0
  0
LINE
  5
5C90
330
A
100
AcDbEntity
  8
0
  6
Continuous
 62
     7
370
     0
100
AcDbLine
 10
348.8499999996368
 20
240.9999973849773
 30
0.0
 11
343.8499999996369
 21
240.9999973846681
 31
0.0
  0
LINE
  5
5C91
330
A
100
AcDbEntity
  8
0
  6
Continuous
 62
     7
370
     0
100
AcDbLine
 10
343.8500000005023
 20
226.9999973846681
 30
0.0
 11
348.8500000005024
 21
226.9999973849773
 31
0.0
  0
LINE
  5
5C92
330
A
100
AcDbEntity
  8
0
  6
Continuous
 62
     7
370
     0
100
AcDbLine
 10
348.8499999995374
 20
191.0000026149876
 30
0.0
 11
343.8499999995374
 21
191.0000026146787
 31
0.0
  0
LINE
  5
5C93
330
A
100
AcDbEntity
  8
0
  6
Continuous
 62
     7
370
     0
100
AcDbLine
 10
343.8500000004026
 20
177.0000026146787
 30
0.0
 11
348.8500000004025
 21
177.0000026149876
 31
0.0
  0
LINE
  5
5C94
330
A
100
AcDbEntity
  8
0
  6
Continuous
 62
     7
370
     0
100
AcDbLine
 10
348.8500000002551
 20
231.0000013074798
 30
0.0
 11
350.3500000000637
 21
231.0000013074798
 31
0.0
  0
LINE
  5
5C95
330
A
100
AcDbEntity
  8
0
  6
Continuous
 62
     7
370
     0
100
AcDbLine
 10
350.3500000000637
 20
237.0000013074798
 30
0.0
 11
348.8499999998841
 21
237.0000013074797
 31
0.0
  0
LINE
  5
5C96
330
A
100
AcDbEntity
  8
0
  6
Continuous
 62
     7
370
     0
100
AcDbLine
 10
348.8500000001553
 20
181.0000013074797
 30
0.0
 11
350.3500000000637
 21
181.0000013074797
 31
0.0
  0
LINE
  5
5C97
330
A
100
AcDbEntity
  8
0
  6
Continuous
 62
     7
370
     0
100
AcDbLine
 10
350.3500000000637
 20
187.0000013074797
 30
0.0
 11
348.8499999997845
 21
187.0000013074797
 31
0.0
  0
LINE
  5
5C98
330
A
100
AcDbEntity
  8
0
  6
Continuous
 62
     7
370
     0
100
AcDbLine
 10
343.8499999997667
 20
238.8999973850132
 30
0.0
 11
342.3500000000793
 21
238.8999973850162
 31
0.0
  0
LINE
  5
5C99
330
A
100
AcDbEntity
  8
0
  6
Continuous
 62
     7
370
     0
100
AcDbLine
 10
342.3500000000597
 20
229.0999973850162
 30
0.0
 11
343.8500000003726
 21
229.0999973850132
 31
0.0
  0
LINE
  5
5C9A
330
A
100
AcDbEntity
  8
0
  6
Continuous
 62
     7
370
     0
100
AcDbLine
 10
343.8499999996671
 20
188.9000026150235
 30
0.0
 11
342.3499999999795
 21
188.9000026150266
 31
0.0
  0
LINE
  5
5C9B
330
A
100
AcDbEntity
  8
0
  6
Continuous
 62
     7
370
     0
100
AcDbLine
 10
342.34999999996
 20
179.1000026150266
 30
0.0
 11
343.8500000002727
 21
179.1000026150236
 31
0.0
  0
TEXT
  5
629D
330
A
100
AcDbEntity
  8
0
  6
Continuous
 62
     7
370
     0
100
AcDbText
 10
374.2585796341288
 20
281.5073206442167
 30
0.0
 40
10.0
  1
4411
100
AcDbText
  0
LINE
  5
629E
330
A
100
AcDbEntity
  8
0
  6
Continuous
 62
     7
370
     0
100
AcDbLine
 10
278.5946118115082
 20
240.2000013074647
 30
0.0
 11
278.7220685988033
 21
240.1661775930524
 31
0.0
  0
LINE
  5
629F
330
A
100
AcDbEntity
  8
0
  6
Continuous
 62
     7
370
     0
100
AcDbLine
 10
278.7220685988033
 20
240.1661775930524
 30
0.0
 11
278.8248002139615
 21
240.0857410481081
 31
0.0
  0
LINE
  5
62A0
330
A
100
AcDbEntity
  8
0
  6
Continuous
 62
     7
370
     0
100
AcDbLine
 10
278.8248002139615
 20
240.0857410481081
 30
0.0
 11
278.9211397564662
 21
239.9610617671621
 31
0.0
  0
ARC
  5
62A1
330
A
100
AcDbEntity
  8
0
  6
Continuous
 62
     7
370
     0
100
AcDbCircle
 10
255.7455801265806
 20
233.9030485852401
 30
0.0
 40
23.95424989163149
100
AcDbArc
 50
353.327531785758
 51
14.64914476814635
  0
ARC
  5
62A2
330
A
100
AcDbEntity
  8
0
  6
Continuous
 62
     7
370
     0
100
AcDbCircle
 10
270.3000937749131
 20
231.3053608296039
 30
0.0
 40
9.239349626104987
100
AcDbArc
 50
340.0182198125637
 51
358.848717081648
  0
LINE
  5
62A3
330
A
100
AcDbEntity
  8
0
  6
Continuous
 62
     7
370
     0
100
AcDbLine
 10
278.9832468807942
 20
228.1480781920761
 30
0.0
 11
278.8920450582715
 21
227.9958476790231
 31
0.0
  0
LINE
  5
62A4
330
A
100
AcDbEntity
  8
0
  6
Continuous
 62
     7
370
     0
100
AcDbLine
 10
278.8920450582715
 20
227.9958476790231
 30
0.0
 11
278.7844037223002
 21
227.8765843086292
 31
0.0
  0
LINE
  5
62A5
330
A
100
AcDbEntity
  8
0
  6
Continuous
 62
     7
370
     0
100
AcDbLine
 10
278.7844037223002
 20
227.8765843086292
 30
0.0
 11
278.6591101001985
 21
227.8085421026863
 31
0.0
  0
LINE
  5
62A6
330
A
100
AcDbEntity
  8
0
  6
Continuous
 62
     7
370
     0
100
AcDbLine
 10
278.6591101001985
 20
227.8085421026863
 30
0.0
 11
278.5946145491998
 21
227.8000013074798
 31
0.0
  0
LINE
  5
62A7
330
A
100
AcDbEntity
  8
0
  6
Continuous
 62
     7
370
     0
100
AcDbLine
 10
278.5946118115082
 20
190.2000013074647
 30
0.0
 11
278.7220685988033
 21
190.1661775930523
 31
0.0
  0
LINE
  5
62A8
330
A
100
AcDbEntity
  8
0
  6
Continuous
 62
     7
370
     0
100
AcDbLine
 10
278.7220685988033
 20
190.1661775930523
 30
0.0
 11
278.8248002139615
 21
190.0857410481081
 31
0.0
  0
LINE
  5
62A9
330
A
100
AcDbEntity
  8
0
  6
Continuous
 62
     7
370
     0
100
AcDbLine
 10
278.8248002139615
 20
190.0857410481081
 30
0.0
 11
278.9211397564662
 21
189.9610617671621
 31
0.0
  0
ARC
  5
62AA
330
A
100
AcDbEntity
  8
0
  6
Continuous
 62
     7
370
     0
100
AcDbCircle
 10
255.7455801265805
 20
183.9030485852401
 30
0.0
 40
23.95424989163158
100
AcDbArc
 50
353.327531785758
 51
14.64914476814637
  0
ARC
  5
62AB
330
A
100
AcDbEntity
  8
0
  6
Continuous
 62
     7
370
     0
100
AcDbCircle
 10
270.3000937749173
 20
181.305360829603
 30
0.0
 40
9.239349626100763
100
AcDbArc
 50
340.0182198125595
 51
358.8487170816524
  0
LINE
  5
62AC
330
A
100
AcDbEntity
  8
0
  6
Continuous
 62
     7
370
     0
100
AcDbLine
 10
278.9832468807942
 20
178.1480781920761
 30
0.0
 11
278.8920450582715
 21
177.9958476790231
 31
0.0
  0
LINE
  5
62AD
330
A
100
AcDbEntity
  8
0
  6
Continuous
 62
     7
370
     0
100
AcDbLine
 10
278.8920450582715
 20
177.9958476790231
 30
0.0
 11
278.7844037223002
 21
177.8765843086291
 31
0.0
  0
LINE
  5
62AE
330
A
100
AcDbEntity
  8
0
  6
Continuous
 62
     7
370
     0
100
AcDbLine
 10
278.7844037223002
 20
177.8765843086291
 30
0.0
 11
278.6591101001985
 21
177.8085421026863
 31
0.0
  0
LINE
  5
62AF
330
A
100
AcDbEntity
  8
0
  6
Continuous
 62
     7
370
     0
100
AcDbLine
 10
278.6591101001985
 20
177.8085421026863
 30
0.0
 11
278.5946145491998
 21
177.8000013074797
 31
0.0
  0
LINE
  5
62B0
330
A
100
AcDbEntity
  8
0
  6
Continuous
 62
     7
370
     0
100
AcDbLine
 10
278.5946145491998
 20
177.8000013074797
 30
0.0
 11
278.4876642411222
 21
177.8223805423614
 31
0.0
  0
LINE
  5
62B1
330
A
100
AcDbEntity
  8
0
  6
Continuous
 62
     7
370
     0
100
AcDbLine
 10
278.4876642411222
 20
177.8223805423614
 30
0.0
 11
278.3786685969606
 21
177.8891394703068
 31
0.0
  0
LINE
  5
62B2
330
A
100
AcDbEntity
  8
0
  6
Continuous
 62
     7
370
     0
100
AcDbLine
 10
278.3786685969606
 20
177.8891394703068
 30
0.0
 11
278.2652367419033
 21
178.0037511068003
 31
0.0
  0
ARC
  5
62B3
330
A
100
AcDbEntity
  8
0
  6
Continuous
 62
     7
370
     0
100
AcDbCircle
 10
293.5158053927265
 20
184.1158084510703
 30
0.0
 40
16.42976229752321
100
AcDbArc
 50
169.177605367279
 51
201.8397133756763
  0
ARC
  5
62B4
330
A
100
AcDbEntity
  8
0
  6
Continuous
 62
     7
370
     0
100
AcDbCircle
 10
285.07920351781
 20
186.3579309154592
 30
0.0
 40
7.746922573272924
100
AcDbArc
 50
152.9838836673643
 51
173.7542222814496
  0
LINE
  5
62B5
330
A
100
AcDbEntity
  8
0
  6
Continuous
 62
     7
370
     0
100
AcDbLine
 10
278.1776345164717
 20
189.8769015996296
 30
0.0
 11
278.2886637902022
 21
190.0236368021091
 31
0.0
  0
LINE
  5
62B6
330
A
100
AcDbEntity
  8
0
  6
Continuous
 62
     7
370
     0
100
AcDbLine
 10
278.2886637902022
 20
190.0236368021091
 30
0.0
 11
278.4008445819948
 21
190.1279193889731
 31
0.0
  0
LINE
  5
62B7
330
A
100
AcDbEntity
  8
0
  6
Continuous
 62
     7
370
     0
100
AcDbLine
 10
278.4008445819948
 20
190.1279193889731
 30
0.0
 11
278.5105200796732
 21
190.186095420114
 31
0.0
  0
LINE
  5
62B8
330
A
100
AcDbEntity
  8
0
  6
Continuous
 62
     7
370
     0
100
AcDbLine
 10
278.5105200796732
 20
190.186095420114
 30
0.0
 11
278.5946118115082
 21
190.2000013074647
 31
0.0
  0
LINE
  5
62B9
330
A
100
AcDbEntity
  8
0
  6
Continuous
 62
     7
370
     0
100
AcDbLine
 10
278.5946145491998
 20
227.8000013074798
 30
0.0
 11
278.4876642411222
 21
227.8223805423615
 31
0.0
  0
LINE
  5
62BA
330
A
100
AcDbEntity
  8
0
  6
Continuous
 62
     7
370
     0
100
AcDbLine
 10
278.4876642411222
 20
227.8223805423615
 30
0.0
 11
278.3786685969606
 21
227.8891394703069
 31
0.0
  0
LINE
  5
62BB
330
A
100
AcDbEntity
  8
0
  6
Continuous
 62
     7
370
     0
100
AcDbLine
 10
278.3786685969606
 20
227.8891394703069
 30
0.0
 11
278.2652367419033
 21
228.0037511068004
 31
0.0
  0
ARC
  5
62BC
330
A
100
AcDbEntity
  8
0
  6
Continuous
 62
     7
370
     0
100
AcDbCircle
 10
293.5158053927263
 20
234.1158084510704
 30
0.0
 40
16.42976229752304
100
AcDbArc
 50
169.177605367279
 51
201.8397133756764
  0
ARC
  5
62BD
330
A
100
AcDbEntity
  8
0
  6
Continuous
 62
     7
370
     0
100
AcDbCircle
 10
285.0792035178102
 20
236.3579309154591
 30
0.0
 40
7.746922573272981
100
AcDbArc
 50
152.9838836673643
 51
173.7542222814497
  0
LINE
  5
62BE
330
A
100
AcDbEntity
  8
0
  6
Continuous
 62
     7
370
     0
100
AcDbLine
 10
278.1776345164717
 20
239.8769015996297
 30
0.0
 11
278.2886637902022
 21
240.0236368021092
 31
0.0
  0
LINE
  5
62BF
330
A
100
AcDbEntity
  8
0
  6
Continuous
 62
     7
370
     0
100
AcDbLine
 10
278.2886637902022
 20
240.0236368021092
 30
0.0
 11
278.4008445819948
 21
240.1279193889731
 31
0.0
  0
LINE
  5
62C0
330
A
100
AcDbEntity
  8
0
  6
Continuous
 62
     7
370
     0
100
AcDbLine
 10
278.4008445819948
 20
240.1279193889731
 30
0.0
 11
278.5105200796731
 21
240.186095420114
 31
0.0
  0
LINE
  5
62C1
330
A
100
AcDbEntity
  8
0
  6
Continuous
 62
     7
370
     0
100
AcDbLine
 10
278.5105200796731
 20
240.186095420114
 30
0.0
 11
278.5946118115082
 21
240.2000013074647
 31
0.0
  0
CIRCLE
  5
647F
330
A
100
AcDbEntity
  8
0
  6
CENTER
 62
     1
100
AcDbCircle
 10
386.3500000000638
 20
234.0000013074998
 30
0.0
 40
7.0
  0
CIRCLE
  5
6480
330
A
100
AcDbEntity
  8
0
  6
CENTER
 62
     1
100
AcDbCircle
 10
386.3500000000638
 20
184.0000013074997
 30
0.0
 40
7.0
  0
CIRCLE
  5
6481
330
A
100
AcDbEntity
  8
0
  6
CENTER
 62
     1
100
AcDbCircle
 10
296.3464156138208
 20
234.000001307455
 30
0.0
 40
7.0
  0
CIRCLE
  5
6482
330
A
100
AcDbEntity
  8
0
  6
CENTER
 62
     1
100
AcDbCircle
 10
296.3464156138208
 20
184.0000013074549
 30
0.0
 40
7.0
  0
ENDSEC
  0
SECTION
  2
OBJECTS
  0
DICTIONARY
  5
19
330
0
100
AcDbDictionary
281
     1
  3
ACAD_COLOR
350
3176
  3
ACAD_GROUP
350
1A
  3
ACAD_LAYOUT
350
1E
  3
ACAD_MATERIAL
350
314C
  3
ACAD_MLEADERSTYLE
350
319B
  3
ACAD_MLINESTYLE
350
1B
  3
ACAD_PLOTSETTINGS
350
22
  3
ACAD_PLOTSTYLENAME
350
1F
  3
ACAD_SCALELIST
350
3179
  3
ACAD_TABLESTYLE
350
3177
  3
ACAD_VISUALSTYLE
350
3165
  3
ACAD_WIPEOUT_VARS
350
23
  3
ACDB_RECOMPOSE_DATA
350
630A
  3
AcDbVariableDictionary
350
630B
  3
ASE_INDEX_DICTIONARY
350
5E44
  3
DWGPROPS
350
648B
  0
DICTIONARY
  5
5E41
330
14
100
AcDbDictionary
280
     1
281
     1
  3
ADSK_XREC_LAYER_RECONCILED
360
5E42
  0
DICTIONARY
  5
31A7
330
A
100
AcDbDictionary
280
     1
281
     1
  3
ACAD_SORTENTS
360
31A8
  0
DICTIONARY
  5
3176
102
{ACAD_REACTORS
330
19
102
}
330
19
100
AcDbDictionary
281
     1
  0
DICTIONARY
  5
1A
102
{ACAD_REACTORS
330
19
102
}
330
19
100
AcDbDictionary
281
     1
  0
DICTIONARY
  5
1E
102
{ACAD_REACTORS
330
19
102
}
330
19
100
AcDbDictionary
281
     1
  3
Layout1
350
21
  3
Model
350
20
  0
DICTIONARY
  5
314C
102
{ACAD_REACTORS
330
19
102
}
330
19
100
AcDbDictionary
281
     1
  3
ByBlock
350
3155
  3
ByLayer
350
314D
  3
Global
350
315D
  0
DICTIONARY
  5
319B
102
{ACAD_REACTORS
330
19
102
}
330
19
100
AcDbDictionary
281
     1
  3
Standard
350
319C
  0
DICTIONARY
  5
1B
102
{ACAD_REACTORS
330
19
102
}
330
19
100
AcDbDictionary
281
     1
  3
Standard
350
1C
  0
DICTIONARY
  5
22
102
{ACAD_REACTORS
330
19
102
}
330
19
100
AcDbDictionary
281
     1
  0
ACDBDICTIONARYWDFLT
  5
1F
102
{ACAD_REACTORS
330
19
102
}
330
19
100
AcDbDictionary
281
     1
  3
Normal
350
1D
100
AcDbDictionaryWithDefault
340
1D
  0
DICTIONARY
  5
3179
102
{ACAD_REACTORS
330
19
102
}
330
19
100
AcDbDictionary
281
     1
  3
A0
350
317A
  3
A1
350
317B
  3
A2
350
317C
  3
A3
350
317D
  3
A4
350
317E
  3
A5
350
317F
  3
A6
350
3180
  3
A7
350
3181
  3
A8
350
3182
  3
A9
350
3183
  3
B0
350
3184
  3
B1
350
3185
  3
B2
350
3186
  3
B3
350
3187
  3
B4
350
3188
  3
B5
350
3189
  3
B6
350
318A
  3
B7
350
318B
  3
B8
350
318C
  3
B9
350
318D
  3
C0
350
318E
  3
C1
350
318F
  3
C2
350
3190
  3
C3
350
3191
  3
C4
350
3192
  3
C5
350
3193
  3
C6
350
3194
  3
C7
350
3195
  3
C8
350
3196
  3
C9
350
3197
  3
D0
350
3198
  3
D1
350
3199
  3
D2
350
319A
  0
DICTIONARY
  5
3177
102
{ACAD_REACTORS
330
19
102
}
330
19
100
AcDbDictionary
281
     1
  3
Standard
350
3178
  0
DICTIONARY
  5
3165
102
{ACAD_REACTORS
330
19
102
}
330
19
100
AcDbDictionary
281
     1
  3
2dWireframe
350
316B
  3
3D Hidden
350
316D
  3
3dWireframe
350
316C
  3
Basic
350
316A
  3
Brighten
350
3171
  3
ColorChange
350
3175
  3
Conceptual
350
316E
  3
Dim
350
3170
  3
Facepattern
350
3174
  3
Flat
350
3166
  3
FlatWithEdges
350
3167
  3
Gouraud
350
3168
  3
GouraudWithEdges
350
3169
  3
Linepattern
350
3173
  3
Realistic
350
316F
  3
Thicken
350
3172
  0
WIPEOUTVARIABLES
  5
23
330
19
100
AcDbWipeoutVariables
 70
     1
  0
XRECORD
  5
630A
102
{ACAD_REACTORS
330
19
102
}
330
19
100
AcDbXrecord
280
     1
 90
        1
330
3178
  0
DICTIONARY
  5
630B
102
{ACAD_REACTORS
330
19
102
}
330
19
100
AcDbDictionary
281
     1
  3
CANNOSCALE
350
630F
  3
CMLEADERSTYLE
350
630D
  3
CTABLESTYLE
350
630C
  3
DIMASSOC
350
6318
  3
INDEXCTL
350
6317
  3
LIGHTINGUNITS
350
6310
  3
MSLTSCALE
350
630E
  3
SORTENTS
350
6316
  0
DICTIONARY
  5
5E44
102
{ACAD_REACTORS
330
19
102
}
330
19
100
AcDbDictionary
281
     1
  3
ASEBlockHierarchyIndexRecord
350
5E46
1001
DCO15
1040
1685075681.336
  0
XRECORD
  5
648B
102
{ACAD_REACTORS
330
19
102
}
330
19
100
AcDbXrecord
280
     1
  1
DWGPROPS COOKIE
  2

  3

  4

  6

  7

  8
renzo.ceresoli
  9

300
=
301
=
302
=
303
=
304
=
305
=
306
=
307
=
308
=
309
=
 40
0.0019627893518519
 41
2455303.727916667
 42
2455306.407103947
  1

 90
        0
  0
XRECORD
  5
5E42
102
{ACAD_REACTORS
330
5E41
102
}
330
5E41
100
AcDbXrecord
280
     1
290
     1
  0
SORTENTSTABLE
  5
31A8
102
{ACAD_REACTORS
330
31A7
102
}
330
31A7
100
AcDbSortentsTable
330
A
331
5A01
  5
3476
331
5A14
  5
3489
331
5B7A
  5
32E6
331
5A63
  5
34D8
331
5A2D
  5
34A2
331
5A48
  5
34BD
331
5C04
  5
3237
331
5C17
  5
324A
331
5C32
  5
327E
331
5BCE
  5
3337
331
5BE9
  5
3363
331
5B0E
  5
3402
331
5B29
  5
3376
331
5B44
  5
3391
331
5AC5
  5
33B9
331
5AE0
  5
33D4
331
5AFB
  5
33EF
331
5C4B
  5
32A4
331
5C66
  5
31BD
331
5C81
  5
31D8
331
5C94
  5
31EB
331
5B5D
  5
33AA
331
4D6
  5
34EC
331
59FF
  5
3474
331
5A12
  5
3487
331
5B78
  5
32C3
331
5A61
  5
34D6
331
5A2B
  5
34A0
331
5A46
  5
34BB
331
5C02
  5
3235
331
5C15
  5
3248
331
5C30
  5
3278
331
5BA1
  5
3320
331
5BCC
  5
3335
331
5BE7
  5
3361
331
5B0C
  5
3400
331
5B27
  5
3374
331
5B42
  5
338F
331
5AC3
  5
33B7
331
5ADE
  5
33D2
331
5AF9
  5
33ED
331
5C49
  5
32A2
331
5C64
  5
31BB
331
5C7F
  5
31D6
331
5C2E
  5
3272
331
5C92
  5
31E9
331
5B76
  5
32C1
331
5B5B
  5
33A8
331
4D4
  5
34EA
331
4ED
  5
3503
331
5A10
  5
3485
331
59FD
  5
3472
331
5A5F
  5
34D4
331
5A29
  5
349E
331
5A44
  5
34B9
331
5C00
  5
3233
331
5C13
  5
3246
331
5BCA
  5
3333
331
5BE5
  5
3358
331
5B0A
  5
33FE
331
5B25
  5
3372
331
5B40
  5
338D
331
5AC1
  5
33B5
331
5ADC
  5
33D0
331
5AF7
  5
33EB
331
5C62
  5
31B9
331
5C7D
  5
31D4
331
5C90
  5
31E7
331
5C2C
  5
3269
331
5C47
  5
32A0
331
5B74
  5
32BF
331
5B3E
  5
338B
331
5B59
  5
33A6
331
4D2
  5
34E8
331
4EB
  5
3501
331
59FB
  5
3470
331
5A5D
  5
34D2
331
5A27
  5
349C
331
5A42
  5
34B7
331
5BFE
  5
3231
331
5C11
  5
3244
331
5BC8
  5
3331
331
5BE3
  5
3356
331
5B08
  5
33FC
331
5B23
  5
3370
331
5ABF
  5
33B3
331
5ADA
  5
33CE
331
5AF5
  5
33E9
331
5C60
  5
31B7
331
5C7B
  5
31D2
331
5C8E
  5
31E5
331
5C2A
  5
3267
331
5C45
  5
329E
331
5B72
  5
32BD
331
5B3C
  5
3389
331
5B57
  5
33A4
331
4E9
  5
34FF
331
59F9
  5
346E
331
5A25
  5
349A
331
5A40
  5
34B5
331
59F7
  5
346C
331
5A5B
  5
34D0
331
5BFC
  5
3222
331
5BC6
  5
332F
331
5BE1
  5
3354
331
5B21
  5
336E
331
5ABD
  5
33B1
331
5AD8
  5
33CC
331
5AF3
  5
33E7
331
5B06
  5
33FA
331
5C5E
  5
31B5
331
5C79
  5
31D0
331
5C8C
  5
31E3
331
5C28
  5
3265
331
5C43
  5
329C
331
5B70
  5
32BB
331
5B1F
  5
336C
331
5B3A
  5
3387
331
5B55
  5
33A2
331
4E7
  5
34FD
331
5A23
  5
3498
331
5A3E
  5
34B3
331
59F5
  5
346A
331
5A59
  5
34CE
331
5BC4
  5
332D
331
5BDF
  5
334D
331
5BFA
  5
3217
331
5ABB
  5
33AF
331
5AD6
  5
33CA
331
5AF1
  5
33E5
331
5B04
  5
33F8
331
5C5C
  5
31B3
331
5C77
  5
31CE
331
5C8A
  5
31E1
331
5C26
  5
3263
331
5C41
  5
329A
331
5B6E
  5
32B9
331
5B1D
  5
336A
331
5B38
  5
3385
331
5B53
  5
33A0
331
4E5
  5
34FB
331
5A72
  5
34E7
331
5A21
  5
3496
331
5A3C
  5
34B1
331
5A57
  5
34CC
331
59F3
  5
3468
331
5A0E
  5
3483
331
5B87
  5
331C
331
5BC2
  5
332B
331
5BDD
  5
334B
331
5BF8
  5
3215
331
5AD4
  5
33C8
331
5AEF
  5
33E3
331
5B02
  5
33F6
331
5AB9
  5
33AD
331
5C5A
  5
31B1
331
5C75
  5
31CC
331
5C88
  5
31DF
331
5C24
  5
3261
331
5C3F
  5
3298
331
5BF6
  5
3206
331
5B1B
  5
3368
331
5B36
  5
3383
331
5B51
  5
339E
331
5B6C
  5
32B7
331
4E3
  5
34F9
331
5A70
  5
34E5
331
5A1F
  5
3494
331
5A3A
  5
34AF
331
5A55
  5
34CA
331
59F1
  5
3466
331
5A0C
  5
3481
331
5BC0
  5
3329
331
5BDB
  5
3349
331
5B85
  5
331A
331
5AD2
  5
33C6
331
5AED
  5
33E1
331
5B00
  5
33F4
331
5A6E
  5
34E3
331
5C73
  5
31CA
331
5C0F
  5
3242
331
5C22
  5
325F
331
5C3D
  5
3296
331
5BF4
  5
31FB
331
5C58
  5
31AF
331
5B19
  5
3366
331
5B34
  5
3381
331
5B4F
  5
339C
331
5B6A
  5
32B5
331
4E1
  5
34F7
331
5A1D
  5
3492
331
5A38
  5
34AD
331
5A53
  5
34C8
331
59EF
  5
3464
331
5A0A
  5
347F
331
5BBE
  5
3327
331
5BD9
  5
3342
331
5B83
  5
3318
331
5AD0
  5
33C4
331
5AEB
  5
33DF
331
5A6C
  5
34E1
331
5C71
  5
31C8
331
5C0D
  5
3240
331
5C20
  5
325D
331
5C3B
  5
328F
331
5BD7
  5
3340
331
5BF2
  5
31F9
331
5C56
  5
31AD
331
5B32
  5
337F
331
5B4D
  5
339A
331
5B68
  5
32B3
331
5B17
  5
340B
331
5C6F
  5
31C6
331
4DF
  5
34F5
331
5A1B
  5
3490
331
5A36
  5
34AB
331
5A51
  5
34C6
331
59ED
  5
3462
331
5A08
  5
347D
331
5BBC
  5
3325
331
5B81
  5
3316
331
5ACE
  5
33C2
331
5AE9
  5
33DD
331
5A4F
  5
34C4
331
5A6A
  5
34DF
331
5C1E
  5
3256
331
5C39
  5
328D
331
5C54
  5
31AB
331
5BD5
  5
333E
331
5BF0
  5
31F7
331
5C0B
  5
323E
331
5B30
  5
337D
331
5B4B
  5
3398
331
5B66
  5
32B1
331
5AE7
  5
33DB
331
5B15
  5
3409
331
5C6D
  5
31C4
331
5C9B
  5
31F2
331
4DD
  5
34F3
331
5A19
  5
348E
331
5A34
  5
34A9
331
59EB
  5
3460
331
5A06
  5
347B
331
5B7F
  5
3314
331
5ACC
  5
33C0
331
5A4D
  5
34C2
331
5A68
  5
34DD
331
5C1C
  5
3254
331
5C37
  5
3283
331
5C52
  5
31A9
331
5BD3
  5
333C
331
5BEE
  5
31F5
331
5C09
  5
323C
331
5B2E
  5
337B
331
5B49
  5
3396
331
5B64
  5
32AF
331
5AE5
  5
33D9
331
5B13
  5
3407
331
5C6B
  5
31C2
331
5C86
  5
31DD
331
5C99
  5
31F0
331
4DB
  5
34F1
331
5A32
  5
34A7
331
5A04
  5
3479
331
5A17
  5
348C
331
5B7D
  5
32FC
331
5A4B
  5
34C0
331
5A66
  5
34DB
331
5ACA
  5
33BE
331
5C1A
  5
324D
331
5C35
  5
3281
331
5C50
  5
32A9
331
5BD1
  5
333A
331
5BEC
  5
31F3
331
5C07
  5
323A
331
5B2C
  5
3379
331
5B47
  5
3394
331
5B62
  5
32AD
331
5AE3
  5
33D7
331
5AFE
  5
33F2
331
5B11
  5
3405
331
5C84
  5
31DB
331
5C97
  5
31EE
331
5C4E
  5
32A7
331
5C69
  5
31C0
331
4D9
  5
34EF
331
5A30
  5
34A5
331
5A02
  5
3477
331
5A15
  5
348A
331
5B7B
  5
32EB
331
5A2E
  5
34A3
331
5A49
  5
34BE
331
5A64
  5
34D9
331
5AC8
  5
33BC
331
5C18
  5
324B
331
5C33
  5
327F
331
5BCF
  5
3338
331
5BEA
  5
3364
331
5C05
  5
3238
331
5B2A
  5
3377
331
5B45
  5
3392
331
5B60
  5
32AB
331
5AE1
  5
33D5
331
5AFC
  5
33F0
331
5B0F
  5
3403
331
5AC6
  5
33BA
331
5C82
  5
31D9
331
5C95
  5
31EC
331
5C4C
  5
32A5
331
5C67
  5
31BE
331
5B5E
  5
33AB
331
4D7
  5
34ED
331
5A00
  5
3475
331
5A13
  5
3488
331
5B79
  5
32D3
331
5A2C
  5
34A1
331
5A47
  5
34BC
331
5A62
  5
34D7
331
5C16
  5
3249
331
5C31
  5
327D
331
5BCD
  5
3336
331
5BE8
  5
3362
331
5C03
  5
3236
331
5BA2
  5
3321
331
5B43
  5
3390
331
5ADF
  5
33D3
331
5AFA
  5
33EE
331
5B0D
  5
3401
331
5AC4
  5
33B8
331
5B28
  5
3375
331
5C80
  5
31D7
331
5C93
  5
31EA
331
5C2F
  5
3273
331
5C4A
  5
32A3
331
5C65
  5
31BC
331
5B5C
  5
33A9
331
5B77
  5
32C2
331
4D5
  5
34EB
331
59FE
  5
3473
331
5A11
  5
3486
331
5A2A
  5
349F
331
5A45
  5
34BA
331
5A60
  5
34D5
331
5BCB
  5
3334
331
5BE6
  5
3360
331
5C01
  5
3234
331
5C14
  5
3247
331
5B41
  5
338E
331
5ADD
  5
33D1
331
5AF8
  5
33EC
331
5B0B
  5
33FF
331
5AC2
  5
33B6
331
5B26
  5
3373
331
5C7E
  5
31D5
331
5C91
  5
31E8
331
5C2D
  5
3271
331
5C48
  5
32A1
331
5C63
  5
31BA
331
5B3F
  5
338C
331
5B5A
  5
33A7
331
5B75
  5
32C0
331
4D3
  5
34E9
331
4EC
  5
3502
331
59FC
  5
3471
331
5A43
  5
34B8
331
5A5E
  5
34D3
331
5A28
  5
349D
331
5BC9
  5
3332
331
5BE4
  5
3357
331
5BFF
  5
3232
331
5C12
  5
3245
331
5AF6
  5
33EA
331
5B09
  5
33FD
331
5B24
  5
3371
331
5AC0
  5
33B4
331
5ADB
  5
33CF
331
5C7C
  5
31D3
331
5C8F
  5
31E6
331
5C2B
  5
3268
331
5C46
  5
329F
331
5C61
  5
31B8
331
5B3D
  5
338A
331
5B58
  5
33A5
331
5B73
  5
32BE
331
4EA
  5
3500
331
59FA
  5
346F
331
5A41
  5
34B6
331
5A5C
  5
34D1
331
5A26
  5
349B
331
5BE2
  5
3355
331
5BFD
  5
3230
331
5C10
  5
3243
331
5BC7
  5
3330
331
5AF4
  5
33E8
331
5B07
  5
33FB
331
5B22
  5
336F
331
5ABE
  5
33B2
331
5AD9
  5
33CD
331
5C8D
  5
31E4
331
5C29
  5
3266
331
5C44
  5
329D
331
5C5F
  5
31B6
331
5C7A
  5
31D1
331
5B3B
  5
3388
331
5B56
  5
33A3
331
5B71
  5
32BC
331
4E8
  5
34FE
331
59F8
  5
346D
331
5A3F
  5
34B4
331
5A5A
  5
34CF
331
59F6
  5
346B
331
5A24
  5
3499
331
5BE0
  5
334E
331
5BFB
  5
3221
331
5BC5
  5
332E
331
5AF2
  5
33E6
331
5B05
  5
33F9
331
5B20
  5
336D
331
5ABC
  5
33B0
331
5AD7
  5
33CB
331
5C8B
  5
31E2
331
5C27
  5
3264
331
5C42
  5
329B
331
5C5D
  5
31B4
331
5C78
  5
31CF
331
5B54
  5
33A1
331
5B6F
  5
32BA
331
5B1E
  5
336B
331
5B39
  5
3386
331
4E6
  5
34FC
331
5A3D
  5
34B2
331
5A58
  5
34CD
331
59F4
  5
3469
331
5A0F
  5
3484
331
5A22
  5
3497
331
5BDE
  5
334C
331
5BF9
  5
3216
331
5B88
  5
331D
331
5BC3
  5
332C
331
5AF0
  5
33E4
331
5B03
  5
33F7
331
5ABA
  5
33AE
331
5AD5
  5
33C9
331
5C89
  5
31E0
331
5C40
  5
3299
331
5C5B
  5
31B2
331
5C76
  5
31CD
331
5BF7
  5
3207
331
5C25
  5
3262
331
5B52
  5
339F
331
5B6D
  5
32B8
331
5B1C
  5
3369
331
5B37
  5
3384
331
4E4
  5
34FA
331
5A3B
  5
34B0
331
5A56
  5
34CB
331
5A71
  5
34E6
331
59F2
  5
3467
331
5A0D
  5
3482
331
5A20
  5
3495
331
5BDC
  5
334A
331
5B86
  5
331B
331
5BC1
  5
332A
331
5AEE
  5
33E2
331
5B01
  5
33F5
331
5A6F
  5
34E4
331
5AD3
  5
33C7
331
5C3E
  5
3297
331
5C59
  5
31B0
331
5C74
  5
31CB
331
5BF5
  5
3205
331
5C23
  5
3260
331
5B50
  5
339D
331
5B6B
  5
32B6
331
5B1A
  5
3367
331
5B35
  5
3382
331
4E2
  5
34F8
331
5A54
  5
34C9
331
59F0
  5
3465
331
5A0B
  5
3480
331
5A1E
  5
3493
331
5A39
  5
34AE
331
5BDA
  5
3348
331
5B84
  5
3319
331
5BBF
  5
3328
331
5A6D
  5
34E2
331
5AD1
  5
33C5
331
5AEC
  5
33E0
331
5C3C
  5
3290
331
5C57
  5
31AE
331
5C72
  5
31C9
331
5BF3
  5
31FA
331
5C0E
  5
3241
331
5C21
  5
325E
331
5B4E
  5
339B
331
5B69
  5
32B4
331
5B18
  5
340C
331
5B33
  5
3380
331
4E0
  5
34F6
331
5A52
  5
34C7
331
59EE
  5
3463
331
5A09
  5
347E
331
5A1C
  5
3491
331
5A37
  5
34AC
331
5B82
  5
3317
331
5BBD
  5
3326
331
5BD8
  5
3341
331
5ACF
  5
33C3
331
5A6B
  5
34E0
331
5AEA
  5
33DE
331
5C3A
  5
328E
331
5C55
  5
31AC
331
5C70
  5
31C7
331
5BF1
  5
31F8
331
5C0C
  5
323F
331
5C1F
  5
325C
331
5BD6
  5
333F
331
5B4C
  5
3399
331
5B67
  5
32B2
331
5B16
  5
340A
331
5B31
  5
337E
331
5C6E
  5
31C5
331
4DE
  5
34F4
331
5A50
  5
34C5
331
5A07
  5
347C
331
5A1A
  5
348F
331
5A35
  5
34AA
331
59EC
  5
3461
331
5B80
  5
3315
331
5BBB
  5
3324
331
5ACD
  5
33C1
331
5AE8
  5
33DC
331
5A4E
  5
34C3
331
5A69
  5
34DE
331
5C38
  5
3288
331
5C53
  5
31AA
331
5BEF
  5
31F6
331
5C0A
  5
323D
331
5C1D
  5
3255
331
5BD4
  5
333D
331
5B65
  5
32B0
331
5B14
  5
3408
331
5B2F
  5
337C
331
5AE6
  5
33DA
331
5B4A
  5
3397
331
5C9A
  5
31F1
331
5C6C
  5
31C3
331
5C87
  5
31DE
331
4DC
  5
34F2
331
5A05
  5
347A
331
5A18
  5
348D
331
5A33
  5
34A8
331
59EA
  5
345F
331
5B7E
  5
330F
331
5ACB
  5
33BF
331
5A4C
  5
34C1
331
5A67
  5
34DC
331
5C51
  5
32AA
331
5BED
  5
31F4
331
5C08
  5
323B
331
5C1B
  5
3253
331
5BD2
  5
333B
331
5C36
  5
3282
331
5B63
  5
32AE
331
5AFF
  5
33F3
331
5B12
  5
3406
331
5B2D
  5
337A
331
5AE4
  5
33D8
331
5B48
  5
3395
331
5C98
  5
31EF
331
5C4F
  5
32A8
331
5C6A
  5
31C1
331
5C85
  5
31DC
331
4DA
  5
34F0
331
5A03
  5
3478
331
5A16
  5
348B
331
5A31
  5
34A6
331
5B7C
  5
32EC
331
5AC9
  5
33BD
331
5A65
  5
34DA
331
5A2F
  5
34A4
331
5A4A
  5
34BF
331
5BEB
  5
3365
331
5C06
  5
3239
331
5C19
  5
324C
331
5BD0
  5
3339
331
5C34
  5
3280
331
5B61
  5
32AC
331
5B10
  5
3404
331
5B2B
  5
3378
331
5B46
  5
3393
331
5AC7
  5
33BB
331
5AE2
  5
33D6
331
5AFD
  5
33F1
331
5C96
  5
31ED
331
5C4D
  5
32A6
331
5C68
  5
31BF
331
5C83
  5
31DA
331
5B5F
  5
33AC
331
4D8
  5
34EE
  0
LAYOUT
  5
21
102
{ACAD_XDICTIONARY
360
648E
102
}
102
{ACAD_REACTORS
330
1E
102
}
330
1E
100
AcDbPlotSettings
  1

  2

  4

  6

 40
0.0
 41
0.0
 42
0.0
 43
0.0
 44
0.0
 45
0.0
 46
0.0
 47
0.0
 48
0.0
 49
0.0
140
0.0
141
0.0
142
1.0
143
1.0
 70
     0
 72
     0
 73
     0
 74
     0
  7

 75
     0
147
1.0
148
0.0
149
0.0
100
AcDbLayout
  1
Layout1
 70
     0
 71
     1
 10
0.0
 20
0.0
 11
12.0
 21
9.0
 12
0.0
 22
0.0
 32
0.0
 14
1.000000000000000E+20
 24
1.000000000000000E+20
 34
1.000000000000000E+20
 15
-1.000000000000000E+20
 25
-1.000000000000000E+20
 35
-1.000000000000000E+20
146
0.0
 13
0.0
 23
0.0
 33
0.0
 16
1.0
 26
0.0
 36
0.0
 17
0.0
 27
1.0
 37
0.0
 76
     0
330
B
  0
LAYOUT
  5
20
102
{ACAD_XDICTIONARY
360
648C
102
}
102
{ACAD_REACTORS
330
1E
102
}
330
1E
100
AcDbPlotSettings
  1

  2

  4

  6

 40
0.0
 41
0.0
 42
0.0
 43
0.0
 44
0.0
 45
0.0
 46
0.0
 47
0.0
 48
0.0
 49
0.0
140
0.0
141
0.0
142
1.0
143
1.0
 70
  1024
 72
     0
 73
     0
 74
     0
  7

 75
     0
147
1.0
148
0.0
149
0.0
100
AcDbLayout
  1
Model
 70
     0
 71
     0
 10
0.0
 20
0.0
 11
0.0
 21
0.0
 12
0.0
 22
0.0
 32
0.0
 14
0.0
 24
0.0
 34
0.0
 15
0.0
 25
0.0
 35
0.0
146
0.0
 13
0.0
 23
0.0
 33
0.0
 16
0.0
 26
0.0
 36
0.0
 17
0.0
 27
0.0
 37
0.0
 76
     0
330
A
331
15
  0
MATERIAL
  5
3155
102
{ACAD_XDICTIONARY
360
3156
102
}
102
{ACAD_REACTORS
330
314C
102
}
330
314C
100
AcDbMaterial
  1
ByBlock
 72
     0
 43
0.0208333333333333
 43
0.0
 43
0.0
 43
0.0
 43
0.0
 43
0.0208333333333333
 43
0.0
 43
0.0
 43
0.0
 43
0.0
 43
1.0
 43
0.0
 43
0.0
 43
0.0
 43
0.0
 43
1.0
 77
     0
 47
0.0208333333333333
 47
0.0
 47
0.0
 47
0.0
 47
0.0
 47
0.0208333333333333
 47
0.0
 47
0.0
 47
0.0
 47
0.0
 47
1.0
 47
0.0
 47
0.0
 47
0.0
 47
0.0
 47
1.0
171
     0
 49
0.0208333333333333
 49
0.0
 49
0.0
 49
0.0
 49
0.0
 49
0.0208333333333333
 49
0.0
 49
0.0
 49
0.0
 49
0.0
 49
1.0
 49
0.0
 49
0.0
 49
0.0
 49
0.0
 49
1.0
175
     0
142
0.0208333333333333
142
0.0
142
0.0
142
0.0
142
0.0
142
0.0208333333333333
142
0.0
142
0.0
142
0.0
142
0.0
142
1.0
142
0.0
142
0.0
142
0.0
142
0.0
142
1.0
179
     0
144
0.0208333333333333
144
0.0
144
0.0
144
0.0
144
0.0
144
0.0208333333333333
144
0.0
144
0.0
144
0.0
144
0.0
144
1.0
144
0.0
144
0.0
144
0.0
144
0.0
144
1.0
147
0.0208333333333333
147
0.0
147
0.0
147
0.0
147
0.0
147
0.0208333333333333
147
0.0
147
0.0
147
0.0
147
0.0
147
1.0
147
0.0
147
0.0
147
0.0
147
0.0
147
1.0
  0
MATERIAL
  5
314D
102
{ACAD_XDICTIONARY
360
314E
102
}
102
{ACAD_REACTORS
330
314C
102
}
330
314C
100
AcDbMaterial
  1
ByLayer
 72
     0
 43
0.0208333333333333
 43
0.0
 43
0.0
 43
0.0
 43
0.0
 43
0.0208333333333333
 43
0.0
 43
0.0
 43
0.0
 43
0.0
 43
1.0
 43
0.0
 43
0.0
 43
0.0
 43
0.0
 43
1.0
 77
     0
 47
0.0208333333333333
 47
0.0
 47
0.0
 47
0.0
 47
0.0
 47
0.0208333333333333
 47
0.0
 47
0.0
 47
0.0
 47
0.0
 47
1.0
 47
0.0
 47
0.0
 47
0.0
 47
0.0
 47
1.0
171
     0
 49
0.0208333333333333
 49
0.0
 49
0.0
 49
0.0
 49
0.0
 49
0.0208333333333333
 49
0.0
 49
0.0
 49
0.0
 49
0.0
 49
1.0
 49
0.0
 49
0.0
 49
0.0
 49
0.0
 49
1.0
175
     0
142
0.0208333333333333
142
0.0
142
0.0
142
0.0
142
0.0
142
0.0208333333333333
142
0.0
142
0.0
142
0.0
142
0.0
142
1.0
142
0.0
142
0.0
142
0.0
142
0.0
142
1.0
179
     0
144
0.0208333333333333
144
0.0
144
0.0
144
0.0
144
0.0
144
0.0208333333333333
144
0.0
144
0.0
144
0.0
144
0.0
144
1.0
144
0.0
144
0.0
144
0.0
144
0.0
144
1.0
147
0.0208333333333333
147
0.0
147
0.0
147
0.0
147
0.0
147
0.0208333333333333
147
0.0
147
0.0
147
0.0
147
0.0
147
1.0
147
0.0
147
0.0
147
0.0
147
0.0
147
1.0
  0
MATERIAL
  5
315D
102
{ACAD_XDICTIONARY
360
315E
102
}
102
{ACAD_REACTORS
330
314C
102
}
330
314C
100
AcDbMaterial
  1
Global
 72
     0
 43
0.0208333333333333
 43
0.0
 43
0.0
 43
0.0
 43
0.0
 43
0.0208333333333333
 43
0.0
 43
0.0
 43
0.0
 43
0.0
 43
1.0
 43
0.0
 43
0.0
 43
0.0
 43
0.0
 43
1.0
 77
     0
 47
0.0208333333333333
 47
0.0
 47
0.0
 47
0.0
 47
0.0
 47
0.0208333333333333
 47
0.0
 47
0.0
 47
0.0
 47
0.0
 47
1.0
 47
0.0
 47
0.0
 47
0.0
 47
0.0
 47
1.0
171
     0
 49
0.0208333333333333
 49
0.0
 49
0.0
 49
0.0
 49
0.0
 49
0.0208333333333333
 49
0.0
 49
0.0
 49
0.0
 49
0.0
 49
1.0
 49
0.0
 49
0.0
 49
0.0
 49
0.0
 49
1.0
175
     0
142
0.0208333333333333
142
0.0
142
0.0
142
0.0
142
0.0
142
0.0208333333333333
142
0.0
142
0.0
142
0.0
142
0.0
142
1.0
142
0.0
142
0.0
142
0.0
142
0.0
142
1.0
179
     0
144
0.0208333333333333
144
0.0
144
0.0
144
0.0
144
0.0
144
0.0208333333333333
144
0.0
144
0.0
144
0.0
144
0.0
144
1.0
144
0.0
144
0.0
144
0.0
144
0.0
144
1.0
147
0.0208333333333333
147
0.0
147
0.0
147
0.0
147
0.0
147
0.0208333333333333
147
0.0
147
0.0
147
0.0
147
0.0
147
1.0
147
0.0
147
0.0
147
0.0
147
0.0
147
1.0
  0
MLEADERSTYLE
  5
319C
102
{ACAD_REACTORS
330
319B
102
}
330
319B
100
AcDbMLeaderStyle
170
     2
171
     1
172
     0
 90
        2
 40
0.0
 41
0.0
173
     1
 91
-1056964608
340
11
 92
       -2
290
     1
 42
2.0
291
     1
 43
0.36
  3
Standard
 44
4.0
300

342
17
174
     1
178
     6
175
     1
176
     0
 93
-1056964608
 45
4.0
292
     0
297
     0
 46
4.0
 94
-1056964608
 47
1.0
 49
1.0
140
1.0
293
     1
141
0.0
294
     1
177
     0
142
1.0
295
     0
296
     0
143
0.125
1001
ACAD_MLEADERVER
1070
     2
  0
MLINESTYLE
  5
1C
102
{ACAD_REACTORS
330
1B
102
}
330
1B
100
AcDbMlineStyle
  2
STANDARD
 70
     0
  3

 62
     0
 51
90.0
 52
90.0
 71
     2
 49
0.5
 62
   256
  6
BYLAYER
 49
-0.5
 62
   256
  6
BYLAYER
  0
ACDBPLACEHOLDER
  5
1D
102
{ACAD_REACTORS
330
1F
102
}
330
1F
  0
SCALE
  5
317A
102
{ACAD_REACTORS
330
3179
102
}
330
3179
100
AcDbScale
 70
     0
300
1:1
140
1.0
141
1.0
290
     1
  0
SCALE
  5
317B
102
{ACAD_REACTORS
330
3179
102
}
330
3179
100
AcDbScale
 70
     0
300
1:2
140
1.0
141
2.0
290
     0
  0
SCALE
  5
317C
102
{ACAD_REACTORS
330
3179
102
}
330
3179
100
AcDbScale
 70
     0
300
1:4
140
1.0
141
4.0
290
     0
  0
SCALE
  5
317D
102
{ACAD_REACTORS
330
3179
102
}
330
3179
100
AcDbScale
 70
     0
300
1:5
140
1.0
141
5.0
290
     0
  0
SCALE
  5
317E
102
{ACAD_REACTORS
330
3179
102
}
330
3179
100
AcDbScale
 70
     0
300
1:8
140
1.0
141
8.0
290
     0
  0
SCALE
  5
317F
102
{ACAD_REACTORS
330
3179
102
}
330
3179
100
AcDbScale
 70
     0
300
1:10
140
1.0
141
10.0
290
     0
  0
SCALE
  5
3180
102
{ACAD_REACTORS
330
3179
102
}
330
3179
100
AcDbScale
 70
     0
300
1:16
140
1.0
141
16.0
290
     0
  0
SCALE
  5
3181
102
{ACAD_REACTORS
330
3179
102
}
330
3179
100
AcDbScale
 70
     0
300
1:20
140
1.0
141
20.0
290
     0
  0
SCALE
  5
3182
102
{ACAD_REACTORS
330
3179
102
}
330
3179
100
AcDbScale
 70
     0
300
1:30
140
1.0
141
30.0
290
     0
  0
SCALE
  5
3183
102
{ACAD_REACTORS
330
3179
102
}
330
3179
100
AcDbScale
 70
     0
300
1:40
140
1.0
141
40.0
290
     0
  0
SCALE
  5
3184
102
{ACAD_REACTORS
330
3179
102
}
330
3179
100
AcDbScale
 70
     0
300
1:50
140
1.0
141
50.0
290
     0
  0
SCALE
  5
3185
102
{ACAD_REACTORS
330
3179
102
}
330
3179
100
AcDbScale
 70
     0
300
1:100
140
1.0
141
100.0
290
     0
  0
SCALE
  5
3186
102
{ACAD_REACTORS
330
3179
102
}
330
3179
100
AcDbScale
 70
     0
300
2:1
140
2.0
141
1.0
290
     0
  0
SCALE
  5
3187
102
{ACAD_REACTORS
330
3179
102
}
330
3179
100
AcDbScale
 70
     0
300
4:1
140
4.0
141
1.0
290
     0
  0
SCALE
  5
3188
102
{ACAD_REACTORS
330
3179
102
}
330
3179
100
AcDbScale
 70
     0
300
8:1
140
8.0
141
1.0
290
     0
  0
SCALE
  5
3189
102
{ACAD_REACTORS
330
3179
102
}
330
3179
100
AcDbScale
 70
     0
300
10:1
140
10.0
141
1.0
290
     0
  0
SCALE
  5
318A
102
{ACAD_REACTORS
330
3179
102
}
330
3179
100
AcDbScale
 70
     0
300
100:1
140
100.0
141
1.0
290
     0
  0
SCALE
  5
318B
102
{ACAD_REACTORS
330
3179
102
}
330
3179
100
AcDbScale
 70
     0
300
1/128" = 1'-0"
140
0.0078125
141
12.0
290
     0
  0
SCALE
  5
318C
102
{ACAD_REACTORS
330
3179
102
}
330
3179
100
AcDbScale
 70
     0
300
1/64" = 1'-0"
140
0.015625
141
12.0
290
     0
  0
SCALE
  5
318D
102
{ACAD_REACTORS
330
3179
102
}
330
3179
100
AcDbScale
 70
     0
300
1/32" = 1'-0"
140
0.03125
141
12.0
290
     0
  0
SCALE
  5
318E
102
{ACAD_REACTORS
330
3179
102
}
330
3179
100
AcDbScale
 70
     0
300
1/16" = 1'-0"
140
0.0625
141
12.0
290
     0
  0
SCALE
  5
318F
102
{ACAD_REACTORS
330
3179
102
}
330
3179
100
AcDbScale
 70
     0
300
3/32" = 1'-0"
140
0.09375
141
12.0
290
     0
  0
SCALE
  5
3190
102
{ACAD_REACTORS
330
3179
102
}
330
3179
100
AcDbScale
 70
     0
300
1/8" = 1'-0"
140
0.125
141
12.0
290
     0
  0
SCALE
  5
3191
102
{ACAD_REACTORS
330
3179
102
}
330
3179
100
AcDbScale
 70
     0
300
3/16" = 1'-0"
140
0.1875
141
12.0
290
     0
  0
SCALE
  5
3192
102
{ACAD_REACTORS
330
3179
102
}
330
3179
100
AcDbScale
 70
     0
300
1/4" = 1'-0"
140
0.25
141
12.0
290
     0
  0
SCALE
  5
3193
102
{ACAD_REACTORS
330
3179
102
}
330
3179
100
AcDbScale
 70
     0
300
3/8" = 1'-0"
140
0.375
141
12.0
290
     0
  0
SCALE
  5
3194
102
{ACAD_REACTORS
330
3179
102
}
330
3179
100
AcDbScale
 70
     0
300
1/2" = 1'-0"
140
0.5
141
12.0
290
     0
  0
SCALE
  5
3195
102
{ACAD_REACTORS
330
3179
102
}
330
3179
100
AcDbScale
 70
     0
300
3/4" = 1'-0"
140
0.75
141
12.0
290
     0
  0
SCALE
  5
3196
102
{ACAD_REACTORS
330
3179
102
}
330
3179
100
AcDbScale
 70
     0
300
1" = 1'-0"
140
1.0
141
12.0
290
     0
  0
SCALE
  5
3197
102
{ACAD_REACTORS
330
3179
102
}
330
3179
100
AcDbScale
 70
     0
300
1-1/2" = 1'-0"
140
1.5
141
12.0
290
     0
  0
SCALE
  5
3198
102
{ACAD_REACTORS
330
3179
102
}
330
3179
100
AcDbScale
 70
     0
300
3" = 1'-0"
140
3.0
141
12.0
290
     0
  0
SCALE
  5
3199
102
{ACAD_REACTORS
330
3179
102
}
330
3179
100
AcDbScale
 70
     0
300
6" = 1'-0"
140
6.0
141
12.0
290
     0
  0
SCALE
  5
319A
102
{ACAD_REACTORS
330
3179
102
}
330
3179
100
AcDbScale
 70
     0
300
1'-0" = 1'-0"
140
12.0
141
12.0
290
     0
  0
TABLESTYLE
  5
3178
102
{ACAD_XDICTIONARY
360
6308
102
}
102
{ACAD_REACTORS
330
3177
102
}
330
3177
100
AcDbTableStyle
  3
Standard
 70
     0
 71
     0
 40
1.5
 41
1.5
280
     0
281
     0
  7
Standard
140
4.5
170
     2
 62
     0
 63
     7
283
     0
274
    -2
284
     1
 64
     0
275
    -2
285
     1
 65
     0
276
    -2
286
     1
 66
     0
277
    -2
287
     1
 67
     0
278
    -2
288
     1
 68
     0
279
    -2
289
     1
 69
     0
  7
Standard
140
6.0
170
     5
 62
     0
 63
     7
283
     0
274
    -2
284
     1
 64
     0
275
    -2
285
     1
 65
     0
276
    -2
286
     1
 66
     0
277
    -2
287
     1
 67
     0
278
    -2
288
     1
 68
     0
279
    -2
289
     1
 69
     0
  7
Standard
140
4.5
170
     5
 62
     0
 63
     7
283
     0
274
    -2
284
     1
 64
     0
275
    -2
285
     1
 65
     0
276
    -2
286
     1
 66
     0
277
    -2
287
     1
 67
     0
278
    -2
288
     1
 68
     0
279
    -2
289
     1
 69
     0
  0
VISUALSTYLE
  5
316B
102
{ACAD_REACTORS
330
3165
102
}
330
3165
100
AcDbVisualStyle
  2
2dWireframe
 70
     4
 71
     0
 72
     2
 73
     0
 90
        0
 40
-0.6
 41
-30.0
 62
     5
 63
     7
 74
     1
 91
        4
 64
     7
 65
   257
 75
     1
175
     1
 42
1.0
 92
        0
 66
   257
 43
1.0
 76
     1
 77
     6
 78
     2
 67
     7
 79
     5
170
     0
171
     0
290
     0
174
     0
 93
        1
 44
0.0
173
     0
291
     0
 45
0.0
1001
ACAD
1000
AcDbSavedByObjectVersion
1070
     0
1000
AcDbSavedByObjectVersion
1070
     0
  0
VISUALSTYLE
  5
316D
102
{ACAD_REACTORS
330
3165
102
}
330
3165
100
AcDbVisualStyle
  2
3D Hidden
 70
     6
 71
     1
 72
     2
 73
     2
 90
        0
 40
-0.6
 41
-30.0
 62
     5
 63
     7
 74
     2
 91
        2
 64
     7
 65
   257
 75
     2
175
     1
 42
40.0
 92
        0
 66
   257
 43
1.0
 76
     1
 77
     6
 78
     2
 67
     7
 79
     3
170
     0
171
     0
290
     0
174
     0
 93
        1
 44
0.0
173
     0
291
     0
 45
0.0
1001
ACAD
1000
AcDbSavedByObjectVersion
1070
     0
1000
AcDbSavedByObjectVersion
1070
     0
  0
VISUALSTYLE
  5
316C
102
{ACAD_REACTORS
330
3165
102
}
330
3165
100
AcDbVisualStyle
  2
3dWireframe
 70
     5
 71
     0
 72
     2
 73
     0
 90
        0
 40
-0.6
 41
-30.0
 62
     5
 63
     7
 74
     1
 91
        4
 64
     7
 65
   257
 75
     1
175
     1
 42
1.0
 92
        0
 66
   257
 43
1.0
 76
     1
 77
     6
 78
     2
 67
     7
 79
     5
170
     0
171
     0
290
     0
174
     0
 93
        1
 44
0.0
173
     0
291
     0
 45
0.0
1001
ACAD
1000
AcDbSavedByObjectVersion
1070
     0
1000
AcDbSavedByObjectVersion
1070
     0
  0
VISUALSTYLE
  5
316A
102
{ACAD_REACTORS
330
3165
102
}
330
3165
100
AcDbVisualStyle
  2
Basic
 70
     7
 71
     1
 72
     0
 73
     1
 90
        0
 40
-0.6
 41
-30.0
 62
     5
 63
     7
 74
     0
 91
        4
 64
     7
 65
   257
 75
     1
175
     1
 42
1.0
 92
        8
 66
     7
 43
1.0
 76
     1
 77
     6
 78
     2
 67
     7
 79
     5
170
     0
171
     0
290
     0
174
     0
 93
        1
 44
0.0
173
     0
291
     1
 45
0.0
1001
ACAD
1000
AcDbSavedByObjectVersion
1070
     0
1000
AcDbSavedByObjectVersion
1070
     0
  0
VISUALSTYLE
  5
3171
102
{ACAD_REACTORS
330
3165
102
}
330
3165
100
AcDbVisualStyle
  2
Brighten
 70
    12
 71
     2
 72
     2
 73
     0
 90
        0
 40
-0.6
 41
-30.0
 62
     5
 63
     7
 74
     1
 91
        4
 64
     7
 65
   257
 75
     1
175
     1
 42
1.0
 92
        8
 66
     7
 43
1.0
 76
     1
 77
     6
 78
     2
 67
     7
 79
     5
170
     0
171
     0
290
     0
174
     0
 93
        1
 44
50.0
173
     0
291
     1
 45
0.0
1001
ACAD
1000
AcDbSavedByObjectVersion
1070
     0
1000
AcDbSavedByObjectVersion
1070
     0
  0
VISUALSTYLE
  5
3175
102
{ACAD_REACTORS
330
3165
102
}
330
3165
100
AcDbVisualStyle
  2
ColorChange
 70
    16
 71
     2
 72
     2
 73
     3
 90
        0
 40
-0.6
 41
-30.0
 62
     5
 63
     8
 74
     1
 91
        4
 64
     7
 65
   257
 75
     1
175
     1
 42
1.0
 92
        8
 66
     8
 43
1.0
 76
     1
 77
     6
 78
     2
 67
     7
 79
     5
170
     0
171
     0
290
     0
174
     0
 93
        1
 44
0.0
173
     0
291
     1
 45
0.0
1001
ACAD
1000
AcDbSavedByObjectVersion
1070
     0
1000
AcDbSavedByObjectVersion
1070
     0
  0
VISUALSTYLE
  5
316E
102
{ACAD_REACTORS
330
3165
102
}
330
3165
100
AcDbVisualStyle
  2
Conceptual
 70
     9
 71
     3
 72
     2
 73
     0
 90
        0
 40
-0.6
 41
-30.0
 62
     5
 63
     7
 74
     2
 91
        2
 64
     7
 65
   257
 75
     1
175
     1
 42
40.0
 92
        8
 66
     7
 43
1.0
 76
     1
 77
     6
 78
     2
 67
     7
 79
     3
170
     0
171
     0
290
     0
174
     0
 93
        1
 44
0.0
173
     0
291
     0
 45
0.0
1001
ACAD
1000
AcDbSavedByObjectVersion
1070
     0
1000
AcDbSavedByObjectVersion
1070
     0
  0
VISUALSTYLE
  5
3170
102
{ACAD_REACTORS
330
3165
102
}
330
3165
100
AcDbVisualStyle
  2
Dim
 70
    11
 71
     2
 72
     2
 73
     0
 90
        0
 40
-0.6
 41
-30.0
 62
     5
 63
     7
 74
     1
 91
        4
 64
     7
 65
   257
 75
     1
175
     1
 42
1.0
 92
        8
 66
     7
 43
1.0
 76
     1
 77
     6
 78
     2
 67
     7
 79
     5
170
     0
171
     0
290
     0
174
     0
 93
        1
 44
-50.0
173
     0
291
     1
 45
0.0
1001
ACAD
1000
AcDbSavedByObjectVersion
1070
     0
1000
AcDbSavedByObjectVersion
1070
     0
  0
VISUALSTYLE
  5
3174
102
{ACAD_REACTORS
330
3165
102
}
330
3165
100
AcDbVisualStyle
  2
Facepattern
 70
    15
 71
     2
 72
     2
 73
     0
 90
        0
 40
-0.6
 41
-30.0
 62
     5
 63
     7
 74
     1
 91
        4
 64
     7
 65
   257
 75
     1
175
     1
 42
1.0
 92
        8
 66
     7
 43
1.0
 76
     1
 77
     6
 78
     2
 67
     7
 79
     5
170
     0
171
     0
290
     0
174
     0
 93
        1
 44
0.0
173
     0
291
     1
 45
0.0
1001
ACAD
1000
AcDbSavedByObjectVersion
1070
     0
1000
AcDbSavedByObjectVersion
1070
     0
  0
VISUALSTYLE
  5
3166
102
{ACAD_REACTORS
330
3165
102
}
330
3165
100
AcDbVisualStyle
  2
Flat
 70
     0
 71
     2
 72
     1
 73
     1
 90
        2
 40
-0.6
 41
30.0
 62
     5
 63
     7
 74
     0
 91
        4
 64
     7
 65
   257
 75
     1
175
     1
 42
1.0
 92
        8
 66
     7
 43
1.0
 76
     1
 77
     6
 78
     2
 67
     7
 79
     5
170
     0
171
     0
290
     0
174
     0
 93
       13
 44
0.0
173
     0
291
     1
 45
0.0
1001
ACAD
1000
AcDbSavedByObjectVersion
1070
     0
1000
AcDbSavedByObjectVersion
1070
     0
  0
VISUALSTYLE
  5
3167
102
{ACAD_REACTORS
330
3165
102
}
330
3165
100
AcDbVisualStyle
  2
FlatWithEdges
 70
     1
 71
     2
 72
     1
 73
     1
 90
        2
 40
-0.6
 41
30.0
 62
     5
 63
     7
 74
     1
 91
        4
 64
     7
 65
   257
 75
     1
175
     1
 42
1.0
 92
        0
 66
   257
 43
1.0
 76
     1
 77
     6
 78
     2
 67
     7
 79
     5
170
     0
171
     0
290
     0
174
     0
 93
       13
 44
0.0
173
     0
291
     1
 45
0.0
1001
ACAD
1000
AcDbSavedByObjectVersion
1070
     0
1000
AcDbSavedByObjectVersion
1070
     0
  0
VISUALSTYLE
  5
3168
102
{ACAD_REACTORS
330
3165
102
}
330
3165
100
AcDbVisualStyle
  2
Gouraud
 70
     2
 71
     2
 72
     2
 73
     1
 90
        2
 40
-0.6
 41
30.0
 62
     5
 63
     7
 74
     0
 91
        4
 64
     7
 65
   257
 75
     1
175
     1
 42
1.0
 92
        0
 66
     7
 43
1.0
 76
     1
 77
     6
 78
     2
 67
     7
 79
     5
170
     0
171
     0
290
     0
174
     0
 93
       13
 44
0.0
173
     0
291
     1
 45
0.0
1001
ACAD
1000
AcDbSavedByObjectVersion
1070
     0
1000
AcDbSavedByObjectVersion
1070
     0
  0
VISUALSTYLE
  5
3169
102
{ACAD_REACTORS
330
3165
102
}
330
3165
100
AcDbVisualStyle
  2
GouraudWithEdges
 70
     3
 71
     2
 72
     2
 73
     1
 90
        2
 40
-0.6
 41
30.0
 62
     5
 63
     7
 74
     1
 91
        4
 64
     7
 65
   257
 75
     1
175
     1
 42
1.0
 92
        0
 66
   257
 43
1.0
 76
     1
 77
     6
 78
     2
 67
     7
 79
     5
170
     0
171
     0
290
     0
174
     0
 93
       13
 44
0.0
173
     0
291
     1
 45
0.0
1001
ACAD
1000
AcDbSavedByObjectVersion
1070
     0
1000
AcDbSavedByObjectVersion
1070
     0
  0
VISUALSTYLE
  5
3173
102
{ACAD_REACTORS
330
3165
102
}
330
3165
100
AcDbVisualStyle
  2
Linepattern
 70
    14
 71
     2
 72
     2
 73
     0
 90
        0
 40
-0.6
 41
-30.0
 62
     5
 63
     7
 74
     1
 91
        4
 64
     7
 65
   257
 75
     7
175
     7
 42
1.0
 92
        8
 66
     7
 43
1.0
 76
     1
 77
     6
 78
     2
 67
     7
 79
     5
170
     0
171
     0
290
     0
174
     0
 93
        1
 44
0.0
173
     0
291
     1
 45
0.0
1001
ACAD
1000
AcDbSavedByObjectVersion
1070
     0
1000
AcDbSavedByObjectVersion
1070
     0
  0
VISUALSTYLE
  5
316F
102
{ACAD_REACTORS
330
3165
102
}
330
3165
100
AcDbVisualStyle
  2
Realistic
 70
     8
 71
     2
 72
     2
 73
     0
 90
        0
 40
-0.6
 41
-30.0
 62
     5
 63
     7
 74
     1
 91
        0
 64
     7
 65
   257
 75
     1
175
     1
 42
1.0
 92
        8
 66
     8
 43
1.0
 76
     1
 77
     6
 78
     2
 67
     7
 79
     5
170
     0
171
     0
290
     0
174
     0
 93
       13
 44
0.0
173
     0
291
     0
 45
0.0
1001
ACAD
1000
AcDbSavedByObjectVersion
1070
     0
1000
AcDbSavedByObjectVersion
1070
     0
  0
VISUALSTYLE
  5
3172
102
{ACAD_REACTORS
330
3165
102
}
330
3165
100
AcDbVisualStyle
  2
Thicken
 70
    13
 71
     2
 72
     2
 73
     0
 90
        0
 40
-0.6
 41
-30.0
 62
     5
 63
     7
 74
     1
 91
        4
 64
     7
 65
   257
 75
     1
175
     1
 42
1.0
 92
       12
 66
     7
 43
1.0
 76
     1
 77
     6
 78
     2
 67
     7
 79
     5
170
     0
171
     0
290
     0
174
     0
 93
        1
 44
0.0
173
     0
291
     1
 45
0.0
1001
ACAD
1000
AcDbSavedByObjectVersion
1070
     0
1000
AcDbSavedByObjectVersion
1070
     0
  0
DICTIONARYVAR
  5
630F
102
{ACAD_REACTORS
330
630B
102
}
330
630B
100
DictionaryVariables
280
     0
  1
1:1
  0
DICTIONARYVAR
  5
630D
102
{ACAD_REACTORS
330
630B
102
}
330
630B
100
DictionaryVariables
280
     0
  1
STANDARD
  0
DICTIONARYVAR
  5
630C
102
{ACAD_REACTORS
330
630B
102
}
330
630B
100
DictionaryVariables
280
     0
  1
STANDARD
  0
DICTIONARYVAR
  5
6318
102
{ACAD_REACTORS
330
630B
102
}
330
630B
100
DictionaryVariables
280
     0
  1
1
  0
DICTIONARYVAR
  5
6317
102
{ACAD_REACTORS
330
630B
102
}
330
630B
100
DictionaryVariables
280
     0
  1
0
  0
DICTIONARYVAR
  5
6310
102
{ACAD_REACTORS
330
630B
102
}
330
630B
100
DictionaryVariables
280
     0
  1
0
  0
DICTIONARYVAR
  5
630E
102
{ACAD_REACTORS
330
630B
102
}
330
630B
100
DictionaryVariables
280
     0
  1
0
  0
DICTIONARYVAR
  5
6316
102
{ACAD_REACTORS
330
630B
102
}
330
630B
100
DictionaryVariables
280
     0
  1
127
  0
XRECORD
  5
5E46
102
{ACAD_REACTORS
330
5E44
102
}
330
5E44
100
AcDbXrecord
280
     1
  0
DICTIONARY
  5
648E
330
21
100
AcDbDictionary
280
     1
281
     1
  3
ACAD_XREC_ROUNDTRIP
360
648F
  0
DICTIONARY
  5
648C
330
20
100
AcDbDictionary
280
     1
281
     1
  3
ACAD_XREC_ROUNDTRIP
360
648D
  0
DICTIONARY
  5
3156
330
3155
100
AcDbDictionary
280
     1
281
     1
  3
ACAD_XREC_ROUNDTRIP
360
6320
  3
BUMPTILE
360
3158
  3
DIFFUSETILE
360
3157
  3
OPACITYTILE
360
315B
  3
REFLECTIONTILE
360
315A
  3
REFRACTIONTILE
360
315C
  3
SPECULARTILE
360
3159
  0
DICTIONARY
  5
314E
330
314D
100
AcDbDictionary
280
     1
281
     1
  3
ACAD_XREC_ROUNDTRIP
360
631F
  3
BUMPTILE
360
3150
  3
DIFFUSETILE
360
314F
  3
OPACITYTILE
360
3153
  3
REFLECTIONTILE
360
3152
  3
REFRACTIONTILE
360
3154
  3
SPECULARTILE
360
3151
  0
DICTIONARY
  5
315E
330
315D
100
AcDbDictionary
280
     1
281
     1
  3
ACAD_XREC_ROUNDTRIP
360
6321
  3
BUMPTILE
360
3160
  3
DIFFUSETILE
360
315F
  3
OPACITYTILE
360
3163
  3
REFLECTIONTILE
360
3162
  3
REFRACTIONTILE
360
3164
  3
SPECULARTILE
360
3161
  0
DICTIONARY
  5
6308
330
3178
100
AcDbDictionary
280
     1
281
     1
  3
ACAD_ROUNDTRIP_2008_TABLESTYLE_CELLSTYLEMAP
360
648A
  3
ACAD_XREC_ROUNDTRIP
360
6490
  0
XRECORD
  5
648F
102
{ACAD_REACTORS
330
648E
102
}
330
648E
100
AcDbXrecord
280
     1
102
SHADEPLOT
 70
     0
102
SHADEPLOTRESLEVEL
 70
     2
102
SHADEPLOTCUSTOMDPI
 70
   300
  0
XRECORD
  5
648D
102
{ACAD_REACTORS
330
648C
102
}
330
648C
100
AcDbXrecord
280
     1
102
SHADEPLOT
 70
     0
102
SHADEPLOTRESLEVEL
 70
     2
102
SHADEPLOTCUSTOMDPI
 70
   300
  0
XRECORD
  5
6320
102
{ACAD_REACTORS
330
3156
102
}
330
3156
100
AcDbXrecord
280
     1
102
MATERIAL
148
0.0
149
0.0
149
0.0
 93
        0
 94
      127
282
     0
 72
     0
 77
     0
171
     0
175
     0
179
     0
273
     0
  0
XRECORD
  5
3158
102
{ACAD_REACTORS
330
3156
102
}
330
3156
100
AcDbXrecord
280
     1
270
     1
271
     1
  0
XRECORD
  5
3157
102
{ACAD_REACTORS
330
3156
102
}
330
3156
100
AcDbXrecord
280
     1
270
     1
271
     1
  0
XRECORD
  5
315B
102
{ACAD_REACTORS
330
3156
102
}
330
3156
100
AcDbXrecord
280
     1
270
     1
271
     1
  0
XRECORD
  5
315A
102
{ACAD_REACTORS
330
3156
102
}
330
3156
100
AcDbXrecord
280
     1
270
     1
271
     1
  0
XRECORD
  5
315C
102
{ACAD_REACTORS
330
3156
102
}
330
3156
100
AcDbXrecord
280
     1
270
     1
271
     1
  0
XRECORD
  5
3159
102
{ACAD_REACTORS
330
3156
102
}
330
3156
100
AcDbXrecord
280
     1
270
     1
271
     1
  0
XRECORD
  5
631F
102
{ACAD_REACTORS
330
314E
102
}
330
314E
100
AcDbXrecord
280
     1
102
MATERIAL
148
0.0
149
0.0
149
0.0
 93
        0
 94
      127
282
     0
 72
     0
 77
     0
171
     0
175
     0
179
     0
273
     0
  0
XRECORD
  5
3150
102
{ACAD_REACTORS
330
314E
102
}
330
314E
100
AcDbXrecord
280
     1
270
     1
271
     1
  0
XRECORD
  5
314F
102
{ACAD_REACTORS
330
314E
102
}
330
314E
100
AcDbXrecord
280
     1
270
     1
271
     1
  0
XRECORD
  5
3153
102
{ACAD_REACTORS
330
314E
102
}
330
314E
100
AcDbXrecord
280
     1
270
     1
271
     1
  0
XRECORD
  5
3152
102
{ACAD_REACTORS
330
314E
102
}
330
314E
100
AcDbXrecord
280
     1
270
     1
271
     1
  0
XRECORD
  5
3154
102
{ACAD_REACTORS
330
314E
102
}
330
314E
100
AcDbXrecord
280
     1
270
     1
271
     1
  0
XRECORD
  5
3151
102
{ACAD_REACTORS
330
314E
102
}
330
314E
100
AcDbXrecord
280
     1
270
     1
271
     1
  0
XRECORD
  5
6321
102
{ACAD_REACTORS
330
315E
102
}
330
315E
100
AcDbXrecord
280
     1
102
MATERIAL
148
0.0
149
0.0
149
0.0
 93
        0
 94
      127
282
     0
 72
     0
 77
     0
171
     0
175
     0
179
     0
273
     0
  0
XRECORD
  5
3160
102
{ACAD_REACTORS
330
315E
102
}
330
315E
100
AcDbXrecord
280
     1
270
     1
271
     1
  0
XRECORD
  5
315F
102
{ACAD_REACTORS
330
315E
102
}
330
315E
100
AcDbXrecord
280
     1
270
     1
271
     1
  0
XRECORD
  5
3163
102
{ACAD_REACTORS
330
315E
102
}
330
315E
100
AcDbXrecord
280
     1
270
     1
271
     1
  0
XRECORD
  5
3162
102
{ACAD_REACTORS
330
315E
102
}
330
315E
100
AcDbXrecord
280
     1
270
     1
271
     1
  0
XRECORD
  5
3164
102
{ACAD_REACTORS
330
315E
102
}
330
315E
100
AcDbXrecord
280
     1
270
     1
271
     1
  0
XRECORD
  5
3161
102
{ACAD_REACTORS
330
315E
102
}
330
315E
100
AcDbXrecord
280
     1
270
     1
271
     1
  0
CELLSTYLEMAP
  5
648A
102
{ACAD_REACTORS
330
6308
102
}
330
6308
100
AcDbCellStyleMap
 90
        3
300
CELLSTYLE
  1
TABLEFORMAT_BEGIN
 90
        5
170
     1
 91
        0
 92
    32768
 62
   257
 93
        1
300
CONTENTFORMAT
  1
CONTENTFORMAT_BEGIN
 90
        0
 91
        0
 92
      512
 93
        0
300

 40
0.0
140
1.0
 94
        5
 62
     0
340
17
144
6.0
309
CONTENTFORMAT_END
171
     1
301
MARGIN
  1
CELLMARGIN_BEGIN
 40
1.5
 40
1.5
 40
1.5
 40
1.5
 40
0.18
 40
0.18
309
CELLMARGIN_END
 94
        6
 95
        1
302
GRIDFORMAT
  1
GRIDFORMAT_BEGIN
 90
        0
 91
        1
 62
     0
 92
       -2
340
0
 93
        0
 40
1.125
309
GRIDFORMAT_END
 95
        2
302
GRIDFORMAT
  1
GRIDFORMAT_BEGIN
 90
        0
 91
        1
 62
     0
 92
       -2
340
0
 93
        0
 40
1.125
309
GRIDFORMAT_END
 95
        4
302
GRIDFORMAT
  1
GRIDFORMAT_BEGIN
 90
        0
 91
        1
 62
     0
 92
       -2
340
0
 93
        0
 40
1.125
309
GRIDFORMAT_END
 95
        8
302
GRIDFORMAT
  1
GRIDFORMAT_BEGIN
 90
        0
 91
        1
 62
     0
 92
       -2
340
0
 93
        0
 40
1.125
309
GRIDFORMAT_END
 95
       16
302
GRIDFORMAT
  1
GRIDFORMAT_BEGIN
 90
        0
 91
        1
 62
     0
 92
       -2
340
0
 93
        0
 40
1.125
309
GRIDFORMAT_END
 95
       32
302
GRIDFORMAT
  1
GRIDFORMAT_BEGIN
 90
        0
 91
        1
 62
     0
 92
       -2
340
0
 93
        0
 40
1.125
309
GRIDFORMAT_END
309
TABLEFORMAT_END
  1
CELLSTYLE_BEGIN
 90
        1
 91
        1
300
_TITLE
309
CELLSTYLE_END
300
CELLSTYLE
  1
TABLEFORMAT_BEGIN
 90
        5
170
     1
 91
        0
 92
        0
 62
   257
 93
        1
300
CONTENTFORMAT
  1
CONTENTFORMAT_BEGIN
 90
        0
 91
        0
 92
      512
 93
        0
300

 40
0.0
140
1.0
 94
        5
 62
     0
340
17
144
4.5
309
CONTENTFORMAT_END
171
     1
301
MARGIN
  1
CELLMARGIN_BEGIN
 40
1.5
 40
1.5
 40
1.5
 40
1.5
 40
0.18
 40
0.18
309
CELLMARGIN_END
 94
        6
 95
        1
302
GRIDFORMAT
  1
GRIDFORMAT_BEGIN
 90
        0
 91
        1
 62
     0
 92
       -2
340
0
 93
        0
 40
1.125
309
GRIDFORMAT_END
 95
        2
302
GRIDFORMAT
  1
GRIDFORMAT_BEGIN
 90
        0
 91
        1
 62
     0
 92
       -2
340
0
 93
        0
 40
1.125
309
GRIDFORMAT_END
 95
        4
302
GRIDFORMAT
  1
GRIDFORMAT_BEGIN
 90
        0
 91
        1
 62
     0
 92
       -2
340
0
 93
        0
 40
1.125
309
GRIDFORMAT_END
 95
        8
302
GRIDFORMAT
  1
GRIDFORMAT_BEGIN
 90
        0
 91
        1
 62
     0
 92
       -2
340
0
 93
        0
 40
1.125
309
GRIDFORMAT_END
 95
       16
302
GRIDFORMAT
  1
GRIDFORMAT_BEGIN
 90
        0
 91
        1
 62
     0
 92
       -2
340
0
 93
        0
 40
1.125
309
GRIDFORMAT_END
 95
       32
302
GRIDFORMAT
  1
GRIDFORMAT_BEGIN
 90
        0
 91
        1
 62
     0
 92
       -2
340
0
 93
        0
 40
1.125
309
GRIDFORMAT_END
309
TABLEFORMAT_END
  1
CELLSTYLE_BEGIN
 90
        2
 91
        1
300
_HEADER
309
CELLSTYLE_END
300
CELLSTYLE
  1
TABLEFORMAT_BEGIN
 90
        5
170
     1
 91
        0
 92
        0
 62
   257
 93
        1
300
CONTENTFORMAT
  1
CONTENTFORMAT_BEGIN
 90
        0
 91
        0
 92
      512
 93
        0
300

 40
0.0
140
1.0
 94
        2
 62
     0
340
17
144
4.5
309
CONTENTFORMAT_END
171
     1
301
MARGIN
  1
CELLMARGIN_BEGIN
 40
1.5
 40
1.5
 40
1.5
 40
1.5
 40
0.18
 40
0.18
309
CELLMARGIN_END
 94
        6
 95
        1
302
GRIDFORMAT
  1
GRIDFORMAT_BEGIN
 90
        0
 91
        1
 62
     0
 92
       -2
340
0
 93
        0
 40
1.125
309
GRIDFORMAT_END
 95
        2
302
GRIDFORMAT
  1
GRIDFORMAT_BEGIN
 90
        0
 91
        1
 62
     0
 92
       -2
340
0
 93
        0
 40
1.125
309
GRIDFORMAT_END
 95
        4
302
GRIDFORMAT
  1
GRIDFORMAT_BEGIN
 90
        0
 91
        1
 62
     0
 92
       -2
340
0
 93
        0
 40
1.125
309
GRIDFORMAT_END
 95
        8
302
GRIDFORMAT
  1
GRIDFORMAT_BEGIN
 90
        0
 91
        1
 62
     0
 92
       -2
340
0
 93
        0
 40
1.125
309
GRIDFORMAT_END
 95
       16
302
GRIDFORMAT
  1
GRIDFORMAT_BEGIN
 90
        0
 91
        1
 62
     0
 92
       -2
340
0
 93
        0
 40
1.125
309
GRIDFORMAT_END
 95
       32
302
GRIDFORMAT
  1
GRIDFORMAT_BEGIN
 90
        0
 91
        1
 62
     0
 92
       -2
340
0
 93
        0
 40
1.125
309
GRIDFORMAT_END
309
TABLEFORMAT_END
  1
CELLSTYLE_BEGIN
 90
        3
 91
        2
300
_DATA
309
CELLSTYLE_END
  0
XRECORD
  5
6490
102
{ACAD_REACTORS
330
6308
102
}
330
6308
100
AcDbXrecord
280
     1
102
ACAD_ROUNDTRIP_PRE2007_TABLESTYLE
 90
      512
 91
        0
  1

 92
      512
 93
        0
  2

 94
      512
 95
        0
  3

  0
ENDSEC
  0
EOF
