  0
SECTION
  2
HEADER
  9
$ACADVER
  1
AC1015
  9
$ACADMAINTVER
 70
     6
  9
$DWGCODEPAGE
  3
ANSI_1252
  9
$INSBASE
 10
0.0
 20
0.0
 30
0.0
  9
$EXTMIN
 10
0.0
 20
0.0
 30
0.0
  9
$EXTMAX
 10
210.0
 20
297.0
 30
0.0
  9
$LIMMIN
 10
0.0
 20
0.0
  9
$LIMMAX
 10
210.0
 20
297.0
  9
$ORTHOMODE
 70
     0
  9
$REGENMODE
 70
     1
  9
$FILLMODE
 70
     1
  9
$QTEXTMODE
 70
     0
  9
$MIRRTEXT
 70
     1
  9
$LTSCALE
 40
1.0
  9
$ATTMODE
 70
     1
  9
$TEXTSIZE
 40
2.8
  9
$TRACEWID
 40
1.0
  9
$TEXTSTYLE
  7
Standard
  9
$CLAYER
  8
0
  9
$CELTYPE
  6
ByLayer
  9
$CECOLOR
 62
   256
  9
$CELTSCALE
 40
1.0
  9
$DISPSILH
 70
     0
  9
$DIMSCALE
 40
1.0
  9
$DIMASZ
 40
3.2
  9
$DIMEXO
 40
0.1
  9
$DIMDLI
 40
3.75
  9
$DIMRND
 40
0.0
  9
$DIMDLE
 40
0.0
  9
$DIMEXE
 40
1.0
  9
$DIMTP
 40
0.0
  9
$DIMTM
 40
0.0
  9
$DIMTXT
 40
3.2
  9
$DIMCEN
 40
2.5
  9
$DIMTSZ
 40
0.0
  9
$DIMTOL
 70
     0
  9
$DIMLIM
 70
     0
  9
$DIMTIH
 70
     1
  9
$DIMTOH
 70
     1
  9
$DIMSE1
 70
     0
  9
$DIMSE2
 70
     0
  9
$DIMTAD
 70
     1
  9
$DIMZIN
 70
     0
  9
$DIMBLK
  1

  9
$DIMASO
 70
     1
  9
$DIMSHO
 70
     1
  9
$DIMPOST
  1

  9
$DIMAPOST
  1

  9
$DIMALT
 70
     0
  9
$DIMALTD
 70
     3
  9
$DIMALTF
 40
0.0393700787
  9
$DIMLFAC
 40
1.0
  9
$DIMTOFL
 70
     1
  9
$DIMTVP
 40
0.0
  9
$DIMTIX
 70
     0
  9
$DIMSOXD
 70
     0
  9
$DIMSAH
 70
     0
  9
$DIMBLK1
  1

  9
$DIMBLK2
  1

  9
$DIMSTYLE
  2
ISO-25
  9
$DIMCLRD
 70
     0
  9
$DIMCLRE
 70
     0
  9
$DIMCLRT
 70
     0
  9
$DIMTFAC
 40
1.0
  9
$DIMGAP
 40
2.0
  9
$DIMJUST
 70
     0
  9
$DIMSD1
 70
     0
  9
$DIMSD2
 70
     0
  9
$DIMTOLJ
 70
     0
  9
$DIMTZIN
 70
     0
  9
$DIMALTZ
 70
     0
  9
$DIMALTTZ
 70
     0
  9
$DIMUPT
 70
     0
  9
$DIMDEC
 70
     2
  9
$DIMTDEC
 70
     2
  9
$DIMALTU
 70
     2
  9
$DIMALTTD
 70
     3
  9
$DIMTXSTY
  7
Standard
  9
$DIMAUNIT
 70
     0
  9
$DIMADEC
 70
     2
  9
$DIMALTRND
 40
0.0
  9
$DIMAZIN
 70
     0
  9
$DIMDSEP
 70
    44
  9
$DIMATFIT
 70
     3
  9
$DIMFRAC
 70
     0
  9
$DIMLDRBLK
  1

  9
$DIMLUNIT
 70
     2
  9
$DIMLWD
 70
    -2
  9
$DIMLWE
 70
    -2
  9
$DIMTMOVE
 70
     0
  9
$LUNITS
 70
     2
  9
$LUPREC
 70
     2
  9
$SKETCHINC
 40
1.0
  9
$FILLETRAD
 40
10.0
  9
$AUNITS
 70
     0
  9
$AUPREC
 70
     2
  9
$MENU
  1
.
  9
$ELEVATION
 40
0.0
  9
$PELEVATION
 40
0.0
  9
$THICKNESS
 40
0.0
  9
$LIMCHECK
 70
     0
  9
$CHAMFERA
 40
0.0
  9
$CHAMFERB
 40
0.0
  9
$CHAMFERC
 40
0.0
  9
$CHAMFERD
 40
0.0
  9
$SKPOLY
 70
     0
  9
$TDCREATE
 40
2458894.543636447
  9
$TDUCREATE
 40
2458894.50196978
  9
$TDUPDATE
 40
2458894.543637894
  9
$TDUUPDATE
 40
2458894.501971227
  9
$TDINDWG
 40
0.0000000116
  9
$TDUSRTIMER
 40
0.0000000116
  9
$USRTIMER
 70
     1
  9
$ANGBASE
 50
0.0
  9
$ANGDIR
 70
     0
  9
$PDMODE
 70
     0
  9
$PDSIZE
 40
-1.0
  9
$PLINEWID
 40
0.0
  9
$SPLFRAME
 70
     0
  9
$SPLINETYPE
 70
     6
  9
$SPLINESEGS
 70
     8
  9
$HANDSEED
  5
39E
  9
$SURFTAB1
 70
     6
  9
$SURFTAB2
 70
     6
  9
$SURFTYPE
 70
     6
  9
$SURFU
 70
     6
  9
$SURFV
 70
     6
  9
$UCSBASE
  2

  9
$UCSNAME
  2

  9
$UCSORG
 10
0.0
 20
0.0
 30
0.0
  9
$UCSXDIR
 10
1.0
 20
0.0
 30
0.0
  9
$UCSYDIR
 10
0.0
 20
1.0
 30
0.0
  9
$UCSORTHOREF
  2

  9
$UCSORTHOVIEW
 70
     0
  9
$UCSORGTOP
 10
0.0
 20
0.0
 30
0.0
  9
$UCSORGBOTTOM
 10
0.0
 20
0.0
 30
0.0
  9
$UCSORGLEFT
 10
0.0
 20
0.0
 30
0.0
  9
$UCSORGRIGHT
 10
0.0
 20
0.0
 30
0.0
  9
$UCSORGFRONT
 10
0.0
 20
0.0
 30
0.0
  9
$UCSORGBACK
 10
0.0
 20
0.0
 30
0.0
  9
$PUCSBASE
  2

  9
$PUCSNAME
  2

  9
$PUCSORG
 10
0.0
 20
0.0
 30
0.0
  9
$PUCSXDIR
 10
1.0
 20
0.0
 30
0.0
  9
$PUCSYDIR
 10
0.0
 20
1.0
 30
0.0
  9
$PUCSORTHOREF
  2

  9
$PUCSORTHOVIEW
 70
     0
  9
$PUCSORGTOP
 10
0.0
 20
0.0
 30
0.0
  9
$PUCSORGBOTTOM
 10
0.0
 20
0.0
 30
0.0
  9
$PUCSORGLEFT
 10
0.0
 20
0.0
 30
0.0
  9
$PUCSORGRIGHT
 10
0.0
 20
0.0
 30
0.0
  9
$PUCSORGFRONT
 10
0.0
 20
0.0
 30
0.0
  9
$PUCSORGBACK
 10
0.0
 20
0.0
 30
0.0
  9
$USERI1
 70
     0
  9
$USERI2
 70
     0
  9
$USERI3
 70
     0
  9
$USERI4
 70
     0
  9
$USERI5
 70
     0
  9
$USERR1
 40
0.0
  9
$USERR2
 40
0.0
  9
$USERR3
 40
0.0
  9
$USERR4
 40
0.0
  9
$USERR5
 40
0.0
  9
$WORLDVIEW
 70
     1
  9
$SHADEDGE
 70
     3
  9
$SHADEDIF
 70
    70
  9
$TILEMODE
 70
     1
  9
$MAXACTVP
 70
    64
  9
$PINSBASE
 10
0.0
 20
0.0
 30
0.0
  9
$PLIMCHECK
 70
     0
  9
$PEXTMIN
 10
1.0000000000E+20
 20
1.0000000000E+20
 30
1.0000000000E+20
  9
$PEXTMAX
 10
-1.0000000000E+20
 20
-1.0000000000E+20
 30
-1.0000000000E+20
  9
$PLIMMIN
 10
0.0
 20
0.0
  9
$PLIMMAX
 10
420.0
 20
297.0
  9
$UNITMODE
 70
     0
  9
$VISRETAIN
 70
     1
  9
$PLINEGEN
 70
     0
  9
$PSLTSCALE
 70
     1
  9
$TREEDEPTH
 70
  3020
  9
$CMLSTYLE
  2
Standard
  9
$CMLJUST
 70
     0
  9
$CMLSCALE
 40
20.0
  9
$PROXYGRAPHICS
 70
     1
  9
$MEASUREMENT
 70
     1
  9
$CELWEIGHT
370
    -1
  9
$ENDCAPS
280
     0
  9
$JOINSTYLE
280
     0
  9
$LWDISPLAY
290
     1
  9
$INSUNITS
 70
     4
  9
$HYPERLINKBASE
  1

  9
$STYLESHEET
  1

  9
$XEDIT
290
     1
  9
$CEPSNTYPE
380
     0
  9
$PSTYLEMODE
290
     1
  9
$FINGERPRINTGUID
  2
{2bd24747-01c1-47b1-8a25-85794a40a87d}
  9
$VERSIONGUID
  2
{FAEB1C32-E019-11D5-929B-00C0DF256EC4}
  9
$EXTNAMES
290
     1
  9
$PSVPSCALE
 40
0.0
  9
$OLESTARTUP
290
     0
  0
ENDSEC
  0
SECTION
  2
CLASSES
  0
CLASS
  1
ACDBDICTIONARYWDFLT
  2
AcDbDictionaryWithDefault
  3
ObjectDBX Classes
 90
        0
280
     0
281
     0
  0
CLASS
  1
VISUALSTYLE
  2
AcDbVisualStyle
  3
ObjectDBX Classes
 90
     4095
280
     0
281
     0
  0
CLASS
  1
MATERIAL
  2
AcDbMaterial
  3
ObjectDBX Classes
 90
     1153
280
     0
281
     0
  0
CLASS
  1
SCALE
  2
AcDbScale
  3
ObjectDBX Classes
 90
     1153
280
     0
281
     0
  0
CLASS
  1
TABLESTYLE
  2
AcDbTableStyle
  3
ObjectDBX Classes
 90
     4095
280
     0
281
     0
  0
CLASS
  1
MLEADERSTYLE
  2
AcDbMLeaderStyle
  3
ACDB_MLEADERSTYLE_CLASS
 90
     4095
280
     0
281
     0
  0
CLASS
  1
SUN
  2
AcDbSun
  3
SCENEOE
 90
     1153
280
     0
281
     0
  0
CLASS
  1
ACDBPLACEHOLDER
  2
AcDbPlaceHolder
  3
ObjectDBX Classes
 90
        0
280
     0
281
     0
  0
CLASS
  1
LAYOUT
  2
AcDbLayout
  3
ObjectDBX Classes
 90
        0
280
     0
281
     0
  0
ENDSEC
  0
SECTION
  2
TABLES
  0
TABLE
  2
VPORT
  5
8
330
0
100
AcDbSymbolTable
 70
     1
  0
VPORT
  5
29
330
8
100
AcDbSymbolTableRecord
100
AcDbViewportTableRecord
  2
*Active
 70
     0
 10
0.0
 20
0.0
 11
1.0
 21
1.0
 12
105.0
 22
148.5
 13
0.0
 23
0.0
 14
10.0
 24
10.0
 15
10.0
 25
10.0
 16
0.0
 26
0.0
 36
1.0
 17
0.0
 27
0.0
 37
0.0
 40
297.0
 41
0.7070707071
 42
50.0
 43
0.0
 44
0.0
 50
0.0
 51
0.0
 71
     0
 72
  2000
 73
     1
 74
     3
 75
     0
 76
     0
 77
     0
 78
     0
281
     0
 65
     1
110
0.0
120
0.0
130
0.0
111
1.0
121
0.0
131
0.0
112
0.0
122
1.0
132
0.0
 79
     0
146
0.0
  0
ENDTAB
  0
TABLE
  2
LTYPE
  5
5
330
0
100
AcDbSymbolTable
 70
     6
  0
LTYPE
  5
14
330
5
100
AcDbSymbolTableRecord
100
AcDbLinetypeTableRecord
  2
ByBlock
 70
     0
  3

 72
    65
 73
     0
 40
0.0
  0
LTYPE
  5
15
330
5
100
AcDbSymbolTableRecord
100
AcDbLinetypeTableRecord
  2
ByLayer
 70
     0
  3

 72
    65
 73
     0
 40
0.0
  0
LTYPE
  5
16
330
5
100
AcDbSymbolTableRecord
100
AcDbLinetypeTableRecord
  2
Continuous
 70
     0
  3
Solid line
 72
    65
 73
     0
 40
0.0
  0
LTYPE
  5
6E
330
5
100
AcDbSymbolTableRecord
100
AcDbLinetypeTableRecord
  2
HIDDEN
 70
     0
  3
Hidden __ __ __ __ __ __ __ __ __ __ __ __ __ __
 72
    65
 73
     2
 40
1.905
 49
1.27
 74
     0
 49
-0.635
 74
     0
  0
LTYPE
  5
6F
330
5
100
AcDbSymbolTableRecord
100
AcDbLinetypeTableRecord
  2
PHANTOM
 70
     0
  3
Phantom ______  __  __  ______  __  __  ______
 72
    65
 73
     6
 40
12.7
 49
6.35
 74
     0
 49
-1.27
 74
     0
 49
1.27
 74
     0
 49
-1.27
 74
     0
 49
1.27
 74
     0
 49
-1.27
 74
     0
  0
LTYPE
  5
70
330
5
100
AcDbSymbolTableRecord
100
AcDbLinetypeTableRecord
  2
CENTER
 70
     0
  3
Center ____ _ ____ _ ____ _ ____ _ ____ _ ____
 72
    65
 73
     4
 40
10.16
 49
6.35
 74
     0
 49
-1.27
 74
     0
 49
1.27
 74
     0
 49
-1.27
 74
     0
  0
LTYPE
  5
71
330
5
100
AcDbSymbolTableRecord
100
AcDbLinetypeTableRecord
  2
CENTERX2
 70
     0
  3
Center (2x) ________  __  ________  __  _____
 72
    65
 73
     4
 40
20.32
 49
12.7
 74
     0
 49
-2.54
 74
     0
 49
2.54
 74
     0
 49
-2.54
 74
     0
  0
LTYPE
  5
72
330
5
100
AcDbSymbolTableRecord
100
AcDbLinetypeTableRecord
  2
DOT2
 70
     0
  3
Dot (.5x) ........................................
 72
    65
 73
     2
 40
0.635
 49
0.0
 74
     0
 49
-0.635
 74
     0
  0
ENDTAB
  0
TABLE
  2
LAYER
  5
2
330
0
100
AcDbSymbolTable
 70
     2
  0
LAYER
  5
10
330
2
100
AcDbSymbolTableRecord
100
AcDbLayerTableRecord
  2
0
 70
     0
 62
     7
  6
Continuous
370
    -3
390
F
  0
LAYER
  5
73
330
2
100
AcDbSymbolTableRecord
100
AcDbLayerTableRecord
  2
FORMAT
 70
     0
 62
     7
  6
Continuous
370
    -3
390
F
  0
ENDTAB
  0
TABLE
  2
STYLE
  5
3
330
0
100
AcDbSymbolTable
 70
     5
  0
STYLE
  5
11
330
3
100
AcDbSymbolTableRecord
100
AcDbTextStyleTableRecord
  2
Standard
 70
     0
 40
0.0
 41
1.0
 50
0.0
 71
     0
 42
2.8
  3
txt
  4

  0
STYLE
  5
F0
330
3
100
AcDbSymbolTableRecord
100
AcDbTextStyleTableRecord
  2
SLDTEXTSTYLE0
 70
     0
 40
0.0
 41
0.605
 50
0.0
 71
     0
 42
2.8
  3
TXT
  4

  0
STYLE
  5
F6
330
3
100
AcDbSymbolTableRecord
100
AcDbTextStyleTableRecord
  2
SLDTEXTSTYLE1
 70
     0
 40
0.0
 41
0.75
 50
0.0
 71
     0
 42
2.8
  3
TXT
  4

  0
STYLE
  5
13D
330
3
100
AcDbSymbolTableRecord
100
AcDbTextStyleTableRecord
  2
SLDTEXTSTYLE2
 70
     0
 40
0.0
 41
0.7
 50
0.0
 71
     0
 42
2.8
  3
TXT
  4

  0
STYLE
  5
157
330
3
100
AcDbSymbolTableRecord
100
AcDbTextStyleTableRecord
  2
SLDTEXTSTYLE3
 70
     0
 40
0.0
 41
0.57
 50
0.0
 71
     0
 42
2.8
  3
TXT
  4

  0
ENDTAB
  0
TABLE
  2
VIEW
  5
6
330
0
100
AcDbSymbolTable
 70
     0
  0
ENDTAB
  0
TABLE
  2
UCS
  5
7
330
0
100
AcDbSymbolTable
 70
     0
  0
ENDTAB
  0
TABLE
  2
APPID
  5
9
330
0
100
AcDbSymbolTable
 70
     1
  0
APPID
  5
12
330
9
100
AcDbSymbolTableRecord
100
AcDbRegAppTableRecord
  2
ACAD
 70
     0
  0
ENDTAB
  0
TABLE
  2
DIMSTYLE
  5
A
330
0
100
AcDbSymbolTable
 70
     1
100
AcDbDimStyleTable
  0
DIMSTYLE
105
27
330
A
100
AcDbSymbolTableRecord
100
AcDbDimStyleTableRecord
  2
ISO-25
 70
     0
 41
2.5
 42
0.625
 43
3.75
 44
1.25
 73
     0
 74
     0
 77
     1
 78
     8
140
2.5
141
2.5
143
0.0393700787
147
0.625
171
     3
172
     1
178
     0
271
     2
272
     2
274
     3
278
    44
283
     0
284
     8
340
11
  0
ENDTAB
  0
TABLE
  2
BLOCK_RECORD
  5
1
330
0
100
AcDbSymbolTable
 70
    41
  0
BLOCK_RECORD
  5
1F
330
1
100
AcDbSymbolTableRecord
100
AcDbBlockTableRecord
  2
*Model_Space
340
22
  0
BLOCK_RECORD
  5
1B
330
1
100
AcDbSymbolTableRecord
100
AcDbBlockTableRecord
  2
*Paper_Space
340
1E
  0
BLOCK_RECORD
  5
23
330
1
100
AcDbSymbolTableRecord
100
AcDbBlockTableRecord
  2
*Paper_Space0
340
26
  0
BLOCK_RECORD
  5
74
330
1
100
AcDbSymbolTableRecord
100
AcDbBlockTableRecord
  2
Blocco2
340
0
  0
BLOCK_RECORD
  5
D5
330
1
100
AcDbSymbolTableRecord
100
AcDbBlockTableRecord
  2
Blocco6
340
0
  0
BLOCK_RECORD
  5
ED
330
1
100
AcDbSymbolTableRecord
100
AcDbBlockTableRecord
  2
SW_NOTE_0
340
0
102
{BLKREFS
331
F2
102
}
  0
BLOCK_RECORD
  5
F3
330
1
100
AcDbSymbolTableRecord
100
AcDbBlockTableRecord
  2
SW_NOTE_0_1
340
0
102
{BLKREFS
331
F8
102
}
  0
BLOCK_RECORD
  5
F9
330
1
100
AcDbSymbolTableRecord
100
AcDbBlockTableRecord
  2
SW_NOTE_0_2
340
0
102
{BLKREFS
331
FD
102
}
  0
BLOCK_RECORD
  5
FE
330
1
100
AcDbSymbolTableRecord
100
AcDbBlockTableRecord
  2
SW_NOTE_0_3
340
0
102
{BLKREFS
331
102
102
}
  0
BLOCK_RECORD
  5
103
330
1
100
AcDbSymbolTableRecord
100
AcDbBlockTableRecord
  2
SW_NOTE_0_4
340
0
102
{BLKREFS
331
107
102
}
  0
BLOCK_RECORD
  5
108
330
1
100
AcDbSymbolTableRecord
100
AcDbBlockTableRecord
  2
SW_NOTE_0_5
340
0
102
{BLKREFS
331
10C
102
}
  0
BLOCK_RECORD
  5
10D
330
1
100
AcDbSymbolTableRecord
100
AcDbBlockTableRecord
  2
SW_NOTE_0_6
340
0
102
{BLKREFS
331
111
102
}
  0
BLOCK_RECORD
  5
112
330
1
100
AcDbSymbolTableRecord
100
AcDbBlockTableRecord
  2
SW_NOTE_0_7
340
0
102
{BLKREFS
331
116
102
}
  0
BLOCK_RECORD
  5
117
330
1
100
AcDbSymbolTableRecord
100
AcDbBlockTableRecord
  2
SW_NOTE_0_8
340
0
102
{BLKREFS
331
11B
102
}
  0
BLOCK_RECORD
  5
11C
330
1
100
AcDbSymbolTableRecord
100
AcDbBlockTableRecord
  2
SW_NOTE_0_9
340
0
102
{BLKREFS
331
120
102
}
  0
BLOCK_RECORD
  5
121
330
1
100
AcDbSymbolTableRecord
100
AcDbBlockTableRecord
  2
SW_NOTE_0_10
340
0
102
{BLKREFS
331
125
102
}
  0
BLOCK_RECORD
  5
126
330
1
100
AcDbSymbolTableRecord
100
AcDbBlockTableRecord
  2
SW_NOTE_0_11
340
0
102
{BLKREFS
331
12A
102
}
  0
BLOCK_RECORD
  5
12B
330
1
100
AcDbSymbolTableRecord
100
AcDbBlockTableRecord
  2
SW_NOTE_0_12
340
0
102
{BLKREFS
331
12F
102
}
  0
BLOCK_RECORD
  5
130
330
1
100
AcDbSymbolTableRecord
100
AcDbBlockTableRecord
  2
SW_NOTE_0_13
340
0
102
{BLKREFS
331
134
102
}
  0
BLOCK_RECORD
  5
135
330
1
100
AcDbSymbolTableRecord
100
AcDbBlockTableRecord
  2
SW_NOTE_0_14
340
0
102
{BLKREFS
331
139
102
}
  0
BLOCK_RECORD
  5
13A
330
1
100
AcDbSymbolTableRecord
100
AcDbBlockTableRecord
  2
SW_NOTE_0_15
340
0
102
{BLKREFS
331
13F
102
}
  0
BLOCK_RECORD
  5
140
330
1
100
AcDbSymbolTableRecord
100
AcDbBlockTableRecord
  2
SW_NOTE_0_16
340
0
102
{BLKREFS
331
144
102
}
  0
BLOCK_RECORD
  5
145
330
1
100
AcDbSymbolTableRecord
100
AcDbBlockTableRecord
  2
SW_NOTE_0_17
340
0
102
{BLKREFS
331
149
102
}
  0
BLOCK_RECORD
  5
14A
330
1
100
AcDbSymbolTableRecord
100
AcDbBlockTableRecord
  2
SW_NOTE_0_18
340
0
102
{BLKREFS
331
14E
102
}
  0
BLOCK_RECORD
  5
14F
330
1
100
AcDbSymbolTableRecord
100
AcDbBlockTableRecord
  2
SW_NOTE_0_19
340
0
102
{BLKREFS
331
153
102
}
  0
BLOCK_RECORD
  5
154
330
1
100
AcDbSymbolTableRecord
100
AcDbBlockTableRecord
  2
SW_NOTE_0_20
340
0
102
{BLKREFS
331
159
102
}
  0
BLOCK_RECORD
  5
15A
330
1
100
AcDbSymbolTableRecord
100
AcDbBlockTableRecord
  2
SW_NOTE_0_21
340
0
102
{BLKREFS
331
15E
102
}
  0
BLOCK_RECORD
  5
15F
330
1
100
AcDbSymbolTableRecord
100
AcDbBlockTableRecord
  2
SW_NOTE_0_22
340
0
102
{BLKREFS
331
163
102
}
  0
BLOCK_RECORD
  5
164
330
1
100
AcDbSymbolTableRecord
100
AcDbBlockTableRecord
  2
SW_NOTE_0_23
340
0
102
{BLKREFS
331
168
102
}
  0
BLOCK_RECORD
  5
169
330
1
100
AcDbSymbolTableRecord
100
AcDbBlockTableRecord
  2
SW_NOTE_0_24
340
0
102
{BLKREFS
331
16D
102
}
  0
BLOCK_RECORD
  5
16E
330
1
100
AcDbSymbolTableRecord
100
AcDbBlockTableRecord
  2
SW_NOTE_0_25
340
0
102
{BLKREFS
331
172
102
}
  0
BLOCK_RECORD
  5
173
330
1
100
AcDbSymbolTableRecord
100
AcDbBlockTableRecord
  2
SW_NOTE_0_26
340
0
102
{BLKREFS
331
177
102
}
  0
BLOCK_RECORD
  5
178
330
1
100
AcDbSymbolTableRecord
100
AcDbBlockTableRecord
  2
SW_NOTE_0_27
340
0
102
{BLKREFS
331
17C
102
}
  0
BLOCK_RECORD
  5
17D
330
1
100
AcDbSymbolTableRecord
100
AcDbBlockTableRecord
  2
SW_NOTE_0_28
340
0
102
{BLKREFS
331
181
102
}
  0
BLOCK_RECORD
  5
182
330
1
100
AcDbSymbolTableRecord
100
AcDbBlockTableRecord
  2
SW_NOTE_0_29
340
0
102
{BLKREFS
331
186
102
}
  0
BLOCK_RECORD
  5
187
330
1
100
AcDbSymbolTableRecord
100
AcDbBlockTableRecord
  2
SW_NOTE_0_30
340
0
102
{BLKREFS
331
18B
102
}
  0
BLOCK_RECORD
  5
18C
330
1
100
AcDbSymbolTableRecord
100
AcDbBlockTableRecord
  2
SW_NOTE_0_31
340
0
102
{BLKREFS
331
190
102
}
  0
BLOCK_RECORD
  5
191
330
1
100
AcDbSymbolTableRecord
100
AcDbBlockTableRecord
  2
SW_NOTE_0_32
340
0
102
{BLKREFS
331
195
102
}
  0
BLOCK_RECORD
  5
196
330
1
100
AcDbSymbolTableRecord
100
AcDbBlockTableRecord
  2
Blocco7
340
0
  0
BLOCK_RECORD
  5
19C
330
1
100
AcDbSymbolTableRecord
100
AcDbBlockTableRecord
  2
SW_NOTE_0_33
340
0
102
{BLKREFS
331
1A0
102
}
  0
BLOCK_RECORD
  5
1A1
330
1
100
AcDbSymbolTableRecord
100
AcDbBlockTableRecord
  2
Blocco8
340
0
  0
BLOCK_RECORD
  5
1A7
330
1
100
AcDbSymbolTableRecord
100
AcDbBlockTableRecord
  2
SW_NOTE_0_34
340
0
102
{BLKREFS
331
1AB
102
}
  0
BLOCK_RECORD
  5
1AC
330
1
100
AcDbSymbolTableRecord
100
AcDbBlockTableRecord
  2
Blocco9
340
0
  0
ENDTAB
  0
ENDSEC
  0
SECTION
  2
BLOCKS
  0
BLOCK
  5
20
330
1F
100
AcDbEntity
  8
0
100
AcDbBlockBegin
  2
*Model_Space
 70
     0
 10
0.0
 20
0.0
 30
0.0
  3
*Model_Space
  1

  0
ENDBLK
  5
21
330
1F
100
AcDbEntity
  8
0
100
AcDbBlockEnd
  0
BLOCK
  5
1C
330
1B
100
AcDbEntity
 67
     1
  8
0
100
AcDbBlockBegin
  2
*Paper_Space
 70
     0
 10
0.0
 20
0.0
 30
0.0
  3
*Paper_Space
  1

  0
ENDBLK
  5
1D
330
1B
100
AcDbEntity
 67
     1
  8
0
100
AcDbBlockEnd
  0
BLOCK
  5
24
330
23
100
AcDbEntity
  8
0
100
AcDbBlockBegin
  2
*Paper_Space0
 70
     0
 10
0.0
 20
0.0
 30
0.0
  3
*Paper_Space0
  1

  0
ENDBLK
  5
25
330
23
100
AcDbEntity
  8
0
100
AcDbBlockEnd
  0
BLOCK
  5
75
330
74
100
AcDbEntity
  8
0
100
AcDbBlockBegin
  2
Blocco2
 70
     0
 10
0.0
 20
0.0
 30
0.0
  3
Blocco2
  1

  0
ARC
  5
77
330
74
100
AcDbEntity
  8
0
  6
Continuous
 62
     7
370
    18
100
AcDbCircle
 10
11.3524413081
 20
-35.7276460737
 30
0.0
 40
45.03700271094024
100
AcDbArc
 50
87.2552811745
 51
90.419145116
  0
ARC
  5
78
330
74
100
AcDbEntity
  8
0
  6
Continuous
 62
     7
370
    18
100
AcDbCircle
 10
10.4347115851
 20
-19.2097711598
 30
0.0
 40
28.63299050090509
100
AcDbArc
 50
83.8361693523
 51
88.82277263
  0
ARC
  5
79
330
74
100
AcDbEntity
  8
0
  6
Continuous
 62
     7
370
    18
100
AcDbCircle
 10
18.9257055051
 20
4.4740823861
 30
0.0
 40
3.039520156586148
100
AcDbArc
 50
5.4668529803
 51
51.9385129077
  0
ARC
  5
7A
330
74
100
AcDbEntity
  8
0
  6
Continuous
 62
     7
370
    18
100
AcDbCircle
 10
19.0336324459
 20
4.4009796263
 30
0.0
 40
3.033328806475756
100
AcDbArc
 50
6.8669507428
 51
54.3956451454
  0
ARC
  5
7B
330
74
100
AcDbEntity
  8
0
  6
Continuous
 62
     7
370
    18
100
AcDbCircle
 10
4.4336709389
 20
4.7774371901
 30
0.0
 40
1.278491932774483
100
AcDbArc
 50
87.5206960647
 51
180.6175688017
  0
ARC
  5
7C
330
74
100
AcDbEntity
  8
0
  6
Continuous
 62
     7
370
    18
100
AcDbCircle
 10
4.5421591382
 20
4.7864300438
 30
0.0
 40
1.052925839423084
100
AcDbArc
 50
137.9952467217
 51
181.2393045225
  0
ARC
  5
7D
330
74
100
AcDbEntity
  8
0
  6
Continuous
 62
     7
370
    18
100
AcDbCircle
 10
4.450459014
 20
4.7349059722
 30
0.0
 40
1.024123798923566
100
AcDbArc
 50
87.8453134185
 51
132.4112659359
  0
ARC
  5
7E
330
74
100
AcDbEntity
  8
0
  6
Continuous
 62
     7
370
    18
100
AcDbCircle
 10
4.4093379267
 20
4.590434379
 30
0.0
 40
1.230414064591743
100
AcDbArc
 50
219.6881491102
 51
269.4792649485
  0
ARC
  5
7F
330
74
100
AcDbEntity
  8
0
  6
Continuous
 62
     7
370
    18
100
AcDbCircle
 10
4.7415027104
 20
4.7431627677
 30
0.0
 40
1.586381826113275
100
AcDbArc
 50
179.259780368
 51
216.2696450905
  0
ARC
  5
80
330
74
100
AcDbEntity
  8
0
  6
Continuous
 62
     7
370
    18
100
AcDbCircle
 10
4.4473096097
 20
4.6391672705
 30
0.0
 40
0.9845699341548244
100
AcDbArc
 50
216.6836460146
 51
272.6640485799
  0
ARC
  5
81
330
74
100
AcDbEntity
  8
0
  6
Continuous
 62
     7
370
    18
100
AcDbCircle
 10
4.8490698161
 20
4.7084538956
 30
0.0
 40
1.360710460064298
100
AcDbArc
 50
177.6749069314
 51
208.8931530518
  0
ARC
  5
82
330
74
100
AcDbEntity
  8
0
  6
Continuous
 62
     7
370
    18
100
AcDbCircle
 10
11.3760465249
 20
4.7864300438
 30
0.0
 40
1.052925839423081
100
AcDbArc
 50
137.9952467217
 51
181.2393045225
  0
ARC
  5
83
330
74
100
AcDbEntity
  8
0
  6
Continuous
 62
     7
370
    18
100
AcDbCircle
 10
11.2843464007
 20
4.7349059722
 30
0.0
 40
1.024123798923566
100
AcDbArc
 50
87.8453134185
 51
132.4112659359
  0
ARC
  5
84
330
74
100
AcDbEntity
  8
0
  6
Continuous
 62
     7
370
    18
100
AcDbCircle
 10
11.2432253134
 20
4.590434379
 30
0.0
 40
1.230414064591707
100
AcDbArc
 50
219.6881491102
 51
269.4792649485
  0
ARC
  5
85
330
74
100
AcDbEntity
  8
0
  6
Continuous
 62
     7
370
    18
100
AcDbCircle
 10
11.2811969964
 20
4.6391672705
 30
0.0
 40
0.9845699341548168
100
AcDbArc
 50
216.6836460146
 51
272.6640485799
  0
ARC
  5
86
330
74
100
AcDbEntity
  8
0
  6
Continuous
 62
     7
370
    18
100
AcDbCircle
 10
11.6829572028
 20
4.7084538956
 30
0.0
 40
1.360710460064293
100
AcDbArc
 50
177.6749069314
 51
208.8931530518
  0
ARC
  5
87
330
74
100
AcDbEntity
  8
0
  6
Continuous
 62
     7
370
    18
100
AcDbCircle
 10
11.2675583256
 20
4.7774371901
 30
0.0
 40
1.278491932774481
100
AcDbArc
 50
87.5206960647
 51
180.6175688017
  0
ARC
  5
88
330
74
100
AcDbEntity
  8
0
  6
Continuous
 62
     7
370
    18
100
AcDbCircle
 10
11.5753900971
 20
4.7431627677
 30
0.0
 40
1.586381826113274
100
AcDbArc
 50
179.259780368
 51
216.2696450905
  0
ARC
  5
89
330
74
100
AcDbEntity
  8
0
  6
Continuous
 62
     7
370
    18
100
AcDbCircle
 10
6.7952630952
 20
4.7864300438
 30
0.0
 40
1.052925839423083
100
AcDbArc
 50
137.9952467217
 51
181.2393045225
  0
ARC
  5
8A
330
74
100
AcDbEntity
  8
0
  6
Continuous
 62
     7
370
    18
100
AcDbCircle
 10
6.7040760647
 20
4.7340610777
 30
0.0
 40
1.025093676329177
100
AcDbArc
 50
89.1052832126
 51
132.4005898678
  0
ARC
  5
8B
330
74
100
AcDbEntity
  8
0
  6
Continuous
 62
     7
370
    18
100
AcDbCircle
 10
6.6624418837
 20
4.590434379
 30
0.0
 40
1.230414064591694
100
AcDbArc
 50
219.6881491102
 51
269.4792649485
  0
ARC
  5
8C
330
74
100
AcDbEntity
  8
0
  6
Continuous
 62
     7
370
    18
100
AcDbCircle
 10
6.9946066674
 20
4.7431627677
 30
0.0
 40
1.586381826113264
100
AcDbArc
 50
179.259780368
 51
216.2696450905
  0
ARC
  5
8D
330
74
100
AcDbEntity
  8
0
  6
Continuous
 62
     7
370
    18
100
AcDbCircle
 10
6.7010082073
 20
4.6398932297
 30
0.0
 40
0.985480515391083
100
AcDbArc
 50
216.6968405364
 51
271.1090780217
  0
ARC
  5
8E
330
74
100
AcDbEntity
  8
0
  6
Continuous
 62
     7
370
    18
100
AcDbCircle
 10
7.1021737731
 20
4.7084538956
 30
0.0
 40
1.360710460064326
100
AcDbArc
 50
177.6749069314
 51
208.8931530518
  0
ARC
  5
8F
330
74
100
AcDbEntity
  8
0
  6
Continuous
 62
     7
370
    18
100
AcDbCircle
 10
6.6867748959
 20
4.7774371901
 30
0.0
 40
1.278491932774489
100
AcDbArc
 50
90.0
 51
180.6175688017
  0
ARC
  5
90
330
74
100
AcDbEntity
  8
0
  6
Continuous
 62
     7
370
    18
100
AcDbCircle
 10
6.644902954
 20
4.7864300438
 30
0.0
 40
1.052925839423077
100
AcDbArc
 50
358.7606954775
 51
42.0047532783
  0
ARC
  5
91
330
74
100
AcDbEntity
  8
0
  6
Continuous
 62
     7
370
    18
100
AcDbCircle
 10
6.7360899846
 20
4.7340610777
 30
0.0
 40
1.025093676329159
100
AcDbArc
 50
47.5994101322
 51
90.8947167874
  0
ARC
  5
92
330
74
100
AcDbEntity
  8
0
  6
Continuous
 62
     7
370
    18
100
AcDbCircle
 10
6.7777241656
 20
4.590434379
 30
0.0
 40
1.230414064591705
100
AcDbArc
 50
270.5207350515
 51
320.3118508898
  0
ARC
  5
93
330
74
100
AcDbEntity
  8
0
  6
Continuous
 62
     7
370
    18
100
AcDbCircle
 10
6.4455593819
 20
4.7431627677
 30
0.0
 40
1.586381826113264
100
AcDbArc
 50
323.7303549095
 51
0.740219632
  0
ARC
  5
94
330
74
100
AcDbEntity
  8
0
  6
Continuous
 62
     7
370
    18
100
AcDbCircle
 10
6.7391578419
 20
4.6398932297
 30
0.0
 40
0.9854805153910923
100
AcDbArc
 50
268.8909219783
 51
323.3031594636
  0
ARC
  5
95
330
74
100
AcDbEntity
  8
0
  6
Continuous
 62
     7
370
    18
100
AcDbCircle
 10
6.3379922762
 20
4.7084538956
 30
0.0
 40
1.360710460064302
100
AcDbArc
 50
331.1068469482
 51
2.3250930686
  0
ARC
  5
96
330
74
100
AcDbEntity
  8
0
  6
Continuous
 62
     7
370
    18
100
AcDbCircle
 10
6.7533911534
 20
4.7774371901
 30
0.0
 40
1.278491932774497
100
AcDbArc
 50
359.3824311983
 51
90.0
  0
ARC
  5
97
330
74
100
AcDbEntity
  8
0
  6
Continuous
 62
     7
370
    18
100
AcDbCircle
 10
13.6289707726
 20
4.7864300438
 30
0.0
 40
1.052925839423084
100
AcDbArc
 50
137.9952467217
 51
181.2393045225
  0
ARC
  5
98
330
74
100
AcDbEntity
  8
0
  6
Continuous
 62
     7
370
    18
100
AcDbCircle
 10
13.5377837421
 20
4.7340610777
 30
0.0
 40
1.025093676329182
100
AcDbArc
 50
89.1052832126
 51
132.4005898678
  0
ARC
  5
99
330
74
100
AcDbEntity
  8
0
  6
Continuous
 62
     7
370
    18
100
AcDbCircle
 10
13.4961495611
 20
4.590434379
 30
0.0
 40
1.230414064591706
100
AcDbArc
 50
219.6881491102
 51
269.4792649484
  0
ARC
  5
9A
330
74
100
AcDbEntity
  8
0
  6
Continuous
 62
     7
370
    18
100
AcDbCircle
 10
13.8283143447
 20
4.7431627677
 30
0.0
 40
1.586381826113258
100
AcDbArc
 50
179.259780368
 51
216.2696450905
  0
ARC
  5
9B
330
74
100
AcDbEntity
  8
0
  6
Continuous
 62
     7
370
    18
100
AcDbCircle
 10
13.5347158847
 20
4.6398932297
 30
0.0
 40
0.9854805153910695
100
AcDbArc
 50
216.6968405364
 51
271.1090780217
  0
ARC
  5
9C
330
74
100
AcDbEntity
  8
0
  6
Continuous
 62
     7
370
    18
100
AcDbCircle
 10
13.9358814504
 20
4.7084538956
 30
0.0
 40
1.36071046006428
100
AcDbArc
 50
177.6749069313
 51
208.8931530518
  0
ARC
  5
9D
330
74
100
AcDbEntity
  8
0
  6
Continuous
 62
     7
370
    18
100
AcDbCircle
 10
13.5204825732
 20
4.7774371901
 30
0.0
 40
1.278491932774489
100
AcDbArc
 50
90.0
 51
180.6175688017
  0
ARC
  5
9E
330
74
100
AcDbEntity
  8
0
  6
Continuous
 62
     7
370
    18
100
AcDbCircle
 10
13.4786106314
 20
4.7864300438
 30
0.0
 40
1.05292583942309
100
AcDbArc
 50
358.7606954775
 51
42.0047532783
  0
ARC
  5
9F
330
74
100
AcDbEntity
  8
0
  6
Continuous
 62
     7
370
    18
100
AcDbCircle
 10
13.5697976619
 20
4.7340610777
 30
0.0
 40
1.02509367632917
100
AcDbArc
 50
47.5994101321
 51
90.8947167874
  0
ARC
  5
A0
330
74
100
AcDbEntity
  8
0
  6
Continuous
 62
     7
370
    18
100
AcDbCircle
 10
13.6114318429
 20
4.590434379
 30
0.0
 40
1.230414064591706
100
AcDbArc
 50
270.5207350515
 51
320.3118508898
  0
ARC
  5
A1
330
74
100
AcDbEntity
  8
0
  6
Continuous
 62
     7
370
    18
100
AcDbCircle
 10
13.2792670592
 20
4.7431627677
 30
0.0
 40
1.586381826113269
100
AcDbArc
 50
323.7303549095
 51
0.740219632
  0
ARC
  5
A2
330
74
100
AcDbEntity
  8
0
  6
Continuous
 62
     7
370
    18
100
AcDbCircle
 10
13.5728655193
 20
4.6398932297
 30
0.0
 40
0.9854805153910822
100
AcDbArc
 50
268.8909219783
 51
323.3031594636
  0
ARC
  5
A3
330
74
100
AcDbEntity
  8
0
  6
Continuous
 62
     7
370
    18
100
AcDbCircle
 10
13.1716999535
 20
4.7084538956
 30
0.0
 40
1.360710460064319
100
AcDbArc
 50
331.1068469482
 51
2.3250930686
  0
ARC
  5
A4
330
74
100
AcDbEntity
  8
0
  6
Continuous
 62
     7
370
    18
100
AcDbCircle
 10
13.5870988307
 20
4.7774371901
 30
0.0
 40
1.278491932774489
100
AcDbArc
 50
359.3824311983
 51
90.0
  0
ELLIPSE
  5
A5
330
74
100
AcDbEntity
  8
0
  6
Continuous
 62
     7
370
    18
100
AcDbEllipse
 10
11.0229777503
 20
4.7085878625
 30
0.0
 11
11.02297775031299
 21
0.0
 31
0.0
210
0.0
220
0.0
230
1.0
 40
0.4271611509
 41
1.570796326794897
 42
6.294881061196233
  0
ELLIPSE
  5
A6
330
74
100
AcDbEntity
  8
0
  6
Continuous
 62
     7
370
    18
100
AcDbEllipse
 10
11.1194542455
 20
4.7636570924
 30
0.0
 11
10.83194610074352
 21
0.0
 31
0.0
210
0.0
220
0.0
230
1.0
 40
0.4195621611
 41
1.579703107693041
 42
6.283185307179586
  0
LINE
  5
A7
330
74
100
AcDbEntity
  8
0
  6
Continuous
 62
     7
370
    18
100
AcDbLine
 10
5.0719208813
 20
6.0560191968
 30
0.0
 11
5.0719208813
 21
5.7583056783
 31
0.0
  0
LINE
  5
A8
330
74
100
AcDbEntity
  8
0
  6
Continuous
 62
     7
370
    18
100
AcDbLine
 10
5.0719208813
 20
5.7583056783
 30
0.0
 11
4.4889635206
 21
5.7583056783
 31
0.0
  0
LINE
  5
A9
330
74
100
AcDbEntity
  8
0
  6
Continuous
 62
     7
370
    18
100
AcDbLine
 10
5.0719208813
 20
6.0560191968
 30
0.0
 11
4.4889765998
 21
6.0547323424
 31
0.0
  0
LINE
  5
AA
330
74
100
AcDbEntity
  8
0
  6
Continuous
 62
     7
370
    18
100
AcDbLine
 10
5.212963293
 20
3.6556614239
 30
0.0
 11
5.212963293
 21
3.3600711311
 31
0.0
  0
LINE
  5
AB
330
74
100
AcDbEntity
  8
0
  6
Continuous
 62
     7
370
    18
100
AcDbLine
 10
5.212963293
 20
3.3600711311
 30
0.0
 11
4.3981554117
 21
3.3600711311
 31
0.0
  0
LINE
  5
AC
330
74
100
AcDbEntity
  8
0
  6
Continuous
 62
     7
370
    18
100
AcDbLine
 10
5.212963293
 20
3.6556614239
 30
0.0
 11
4.4930720928
 21
3.6556614239
 31
0.0
  0
LINE
  5
AD
330
74
100
AcDbEntity
  8
0
  6
Continuous
 62
     7
370
    18
100
AcDbLine
 10
11.905808268
 20
6.0560191968
 30
0.0
 11
11.905808268
 21
5.7583056783
 31
0.0
  0
LINE
  5
AE
330
74
100
AcDbEntity
  8
0
  6
Continuous
 62
     7
370
    18
100
AcDbLine
 10
11.905808268
 20
5.7583056783
 30
0.0
 11
11.3228509073
 21
5.7583056783
 31
0.0
  0
LINE
  5
AF
330
74
100
AcDbEntity
  8
0
  6
Continuous
 62
     7
370
    18
100
AcDbLine
 10
11.905808268
 20
6.0560191968
 30
0.0
 11
11.3228639865
 21
6.0547323424
 31
0.0
  0
LINE
  5
B0
330
74
100
AcDbEntity
  8
0
  6
Continuous
 62
     7
370
    18
100
AcDbLine
 10
12.0468506797
 20
3.6556614239
 30
0.0
 11
12.0468506797
 21
3.3600711311
 31
0.0
  0
LINE
  5
B1
330
74
100
AcDbEntity
  8
0
  6
Continuous
 62
     7
370
    18
100
AcDbLine
 10
12.0468506797
 20
3.3600711311
 30
0.0
 11
11.2320427984
 21
3.3600711311
 31
0.0
  0
LINE
  5
B2
330
74
100
AcDbEntity
  8
0
  6
Continuous
 62
     7
370
    18
100
AcDbLine
 10
12.0468506797
 20
3.6556614239
 30
0.0
 11
11.3269594795
 21
3.6556614239
 31
0.0
  0
LINE
  5
B3
330
74
100
AcDbEntity
  8
0
  6
Continuous
 62
     7
370
    18
100
AcDbLine
 10
6.6867748959
 20
6.0559291229
 30
0.0
 11
6.7200830246
 21
6.0559291229
 31
0.0
  0
LINE
  5
B4
330
74
100
AcDbEntity
  8
0
  6
Continuous
 62
     7
370
    18
100
AcDbLine
 10
6.6512593688
 20
3.3600711311
 30
0.0
 11
6.7200830246
 21
3.3600711311
 31
0.0
  0
LINE
  5
B5
330
74
100
AcDbEntity
  8
0
  6
Continuous
 62
     7
370
    18
100
AcDbLine
 10
6.7533911534
 20
6.0559291229
 30
0.0
 11
6.7200830246
 21
6.0559291229
 31
0.0
  0
LINE
  5
B6
330
74
100
AcDbEntity
  8
0
  6
Continuous
 62
     7
370
    18
100
AcDbLine
 10
6.7889066805
 20
3.3600711311
 30
0.0
 11
6.7200830246
 21
3.3600711311
 31
0.0
  0
LINE
  5
B7
330
74
100
AcDbEntity
  8
0
  6
Continuous
 62
     7
370
    18
100
AcDbLine
 10
13.5204825732
 20
6.0559291229
 30
0.0
 11
13.553790702
 21
6.0559291229
 31
0.0
  0
LINE
  5
B8
330
74
100
AcDbEntity
  8
0
  6
Continuous
 62
     7
370
    18
100
AcDbLine
 10
13.4849670461
 20
3.3600711311
 30
0.0
 11
13.553790702
 21
3.3600711311
 31
0.0
  0
LINE
  5
B9
330
74
100
AcDbEntity
  8
0
  6
Continuous
 62
     7
370
    18
100
AcDbLine
 10
13.5870988307
 20
6.0559291229
 30
0.0
 11
13.553790702
 21
6.0559291229
 31
0.0
  0
LINE
  5
BA
330
74
100
AcDbEntity
  8
0
  6
Continuous
 62
     7
370
    18
100
AcDbLine
 10
13.6226143578
 20
3.3600711311
 30
0.0
 11
13.553790702
 21
3.3600711311
 31
0.0
  0
LINE
  5
BB
330
74
100
AcDbEntity
  8
0
  6
Continuous
 62
     7
370
    18
100
AcDbLine
 10
8.6640321741
 20
6.0547603044
 30
0.0
 11
8.6640321741
 21
3.656644754
 31
0.0
  0
LINE
  5
BC
330
74
100
AcDbEntity
  8
0
  6
Continuous
 62
     7
370
    18
100
AcDbLine
 10
8.6640321741
 20
3.656644754
 30
0.0
 11
9.7937655882
 21
3.656644754
 31
0.0
  0
LINE
  5
BD
330
74
100
AcDbEntity
  8
0
  6
Continuous
 62
     7
370
    18
100
AcDbLine
 10
9.7937655882
 20
3.656644754
 30
0.0
 11
9.7937655882
 21
3.3597898205
 31
0.0
  0
LINE
  5
BE
330
74
100
AcDbEntity
  8
0
  6
Continuous
 62
     7
370
    18
100
AcDbLine
 10
9.7937655882
 20
3.3597898205
 30
0.0
 11
8.3684585854
 21
3.3597898205
 31
0.0
  0
LINE
  5
BF
330
74
100
AcDbEntity
  8
0
  6
Continuous
 62
     7
370
    18
100
AcDbLine
 10
8.3684585854
 20
3.3597898205
 30
0.0
 11
8.3684585854
 21
6.0547603044
 31
0.0
  0
LINE
  5
C0
330
74
100
AcDbEntity
  8
0
  6
Continuous
 62
     7
370
    18
100
AcDbLine
 10
8.3684585854
 20
6.0547603044
 30
0.0
 11
8.6640321741
 21
6.0547603044
 31
0.0
  0
LINE
  5
C1
330
74
100
AcDbEntity
  8
0
  6
Continuous
 62
     7
370
    18
100
AcDbLine
 10
15.9455124972
 20
6.0540605676
 30
0.0
 11
16.166651415
 21
6.0540605676
 31
0.0
  0
LINE
  5
C2
330
74
100
AcDbEntity
  8
0
  6
Continuous
 62
     7
370
    18
100
AcDbLine
 10
16.166651415
 20
6.0540605676
 30
0.0
 11
16.8443180552
 21
4.4818105659
 31
0.0
  0
LINE
  5
C3
330
74
100
AcDbEntity
  8
0
  6
Continuous
 62
     7
370
    18
100
AcDbLine
 10
16.0504080522
 20
5.5491087439
 30
0.0
 11
16.6982555549
 21
4.0531230646
 31
0.0
  0
LINE
  5
C4
330
74
100
AcDbEntity
  8
0
  6
Continuous
 62
     7
370
    18
100
AcDbLine
 10
17.7431236131
 20
6.0540605676
 30
0.0
 11
17.5219846953
 21
6.0540605676
 31
0.0
  0
LINE
  5
C5
330
74
100
AcDbEntity
  8
0
  6
Continuous
 62
     7
370
    18
100
AcDbLine
 10
17.5219846953
 20
6.0540605676
 30
0.0
 11
16.8443180552
 21
4.4818105659
 31
0.0
  0
LINE
  5
C6
330
74
100
AcDbEntity
  8
0
  6
Continuous
 62
     7
370
    18
100
AcDbLine
 10
18.5488444404
 20
3.3605126922
 30
0.0
 11
17.6382280581
 21
5.5491087439
 31
0.0
  0
LINE
  5
C7
330
74
100
AcDbEntity
  8
0
  6
Continuous
 62
     7
370
    18
100
AcDbLine
 10
17.6382280581
 20
5.5491087439
 30
0.0
 11
16.9903805554
 21
4.0531230646
 31
0.0
  0
LINE
  5
C8
330
74
100
AcDbEntity
  8
0
  6
Continuous
 62
     7
370
    18
100
AcDbLine
 10
18.8743513718
 20
3.3605126922
 30
0.0
 11
17.7431236131
 21
6.0540605676
 31
0.0
  0
LINE
  5
C9
330
74
100
AcDbEntity
  8
0
  6
Continuous
 62
     7
370
    18
100
AcDbLine
 10
18.5488444404
 20
3.3605126922
 30
0.0
 11
18.8743513718
 21
3.3605126922
 31
0.0
  0
LINE
  5
CA
330
74
100
AcDbEntity
  8
0
  6
Continuous
 62
     7
370
    18
100
AcDbLine
 10
16.6982555549
 20
4.0531230646
 30
0.0
 11
16.9903805554
 21
4.0531230646
 31
0.0
  0
LINE
  5
CB
330
74
100
AcDbEntity
  8
0
  6
Continuous
 62
     7
370
    18
100
AcDbLine
 10
15.1397916699
 20
3.3605126922
 30
0.0
 11
14.8142847385
 21
3.3605126922
 31
0.0
  0
LINE
  5
CC
330
74
100
AcDbEntity
  8
0
  6
Continuous
 62
     7
370
    18
100
AcDbLine
 10
14.8142847385
 20
3.3605126922
 30
0.0
 11
15.9455124972
 21
6.0540605676
 31
0.0
  0
LINE
  5
CD
330
74
100
AcDbEntity
  8
0
  6
Continuous
 62
     7
370
    18
100
AcDbLine
 10
15.1397916699
 20
3.3605126922
 30
0.0
 11
16.0504080522
 21
5.5491087439
 31
0.0
  0
HATCH
  5
CE
330
74
100
AcDbEntity
  8
0
  6
Continuous
 62
     7
100
AcDbHatch
 10
0.0
 20
0.0
 30
0.0
210
0.0
220
0.0
230
1.0
  2
SOLID
 70
     1
 71
     0
 91
        1
 92
        0
 93
        6
 72
     3
 10
11.11945424547252
 20
4.763657092365897
 11
10.83194610074352
 21
0.0
 40
0.4195621611426649
 50
0.0
 51
268.7838326447011
 73
     0
 72
     2
 10
11.35244130809684
 20
-35.7276460736966
 40
45.03700271094024
 50
269.5808548839851
 51
272.7447188255457
 73
     0
 72
     2
 10
10.43471158507635
 20
-19.20977115982869
 40
28.63299050090508
 50
83.83616935229334
 51
88.8227726300255
 73
     1
 72
     3
 10
11.02297775031299
 20
4.708587862473411
 11
11.02297775031299
 21
0.0
 40
0.4271611509276351
 50
90.0
 51
360.2862587665418
 73
     1
 72
     2
 10
19.03363244588236
 20
4.400979626332637
 40
3.033328806475749
 50
6.866950742808937
 51
54.39564514541159
 73
     1
 72
     2
 10
18.92570550506284
 20
4.474082386094188
 40
3.039520156586144
 50
308.0614870922973
 51
354.5331470197357
 73
     0
 97
        0
 75
     0
 76
     1
 98
        1
 10
0.0
 20
0.0
  0
HATCH
  5
CF
330
74
100
AcDbEntity
  8
0
  6
Continuous
 62
     7
100
AcDbHatch
 10
0.0
 20
0.0
 30
0.0
210
0.0
220
0.0
230
1.0
  2
SOLID
 70
     1
 71
     0
 91
        2
 92
        0
 93
       10
 72
     2
 10
6.753391153375309
 20
4.777437190123967
 40
1.278491932774493
 50
359.3824311982546
 51
450.0000000000008
 73
     1
 72
     1
 10
6.753391153375309
 20
6.055929122898457
 11
6.720083024639653
 21
6.055929122898457
 72
     1
 10
6.720083024639653
 20
6.055929122898457
 11
6.68677489590401
 21
6.055929122898453
 72
     2
 10
6.68677489590401
 20
4.777437190123967
 40
1.278491932774486
 50
90.0
 51
180.6175688017436
 73
     1
 72
     2
 10
6.994606667408545
 20
4.743162767722506
 40
1.586381826113261
 50
179.2597803679926
 51
216.2696450904569
 73
     1
 72
     2
 10
6.662441883722753
 20
4.590434378979241
 40
1.230414064591694
 50
219.688149110216
 51
269.4792649485132
 73
     1
 72
     1
 10
6.651259368779875
 20
3.360071131111114
 11
6.720083024639653
 21
3.360071131111114
 72
     1
 10
6.720083024639653
 20
3.360071131111114
 11
6.788906680500487
 21
3.360071131111114
 72
     2
 10
6.777724165556553
 20
4.590434378979241
 40
1.230414064591705
 50
270.5207350515375
 51
320.3118508897865
 73
     1
 72
     2
 10
6.445559381870789
 20
4.743162767722533
 40
1.586381826113264
 50
323.730354909544
 51
360.7402196320045
 73
     1
 97
        0
 92
        0
 93
        8
 72
     2
 10
6.337992276176097
 20
4.708453895610268
 40
1.360710460064296
 50
357.6749069313887
 51
388.8931530518201
 73
     0
 72
     2
 10
6.739157841937418
 20
4.63989322974813
 40
0.9854805153910855
 50
36.6968405364094
 51
91.10907802165805
 73
     0
 72
     2
 10
6.701008207341888
 20
4.63989322974813
 40
0.9854805153910808
 50
88.89092197834036
 51
143.3031594635947
 73
     0
 72
     2
 10
7.102173773103422
 20
4.708453895609933
 40
1.360710460064311
 50
151.1068469482003
 51
182.3250930686284
 73
     0
 72
     2
 10
6.795263095235807
 20
4.786430043844462
 40
1.052925839423083
 50
178.7606954775337
 51
222.0047532782973
 73
     0
 72
     2
 10
6.704076064728134
 20
4.734061077673188
 40
1.02509367632917
 50
227.5994101321587
 51
270.8947167873762
 73
     0
 72
     2
 10
6.736089984551274
 20
4.734061077673241
 40
1.025093676329141
 50
269.1052832126313
 51
312.4005898678502
 73
     0
 72
     2
 10
6.644902954043727
 20
4.786430043844422
 40
1.052925839423068
 50
317.9952467217032
 51
361.2393045224668
 73
     0
 97
        0
 75
     0
 76
     1
 98
        1
 10
0.0
 20
0.0
  0
HATCH
  5
D0
330
74
100
AcDbEntity
  8
0
  6
Continuous
 62
     7
100
AcDbHatch
 10
0.0
 20
0.0
 30
0.0
210
0.0
220
0.0
230
1.0
  2
SOLID
 70
     1
 71
     0
 91
        1
 92
        0
 93
       13
 72
     2
 10
4.84906981605844
 20
4.708453895610226
 40
1.360710460064296
 50
177.6749069313867
 51
208.8931530518081
 73
     1
 72
     2
 10
4.447309609708183
 20
4.639167270498082
 40
0.984569934154821
 50
216.6836460145909
 51
272.6640485798765
 73
     1
 72
     1
 10
4.493072092776148
 20
3.655661423852985
 11
5.212963293010094
 21
3.655661423852989
 72
     1
 10
5.212963293010094
 20
3.655661423852989
 11
5.212963293010094
 21
3.360071131111074
 72
     1
 10
5.212963293010094
 20
3.360071131111074
 11
4.398155411734124
 21
3.360071131111087
 72
     2
 10
4.409337926677984
 20
4.590434378979241
 40
1.23041406459173
 50
90.52073505153331
 51
140.3118508897912
 73
     0
 72
     2
 10
4.741502710363749
 20
4.74316276772252
 40
1.586381826113268
 50
143.7303549095478
 51
180.740219632004
 73
     0
 72
     2
 10
4.433670938859214
 20
4.777437190123967
 40
1.278491932774482
 50
179.3824311982526
 51
272.4793039352954
 73
     0
 72
     1
 10
4.488976599843278
 20
6.054732342401836
 11
5.07192088133332
 21
6.056019196759688
 72
     1
 10
5.07192088133332
 20
6.056019196759688
 11
5.07192088133332
 21
5.75830567829097
 72
     1
 10
5.07192088133332
 20
5.75830567829097
 11
4.488963520562065
 21
5.75830567829097
 72
     2
 10
4.450459013996391
 20
4.734905972166442
 40
1.024123798923566
 50
87.84531341852427
 51
132.4112659358824
 73
     1
 72
     2
 10
4.54215913819081
 20
4.786430043844464
 40
1.052925839423083
 50
137.9952467217038
 51
181.2393045224698
 73
     1
 97
        0
 75
     0
 76
     1
 98
        1
 10
0.0
 20
0.0
  0
HATCH
  5
D1
330
74
100
AcDbEntity
  8
0
  6
Continuous
 62
     7
100
AcDbHatch
 10
0.0
 20
0.0
 30
0.0
210
0.0
220
0.0
230
1.0
  2
SOLID
 70
     1
 71
     0
 91
        1
 92
        0
 93
        6
 72
     1
 10
8.36845858540783
 20
6.054760304382095
 11
8.664032174086497
 21
6.054760304382095
 72
     1
 10
8.664032174086497
 20
6.054760304382095
 11
8.664032174086497
 21
3.656644753951499
 72
     1
 10
8.664032174086497
 20
3.656644753951499
 11
9.793765588229004
 21
3.656644753951499
 72
     1
 10
9.793765588229004
 20
3.656644753951499
 11
9.793765588229004
 21
3.359789820517809
 72
     1
 10
9.793765588229004
 20
3.359789820517809
 11
8.36845858540783
 21
3.359789820517809
 72
     1
 10
8.36845858540783
 20
3.359789820517809
 11
8.36845858540783
 21
6.054760304382095
 97
        0
 75
     0
 76
     1
 98
        1
 10
0.0
 20
0.0
  0
HATCH
  5
D2
330
74
100
AcDbEntity
  8
0
  6
Continuous
 62
     7
100
AcDbHatch
 10
0.0
 20
0.0
 30
0.0
210
0.0
220
0.0
230
1.0
  2
SOLID
 70
     1
 71
     0
 91
        1
 92
        0
 93
       13
 72
     2
 10
11.57539009707022
 20
4.743162767722548
 40
1.586381826113269
 50
179.259780367954
 51
216.2696450904577
 73
     1
 72
     2
 10
11.24322531338445
 20
4.590434378979241
 40
1.230414064591705
 50
219.6881491102147
 51
269.479264948464
 73
     1
 72
     1
 10
11.23204279844052
 20
3.360071131111114
 11
12.04685067971649
 21
3.360071131111114
 72
     1
 10
12.04685067971649
 20
3.360071131111114
 11
12.04685067971649
 21
3.655661423852985
 72
     1
 10
12.04685067971649
 20
3.655661423852985
 11
11.32695947948246
 21
3.655661423853029
 72
     2
 10
11.28119699641464
 20
4.639167270498096
 40
0.9845699341547881
 50
87.33595142013252
 51
143.3163539853954
 73
     0
 72
     2
 10
11.68295720276491
 20
4.70845389561024
 40
1.36071046006428
 50
151.1068469481826
 51
182.3250930686136
 73
     0
 72
     2
 10
11.37604652489728
 20
4.786430043844464
 40
1.052925839423079
 50
178.760695477531
 51
222.0047532782974
 73
     0
 72
     2
 10
11.28434640070286
 20
4.734905972166442
 40
1.024123798923566
 50
227.588734064119
 51
272.1546865814765
 73
     0
 72
     1
 10
11.32285090726853
 20
5.75830567829097
 11
11.90580826803979
 21
5.75830567829097
 72
     1
 10
11.90580826803979
 20
5.75830567829097
 11
11.90580826803979
 21
6.056019196759688
 72
     1
 10
11.90580826803979
 20
6.056019196759688
 11
11.32286398654975
 21
6.054732342401845
 72
     2
 10
11.2675583255657
 20
4.777437190123981
 40
1.278491932774475
 50
87.52069606470603
 51
180.6175688016945
 73
     1
 97
        0
 75
     0
 76
     1
 98
        1
 10
0.0
 20
0.0
  0
HATCH
  5
D3
330
74
100
AcDbEntity
  8
0
  6
Continuous
 62
     7
100
AcDbHatch
 10
0.0
 20
0.0
 30
0.0
210
0.0
220
0.0
230
1.0
  2
SOLID
 70
     1
 71
     0
 91
        2
 92
        0
 93
       10
 72
     2
 10
13.58709883070869
 20
4.777437190123967
 40
1.278491932774489
 50
359.3824311982546
 51
450.0000000000008
 73
     1
 72
     1
 10
13.58709883070869
 20
6.055929122898457
 11
13.55379070197305
 21
6.055929122898457
 72
     1
 10
13.55379070197305
 20
6.055929122898457
 11
13.52048257323738
 21
6.05592912289845
 72
     2
 10
13.52048257323738
 20
4.777437190123967
 40
1.278491932774482
 50
90.0
 51
180.6175688017483
 73
     1
 72
     2
 10
13.82831434474191
 20
4.74316276772252
 40
1.586381826113257
 50
179.2597803679969
 51
216.2696450904569
 73
     1
 72
     2
 10
13.49614956105614
 20
4.590434378979241
 40
1.230414064591707
 50
219.6881491102147
 51
269.4792649484489
 73
     1
 72
     1
 10
13.48496704611189
 20
3.360071131111114
 11
13.55379070197303
 21
3.360071131111114
 72
     1
 10
13.55379070197303
 20
3.360071131111114
 11
13.62261435783386
 21
3.360071131111114
 72
     2
 10
13.61143184288993
 20
4.590434378979241
 40
1.230414064591705
 50
270.5207350515375
 51
320.3118508897865
 73
     1
 72
     2
 10
13.27926705920415
 20
4.74316276772252
 40
1.586381826113269
 50
323.7303549095446
 51
360.7402196320049
 73
     1
 97
        0
 92
        0
 93
        8
 72
     2
 10
13.17169995350949
 20
4.708453895610268
 40
1.360710460064312
 50
357.6749069313887
 51
388.8931530518118
 73
     0
 72
     2
 10
13.57286551927081
 20
4.63989322974813
 40
0.9854805153910735
 50
36.69684053639779
 51
91.10907802165963
 73
     0
 72
     2
 10
13.53471588467527
 20
4.63989322974813
 40
0.9854805153910671
 50
88.89092197834113
 51
143.3031594635951
 73
     0
 72
     2
 10
13.93588145043703
 20
4.708453895609445
 40
1.360710460064278
 50
151.1068469482233
 51
182.3250930686561
 73
     0
 72
     2
 10
13.62897077256946
 20
4.786430043844573
 40
1.052925839423083
 50
178.7606954775368
 51
222.0047532782968
 73
     0
 72
     2
 10
13.53778374206174
 20
4.734061077673234
 40
1.025093676329182
 50
227.5994101321623
 51
270.8947167873769
 73
     0
 72
     2
 10
13.56979766188467
 20
4.734061077673241
 40
1.02509367632917
 50
269.1052832126441
 51
312.4005898678537
 73
     0
 72
     2
 10
13.47861063137712
 20
4.786430043844422
 40
1.052925839423084
 50
317.9952467217066
 51
361.2393045224668
 73
     0
 97
        0
 75
     0
 76
     1
 98
        1
 10
0.0
 20
0.0
  0
HATCH
  5
D4
330
74
100
AcDbEntity
  8
0
  6
Continuous
 62
     7
100
AcDbHatch
 10
0.0
 20
0.0
 30
0.0
210
0.0
220
0.0
230
1.0
  2
SOLID
 70
     1
 71
     0
 91
        1
 92
        0
 93
       13
 72
     1
 10
15.13979166991031
 20
3.360512692167569
 11
16.05040805223391
 21
5.549108743910444
 72
     1
 10
16.05040805223391
 20
5.549108743910444
 11
16.69825555488172
 21
4.053123064563263
 72
     1
 10
16.69825555488172
 20
4.053123064563263
 11
16.9903805554222
 21
4.053123064563263
 72
     1
 10
16.9903805554222
 20
4.053123064563263
 11
17.63822805807
 21
5.549108743910444
 72
     1
 10
17.63822805807
 20
5.549108743910444
 11
18.54884444039362
 21
3.360512692167569
 72
     1
 10
18.54884444039362
 20
3.360512692167569
 11
18.87435137179303
 21
3.360512692167569
 72
     1
 10
18.87435137179303
 20
3.360512692167569
 11
17.74312361306835
 21
6.054060567612665
 72
     1
 10
17.74312361306835
 20
6.054060567612665
 11
17.52198469529627
 21
6.054060567612665
 72
     1
 10
17.52198469529627
 20
6.054060567612665
 11
16.84431805515196
 21
4.481810565908906
 72
     1
 10
16.84431805515196
 20
4.481810565908906
 11
16.16665141500766
 21
6.054060567612665
 72
     1
 10
16.16665141500766
 20
6.054060567612665
 11
15.94551249723557
 21
6.054060567612665
 72
     1
 10
15.94551249723557
 20
6.054060567612665
 11
14.81428473851088
 21
3.360512692167569
 72
     1
 10
14.81428473851088
 20
3.360512692167569
 11
15.13979166991031
 21
3.360512692167569
 97
        0
 75
     0
 76
     1
 98
        1
 10
0.0
 20
0.0
  0
ENDBLK
  5
76
330
74
100
AcDbEntity
  8
0
100
AcDbBlockEnd
  0
BLOCK
  5
D6
330
D5
100
AcDbEntity
  8
0
100
AcDbBlockBegin
  2
Blocco6
 70
     0
 10
0.0
 20
0.0
 30
0.0
  3
Blocco6
  1

  0
LINE
  5
D8
330
D5
100
AcDbEntity
  8
0
  6
Continuous
 62
     7
370
    18
100
AcDbLine
 10
261.7483897306
 20
45.3393712312
 30
0.0
 11
261.7483897306
 21
34.621197788
 31
0.0
  0
LINE
  5
D9
330
D5
100
AcDbEntity
  8
0
  6
Continuous
 62
     7
370
    18
100
AcDbLine
 10
217.7886799447
 20
45.3393712312
 30
0.0
 11
275.7483897306
 21
45.3393712312
 31
0.0
  0
LINE
  5
DA
330
D5
100
AcDbEntity
  8
0
  6
Continuous
 62
     7
370
    18
100
AcDbLine
 10
254.7483897306
 20
45.3393712312
 30
0.0
 11
254.7483897306
 21
34.621197788
 31
0.0
  0
LINE
  5
DB
330
D5
100
AcDbEntity
  8
0
  6
Continuous
 62
     7
370
    18
100
AcDbLine
 10
247.7483897306
 20
45.3393712312
 30
0.0
 11
247.7483897306
 21
34.621197788
 31
0.0
  0
LINE
  5
DC
330
D5
100
AcDbEntity
  8
0
  6
Continuous
 62
     7
370
    18
100
AcDbLine
 10
240.7483897306
 20
45.3393712312
 30
0.0
 11
240.7483897306
 21
34.6231715189
 31
0.0
  0
LINE
  5
DD
330
D5
100
AcDbEntity
  8
0
  6
Continuous
 62
     7
370
    18
100
AcDbLine
 10
225.3934785013
 20
41.2930718328
 30
0.0
 11
225.3934785013
 21
34.621197788
 31
0.0
  0
LINE
  5
DE
330
D5
100
AcDbEntity
  8
0
  6
Continuous
 62
     7
370
    18
100
AcDbLine
 10
217.7886799447
 20
37.7200141529
 30
0.0
 11
275.7483897306
 21
37.7200141529
 31
0.0
  0
LINE
  5
DF
330
D5
100
AcDbEntity
  8
0
  6
Continuous
 62
     7
370
    18
100
AcDbLine
 10
268.7483897306
 20
45.3391156419
 30
0.0
 11
268.7483897306
 21
34.621197788
 31
0.0
  0
LINE
  5
E0
330
D5
100
AcDbEntity
  8
0
  6
Continuous
 62
     7
370
    18
100
AcDbLine
 10
217.7886799447
 20
47.6283816013
 30
0.0
 11
275.7483897306
 21
47.6283816013
 31
0.0
  0
LINE
  5
E1
330
D5
100
AcDbEntity
  8
0
  6
Continuous
 62
     7
370
    18
100
AcDbLine
 10
217.7886799447
 20
47.6283816013
 30
0.0
 11
217.7886799447
 21
34.621197788
 31
0.0
  0
LINE
  5
E2
330
D5
100
AcDbEntity
  8
0
  6
Continuous
 62
     7
370
    18
100
AcDbLine
 10
217.7886799447
 20
34.621197788
 30
0.0
 11
275.7483897306
 21
34.621197788
 31
0.0
  0
LINE
  5
E3
330
D5
100
AcDbEntity
  8
0
  6
Continuous
 62
     7
370
    18
100
AcDbLine
 10
275.7483897306
 20
47.6283816013
 30
0.0
 11
275.7483897306
 21
34.621197788
 31
0.0
  0
LINE
  5
E4
330
D5
100
AcDbEntity
  8
0
  6
Continuous
 62
     7
370
    18
100
AcDbLine
 10
297.327828823
 20
45.3393191679
 30
0.0
 11
297.327828823
 21
34.6211457247
 31
0.0
  0
LINE
  5
E5
330
D5
100
AcDbEntity
  8
0
  6
Continuous
 62
     7
370
    18
100
AcDbLine
 10
276.327828823
 20
45.3393191679
 30
0.0
 11
304.327828823
 21
45.3393191679
 31
0.0
  0
LINE
  5
E6
330
D5
100
AcDbEntity
  8
0
  6
Continuous
 62
     7
370
    18
100
AcDbLine
 10
290.327828823
 20
45.3393191679
 30
0.0
 11
290.327828823
 21
34.6211457247
 31
0.0
  0
LINE
  5
E7
330
D5
100
AcDbEntity
  8
0
  6
Continuous
 62
     7
370
    18
100
AcDbLine
 10
283.327828823
 20
45.3393191679
 30
0.0
 11
283.327828823
 21
34.6211457247
 31
0.0
  0
LINE
  5
E8
330
D5
100
AcDbEntity
  8
0
  6
Continuous
 62
     7
370
    18
100
AcDbLine
 10
276.327828823
 20
37.7199620895
 30
0.0
 11
304.327828823
 21
37.7199620895
 31
0.0
  0
LINE
  5
E9
330
D5
100
AcDbEntity
  8
0
  6
Continuous
 62
     7
370
    18
100
AcDbLine
 10
276.327828823
 20
47.628329538
 30
0.0
 11
304.327828823
 21
47.628329538
 31
0.0
  0
LINE
  5
EA
330
D5
100
AcDbEntity
  8
0
  6
Continuous
 62
     7
370
    18
100
AcDbLine
 10
276.327828823
 20
47.628329538
 30
0.0
 11
276.327828823
 21
34.6211457247
 31
0.0
  0
LINE
  5
EB
330
D5
100
AcDbEntity
  8
0
  6
Continuous
 62
     7
370
    18
100
AcDbLine
 10
276.327828823
 20
34.6211457247
 30
0.0
 11
304.327828823
 21
34.6211457247
 31
0.0
  0
LINE
  5
EC
330
D5
100
AcDbEntity
  8
0
  6
Continuous
 62
     7
370
    18
100
AcDbLine
 10
304.327828823
 20
47.628329538
 30
0.0
 11
304.327828823
 21
34.6211457247
 31
0.0
  0
INSERT
  5
F2
330
D5
100
AcDbEntity
  8
0
  6
Continuous
 62
     7
370
     0
100
AcDbBlockReference
  2
SW_NOTE_0
 10
276.7575986504
 20
42.3724324694
 30
0.0
  0
INSERT
  5
F8
330
D5
100
AcDbEntity
  8
0
  6
Continuous
 62
     7
370
     0
100
AcDbBlockReference
  2
SW_NOTE_0_1
 10
283.9875463317
 20
35.1333333589
 30
0.0
  0
INSERT
  5
FD
330
D5
100
AcDbEntity
  8
0
  6
Continuous
 62
     7
370
     0
100
AcDbBlockReference
  2
SW_NOTE_0_2
 10
276.7575986504
 20
38.6318341497
 30
0.0
  0
INSERT
  5
102
330
D5
100
AcDbEntity
  8
0
  6
Continuous
 62
     7
370
     0
100
AcDbBlockReference
  2
SW_NOTE_0_3
 10
278.8536055826
 20
35.1333333589
 30
0.0
  0
INSERT
  5
107
330
D5
100
AcDbEntity
  8
0
  6
Continuous
 62
     7
370
     0
100
AcDbBlockReference
  2
SW_NOTE_0_4
 10
290.9462692632
 20
38.5992630516
 30
0.0
  0
INSERT
  5
10C
330
D5
100
AcDbEntity
  8
0
  6
Continuous
 62
     7
370
     0
100
AcDbBlockReference
  2
SW_NOTE_0_5
 10
290.9462692632
 20
42.3724324694
 30
0.0
  0
INSERT
  5
111
330
D5
100
AcDbEntity
  8
0
  6
Continuous
 62
     7
370
     0
100
AcDbBlockReference
  2
SW_NOTE_0_6
 10
290.9462692632
 20
35.1333333589
 30
0.0
  0
INSERT
  5
116
330
D5
100
AcDbEntity
  8
0
  6
Continuous
 62
     7
370
     0
100
AcDbBlockReference
  2
SW_NOTE_0_7
 10
297.9758587209
 20
35.1333333589
 30
0.0
  0
INSERT
  5
11B
330
D5
100
AcDbEntity
  8
0
  6
Continuous
 62
     7
370
     0
100
AcDbBlockReference
  2
SW_NOTE_0_8
 10
277.2836998764
 20
45.6658939202
 30
0.0
  0
INSERT
  5
120
330
D5
100
AcDbEntity
  8
0
  6
Continuous
 62
     7
370
     0
100
AcDbBlockReference
  2
SW_NOTE_0_9
 10
297.6720780609
 20
42.3724324694
 30
0.0
  0
INSERT
  5
125
330
D5
100
AcDbEntity
  8
0
  6
Continuous
 62
     7
370
     0
100
AcDbBlockReference
  2
SW_NOTE_0_10
 10
283.731633204
 20
42.3724324694
 30
0.0
  0
INSERT
  5
12A
330
D5
100
AcDbEntity
  8
0
  6
Continuous
 62
     7
370
     0
100
AcDbBlockReference
  2
SW_NOTE_0_11
 10
283.800228837
 20
38.6318341497
 30
0.0
  0
INSERT
  5
12F
330
D5
100
AcDbEntity
  8
0
  6
Continuous
 62
     7
370
     0
100
AcDbBlockReference
  2
SW_NOTE_0_12
 10
262.4580279424
 20
42.368473324
 30
0.0
  0
INSERT
  5
134
330
D5
100
AcDbEntity
  8
0
  6
Continuous
 62
     7
370
     0
100
AcDbBlockReference
  2
SW_NOTE_0_13
 10
262.4580279424
 20
38.6772231693
 30
0.0
  0
INSERT
  5
139
330
D5
100
AcDbEntity
  8
0
  6
Continuous
 62
     7
370
     0
100
AcDbBlockReference
  2
SW_NOTE_0_14
 10
226.6372296524
 20
45.4202007067
 30
0.0
  0
INSERT
  5
13F
330
D5
100
AcDbEntity
  8
0
  6
Continuous
 62
     7
370
     0
100
AcDbBlockReference
  2
SW_NOTE_0_15
 10
262.6510757453
 20
35.1333333589
 30
0.0
  0
INSERT
  5
144
330
D5
100
AcDbEntity
  8
0
  6
Continuous
 62
     7
370
     0
100
AcDbBlockReference
  2
SW_NOTE_0_16
 10
270.0197742617
 20
35.1333333589
 30
0.0
  0
INSERT
  5
149
330
D5
100
AcDbEntity
  8
0
  6
Continuous
 62
     7
370
     0
100
AcDbBlockReference
  2
SW_NOTE_0_17
 10
269.271591382
 20
38.5029609426
 30
0.0
  0
INSERT
  5
14E
330
D5
100
AcDbEntity
  8
0
  6
Continuous
 62
     7
370
     0
100
AcDbBlockReference
  2
SW_NOTE_0_18
 10
269.2372935655
 20
42.1942110973
 30
0.0
  0
INSERT
  5
153
330
D5
100
AcDbEntity
  8
0
  6
Continuous
 62
     7
370
     0
100
AcDbBlockReference
  2
SW_NOTE_0_19
 10
255.7986785478
 20
35.1333333589
 30
0.0
  0
INSERT
  5
159
330
D5
100
AcDbEntity
  8
0
  6
Continuous
 62
     7
370
     0
100
AcDbBlockReference
  2
SW_NOTE_0_20
 10
255.7021546464
 20
42.1361236885
 30
0.0
  0
INSERT
  5
15E
330
D5
100
AcDbEntity
  8
0
  6
Continuous
 62
     7
370
     0
100
AcDbBlockReference
  2
SW_NOTE_0_21
 10
255.7364524628
 20
38.4448735338
 30
0.0
  0
INSERT
  5
163
330
D5
100
AcDbEntity
  8
0
  6
Continuous
 62
     7
370
     0
100
AcDbBlockReference
  2
SW_NOTE_0_22
 10
242.2617924305
 20
35.1333333589
 30
0.0
  0
INSERT
  5
168
330
D5
100
AcDbEntity
  8
0
  6
Continuous
 62
     7
370
     0
100
AcDbBlockReference
  2
SW_NOTE_0_23
 10
242.2617924305
 20
38.5737988042
 30
0.0
  0
INSERT
  5
16D
330
D5
100
AcDbEntity
  8
0
  6
Continuous
 62
     7
370
     0
100
AcDbBlockReference
  2
SW_NOTE_0_24
 10
242.2617924305
 20
42.3143971239
 30
0.0
  0
INSERT
  5
172
330
D5
100
AcDbEntity
  8
0
  6
Continuous
 62
     7
370
     0
100
AcDbBlockReference
  2
SW_NOTE_0_25
 10
218.9375325504
 20
35.1333333589
 30
0.0
  0
INSERT
  5
177
330
D5
100
AcDbEntity
  8
0
  6
Continuous
 62
     7
370
     0
100
AcDbBlockReference
  2
SW_NOTE_0_26
 10
218.9818635148
 20
38.5066690491
 30
0.0
  0
INSERT
  5
17C
330
D5
100
AcDbEntity
  8
0
  6
Continuous
 62
     7
370
     0
100
AcDbBlockReference
  2
SW_NOTE_0_27
 10
218.9475656984
 20
42.2472673688
 30
0.0
  0
INSERT
  5
181
330
D5
100
AcDbEntity
  8
0
  6
Continuous
 62
     7
370
     0
100
AcDbBlockReference
  2
SW_NOTE_0_28
 10
226.377456033
 20
35.1333333589
 30
0.0
  0
INSERT
  5
186
330
D5
100
AcDbEntity
  8
0
  6
Continuous
 62
     7
370
     0
100
AcDbBlockReference
  2
SW_NOTE_0_29
 10
226.6372296524
 20
38.418502895
 30
0.0
  0
INSERT
  5
18B
330
D5
100
AcDbEntity
  8
0
  6
Continuous
 62
     7
370
     0
100
AcDbBlockReference
  2
SW_NOTE_0_30
 10
248.1321662153
 20
42.3724845328
 30
0.0
  0
INSERT
  5
190
330
D5
100
AcDbEntity
  8
0
  6
Continuous
 62
     7
370
     0
100
AcDbBlockReference
  2
SW_NOTE_0_31
 10
248.2007618482
 20
38.6318862131
 30
0.0
  0
INSERT
  5
195
330
D5
100
AcDbEntity
  8
0
  6
Continuous
 62
     7
370
     0
100
AcDbBlockReference
  2
SW_NOTE_0_32
 10
248.8812171991
 20
35.1333333589
 30
0.0
  0
ENDBLK
  5
D7
330
D5
100
AcDbEntity
  8
0
100
AcDbBlockEnd
  0
BLOCK
  5
EE
330
ED
100
AcDbEntity
  8
0
100
AcDbBlockBegin
  2
SW_NOTE_0
 70
     0
 10
0.0
 20
0.0
 30
0.0
  3
SW_NOTE_0
  1

  0
MTEXT
  5
F1
330
ED
100
AcDbEntity
  8
0
  6
Continuous
 62
     0
370
     0
100
AcDbMText
 10
0.0
 20
2.3874608764
 30
0.0
 40
1.8520833333
 41
0.0
 71
     1
 72
     1
  1
fino
  7
SLDTEXTSTYLE0
 73
     1
 44
1.0
  0
ENDBLK
  5
EF
330
ED
100
AcDbEntity
  8
0
100
AcDbBlockEnd
  0
BLOCK
  5
F4
330
F3
100
AcDbEntity
  8
0
100
AcDbBlockBegin
  2
SW_NOTE_0_1
 70
     0
 10
0.0
 20
0.0
 30
0.0
  3
SW_NOTE_0_1
  1

  0
MTEXT
  5
F7
330
F3
100
AcDbEntity
  8
0
  6
Continuous
 62
     0
370
     0
100
AcDbMText
 10
0.0
 20
2.0463950369
 30
0.0
 40
1.5875
 41
0.0
 71
     1
 72
     1
  1
±0°30'
  7
SLDTEXTSTYLE1
 73
     1
 44
1.0
  0
ENDBLK
  5
F5
330
F3
100
AcDbEntity
  8
0
100
AcDbBlockEnd
  0
BLOCK
  5
FA
330
F9
100
AcDbEntity
  8
0
100
AcDbBlockBegin
  2
SW_NOTE_0_2
 70
     0
 10
0.0
 20
0.0
 30
0.0
  3
SW_NOTE_0_2
  1

  0
MTEXT
  5
FC
330
F9
100
AcDbEntity
  8
0
  6
Continuous
 62
     0
370
     0
100
AcDbMText
 10
0.0
 20
2.3874608764
 30
0.0
 40
1.8520833333
 41
0.0
 71
     1
 72
     1
  1
a 10
  7
SLDTEXTSTYLE0
 73
     1
 44
1.0
  0
ENDBLK
  5
FB
330
F9
100
AcDbEntity
  8
0
100
AcDbBlockEnd
  0
BLOCK
  5
FF
330
FE
100
AcDbEntity
  8
0
100
AcDbBlockBegin
  2
SW_NOTE_0_3
 70
     0
 10
0.0
 20
0.0
 30
0.0
  3
SW_NOTE_0_3
  1

  0
MTEXT
  5
101
330
FE
100
AcDbEntity
  8
0
  6
Continuous
 62
     0
370
     0
100
AcDbMText
 10
0.0
 20
2.0463950369
 30
0.0
 40
1.5875
 41
0.0
 71
     1
 72
     1
  1
±1°
  7
SLDTEXTSTYLE1
 73
     1
 44
1.0
  0
ENDBLK
  5
100
330
FE
100
AcDbEntity
  8
0
100
AcDbBlockEnd
  0
BLOCK
  5
104
330
103
100
AcDbEntity
  8
0
100
AcDbBlockBegin
  2
SW_NOTE_0_4
 70
     0
 10
0.0
 20
0.0
 30
0.0
  3
SW_NOTE_0_4
  1

  0
MTEXT
  5
106
330
103
100
AcDbEntity
  8
0
  6
Continuous
 62
     0
370
     0
100
AcDbMText
 10
0.0
 20
2.3874608764
 30
0.0
 40
1.8520833333
 41
0.0
 71
     1
 72
     1
  1
a 120
  7
SLDTEXTSTYLE0
 73
     1
 44
1.0
  0
ENDBLK
  5
105
330
103
100
AcDbEntity
  8
0
100
AcDbBlockEnd
  0
BLOCK
  5
109
330
108
100
AcDbEntity
  8
0
100
AcDbBlockBegin
  2
SW_NOTE_0_5
 70
     0
 10
0.0
 20
0.0
 30
0.0
  3
SW_NOTE_0_5
  1

  0
MTEXT
  5
10B
330
108
100
AcDbEntity
  8
0
  6
Continuous
 62
     0
370
     0
100
AcDbMText
 10
0.0
 20
2.3874608764
 30
0.0
 40
1.8520833333
 41
0.0
 71
     1
 72
     1
  1
> 50
  7
SLDTEXTSTYLE0
 73
     1
 44
1.0
  0
ENDBLK
  5
10A
330
108
100
AcDbEntity
  8
0
100
AcDbBlockEnd
  0
BLOCK
  5
10E
330
10D
100
AcDbEntity
  8
0
100
AcDbBlockBegin
  2
SW_NOTE_0_6
 70
     0
 10
0.0
 20
0.0
 30
0.0
  3
SW_NOTE_0_6
  1

  0
MTEXT
  5
110
330
10D
100
AcDbEntity
  8
0
  6
Continuous
 62
     0
370
     0
100
AcDbMText
 10
0.0
 20
2.0463950369
 30
0.0
 40
1.5875
 41
0.0
 71
     1
 72
     1
  1
±0°20'
  7
SLDTEXTSTYLE1
 73
     1
 44
1.0
  0
ENDBLK
  5
10F
330
10D
100
AcDbEntity
  8
0
100
AcDbBlockEnd
  0
BLOCK
  5
113
330
112
100
AcDbEntity
  8
0
100
AcDbBlockBegin
  2
SW_NOTE_0_7
 70
     0
 10
0.0
 20
0.0
 30
0.0
  3
SW_NOTE_0_7
  1

  0
MTEXT
  5
115
330
112
100
AcDbEntity
  8
0
  6
Continuous
 62
     0
370
     0
100
AcDbMText
 10
0.0
 20
2.0463950369
 30
0.0
 40
1.5875
 41
0.0
 71
     1
 72
     1
  1
±0°10'
  7
SLDTEXTSTYLE1
 73
     1
 44
1.0
  0
ENDBLK
  5
114
330
112
100
AcDbEntity
  8
0
100
AcDbBlockEnd
  0
BLOCK
  5
118
330
117
100
AcDbEntity
  8
0
100
AcDbBlockBegin
  2
SW_NOTE_0_8
 70
     0
 10
0.0
 20
0.0
 30
0.0
  3
SW_NOTE_0_8
  1

  0
MTEXT
  5
11A
330
117
100
AcDbEntity
  8
0
  6
Continuous
 62
     0
370
     0
100
AcDbMText
 10
0.0
 20
1.7053291974
 30
0.0
 40
1.3229166667
 41
0.0
 71
     1
 72
     1
  1
Dim. Angolari UNI EN 22768-mK
  7
SLDTEXTSTYLE0
 73
     1
 44
1.0
  0
ENDBLK
  5
119
330
117
100
AcDbEntity
  8
0
100
AcDbBlockEnd
  0
BLOCK
  5
11D
330
11C
100
AcDbEntity
  8
0
100
AcDbBlockBegin
  2
SW_NOTE_0_9
 70
     0
 10
0.0
 20
0.0
 30
0.0
  3
SW_NOTE_0_9
  1

  0
MTEXT
  5
11F
330
11C
100
AcDbEntity
  8
0
  6
Continuous
 62
     0
370
     0
100
AcDbMText
 10
0.0
 20
2.3874608764
 30
0.0
 40
1.8520833333
 41
0.0
 71
     1
 72
     1
  1
> 120
  7
SLDTEXTSTYLE0
 73
     1
 44
1.0
  0
ENDBLK
  5
11E
330
11C
100
AcDbEntity
  8
0
100
AcDbBlockEnd
  0
BLOCK
  5
122
330
121
100
AcDbEntity
  8
0
100
AcDbBlockBegin
  2
SW_NOTE_0_10
 70
     0
 10
0.0
 20
0.0
 30
0.0
  3
SW_NOTE_0_10
  1

  0
MTEXT
  5
124
330
121
100
AcDbEntity
  8
0
  6
Continuous
 62
     0
370
     0
100
AcDbMText
 10
0.0
 20
2.3874608764
 30
0.0
 40
1.8520833333
 41
0.0
 71
     1
 72
     1
  1
> 10
  7
SLDTEXTSTYLE0
 73
     1
 44
1.0
  0
ENDBLK
  5
123
330
121
100
AcDbEntity
  8
0
100
AcDbBlockEnd
  0
BLOCK
  5
127
330
126
100
AcDbEntity
  8
0
100
AcDbBlockBegin
  2
SW_NOTE_0_11
 70
     0
 10
0.0
 20
0.0
 30
0.0
  3
SW_NOTE_0_11
  1

  0
MTEXT
  5
129
330
126
100
AcDbEntity
  8
0
  6
Continuous
 62
     0
370
     0
100
AcDbMText
 10
0.0
 20
2.3874608764
 30
0.0
 40
1.8520833333
 41
0.0
 71
     1
 72
     1
  1
a 50
  7
SLDTEXTSTYLE0
 73
     1
 44
1.0
  0
ENDBLK
  5
128
330
126
100
AcDbEntity
  8
0
100
AcDbBlockEnd
  0
BLOCK
  5
12C
330
12B
100
AcDbEntity
  8
0
100
AcDbBlockBegin
  2
SW_NOTE_0_12
 70
     0
 10
0.0
 20
0.0
 30
0.0
  3
SW_NOTE_0_12
  1

  0
MTEXT
  5
12E
330
12B
100
AcDbEntity
  8
0
  6
Continuous
 62
     0
370
     0
100
AcDbMText
 10
0.0
 20
2.3874608764
 30
0.0
 40
1.8520833333
 41
0.0
 71
     1
 72
     1
  1
> 30
  7
SLDTEXTSTYLE0
 73
     1
 44
1.0
  0
ENDBLK
  5
12D
330
12B
100
AcDbEntity
  8
0
100
AcDbBlockEnd
  0
BLOCK
  5
131
330
130
100
AcDbEntity
  8
0
100
AcDbBlockBegin
  2
SW_NOTE_0_13
 70
     0
 10
0.0
 20
0.0
 30
0.0
  3
SW_NOTE_0_13
  1

  0
MTEXT
  5
133
330
130
100
AcDbEntity
  8
0
  6
Continuous
 62
     0
370
     0
100
AcDbMText
 10
0.0
 20
2.3874608764
 30
0.0
 40
1.8520833333
 41
0.0
 71
     1
 72
     1
  1
a 120
  7
SLDTEXTSTYLE0
 73
     1
 44
1.0
  0
ENDBLK
  5
132
330
130
100
AcDbEntity
  8
0
100
AcDbBlockEnd
  0
BLOCK
  5
136
330
135
100
AcDbEntity
  8
0
100
AcDbBlockBegin
  2
SW_NOTE_0_14
 70
     0
 10
0.0
 20
0.0
 30
0.0
  3
SW_NOTE_0_14
  1

  0
MTEXT
  5
138
330
135
100
AcDbEntity
  8
0
  6
Continuous
 62
     0
370
     0
100
AcDbMText
 10
0.0
 20
1.7053291974
 30
0.0
 40
1.3229166667
 41
0.0
 71
     1
 72
     1
  1
Tolleranze generali Norma UNI EN 22768-mK
  7
SLDTEXTSTYLE0
 73
     1
 44
1.0
  0
ENDBLK
  5
137
330
135
100
AcDbEntity
  8
0
100
AcDbBlockEnd
  0
BLOCK
  5
13B
330
13A
100
AcDbEntity
  8
0
100
AcDbBlockBegin
  2
SW_NOTE_0_15
 70
     0
 10
0.0
 20
0.0
 30
0.0
  3
SW_NOTE_0_15
  1

  0
MTEXT
  5
13E
330
13A
100
AcDbEntity
  8
0
  6
Continuous
 62
     0
370
     0
100
AcDbMText
 10
0.0
 20
2.0463950369
 30
0.0
 40
1.5875
 41
0.0
 71
     1
 72
     1
  1
± 0.3
  7
SLDTEXTSTYLE2
 73
     1
 44
1.0
  0
ENDBLK
  5
13C
330
13A
100
AcDbEntity
  8
0
100
AcDbBlockEnd
  0
BLOCK
  5
141
330
140
100
AcDbEntity
  8
0
100
AcDbBlockBegin
  2
SW_NOTE_0_16
 70
     0
 10
0.0
 20
0.0
 30
0.0
  3
SW_NOTE_0_16
  1

  0
MTEXT
  5
143
330
140
100
AcDbEntity
  8
0
  6
Continuous
 62
     0
370
     0
100
AcDbMText
 10
0.0
 20
2.0463950369
 30
0.0
 40
1.5875
 41
0.0
 71
     1
 72
     1
  1
± 0.5
  7
SLDTEXTSTYLE2
 73
     1
 44
1.0
  0
ENDBLK
  5
142
330
140
100
AcDbEntity
  8
0
100
AcDbBlockEnd
  0
BLOCK
  5
146
330
145
100
AcDbEntity
  8
0
100
AcDbBlockBegin
  2
SW_NOTE_0_17
 70
     0
 10
0.0
 20
0.0
 30
0.0
  3
SW_NOTE_0_17
  1

  0
MTEXT
  5
148
330
145
100
AcDbEntity
  8
0
  6
Continuous
 62
     0
370
     0
100
AcDbMText
 10
0.0
 20
2.3874608764
 30
0.0
 40
1.8520833333
 41
0.0
 71
     1
 72
     1
  1
a 400
  7
SLDTEXTSTYLE0
 73
     1
 44
1.0
  0
ENDBLK
  5
147
330
145
100
AcDbEntity
  8
0
100
AcDbBlockEnd
  0
BLOCK
  5
14B
330
14A
100
AcDbEntity
  8
0
100
AcDbBlockBegin
  2
SW_NOTE_0_18
 70
     0
 10
0.0
 20
0.0
 30
0.0
  3
SW_NOTE_0_18
  1

  0
MTEXT
  5
14D
330
14A
100
AcDbEntity
  8
0
  6
Continuous
 62
     0
370
     0
100
AcDbMText
 10
0.0
 20
2.3874608764
 30
0.0
 40
1.8520833333
 41
0.0
 71
     1
 72
     1
  1
> 120
  7
SLDTEXTSTYLE0
 73
     1
 44
1.0
  0
ENDBLK
  5
14C
330
14A
100
AcDbEntity
  8
0
100
AcDbBlockEnd
  0
BLOCK
  5
150
330
14F
100
AcDbEntity
  8
0
100
AcDbBlockBegin
  2
SW_NOTE_0_19
 70
     0
 10
0.0
 20
0.0
 30
0.0
  3
SW_NOTE_0_19
  1

  0
MTEXT
  5
152
330
14F
100
AcDbEntity
  8
0
  6
Continuous
 62
     0
370
     0
100
AcDbMText
 10
0.0
 20
2.0463950369
 30
0.0
 40
1.5875
 41
0.0
 71
     1
 72
     1
  1
± 0.2
  7
SLDTEXTSTYLE2
 73
     1
 44
1.0
  0
ENDBLK
  5
151
330
14F
100
AcDbEntity
  8
0
100
AcDbBlockEnd
  0
BLOCK
  5
155
330
154
100
AcDbEntity
  8
0
100
AcDbBlockBegin
  2
SW_NOTE_0_20
 70
     0
 10
0.0
 20
0.0
 30
0.0
  3
SW_NOTE_0_20
  1

  0
MTEXT
  5
158
330
154
100
AcDbEntity
  8
0
  6
Continuous
 62
     0
370
     0
100
AcDbMText
 10
0.0
 20
2.3874608764
 30
0.0
 40
1.8520833333
 41
0.0
 71
     1
 72
     1
  1
> 6
  7
SLDTEXTSTYLE3
 73
     1
 44
1.0
  0
ENDBLK
  5
156
330
154
100
AcDbEntity
  8
0
100
AcDbBlockEnd
  0
BLOCK
  5
15B
330
15A
100
AcDbEntity
  8
0
100
AcDbBlockBegin
  2
SW_NOTE_0_21
 70
     0
 10
0.0
 20
0.0
 30
0.0
  3
SW_NOTE_0_21
  1

  0
MTEXT
  5
15D
330
15A
100
AcDbEntity
  8
0
  6
Continuous
 62
     0
370
     0
100
AcDbMText
 10
0.0
 20
2.3874608764
 30
0.0
 40
1.8520833333
 41
0.0
 71
     1
 72
     1
  1
a 30
  7
SLDTEXTSTYLE0
 73
     1
 44
1.0
  0
ENDBLK
  5
15C
330
15A
100
AcDbEntity
  8
0
100
AcDbBlockEnd
  0
BLOCK
  5
160
330
15F
100
AcDbEntity
  8
0
100
AcDbBlockBegin
  2
SW_NOTE_0_22
 70
     0
 10
0.0
 20
0.0
 30
0.0
  3
SW_NOTE_0_22
  1

  0
MTEXT
  5
162
330
15F
100
AcDbEntity
  8
0
  6
Continuous
 62
     0
370
     0
100
AcDbMText
 10
0.0
 20
2.0463950369
 30
0.0
 40
1.5875
 41
0.0
 71
     1
 72
     1
  1
± 0.1
  7
SLDTEXTSTYLE2
 73
     1
 44
1.0
  0
ENDBLK
  5
161
330
15F
100
AcDbEntity
  8
0
100
AcDbBlockEnd
  0
BLOCK
  5
165
330
164
100
AcDbEntity
  8
0
100
AcDbBlockBegin
  2
SW_NOTE_0_23
 70
     0
 10
0.0
 20
0.0
 30
0.0
  3
SW_NOTE_0_23
  1

  0
MTEXT
  5
167
330
164
100
AcDbEntity
  8
0
  6
Continuous
 62
     0
370
     0
100
AcDbMText
 10
0.0
 20
2.3874608764
 30
0.0
 40
1.8520833333
 41
0.0
 71
     1
 72
     1
  1
a 3
  7
SLDTEXTSTYLE3
 73
     1
 44
1.0
  0
ENDBLK
  5
166
330
164
100
AcDbEntity
  8
0
100
AcDbBlockEnd
  0
BLOCK
  5
16A
330
169
100
AcDbEntity
  8
0
100
AcDbBlockBegin
  2
SW_NOTE_0_24
 70
     0
 10
0.0
 20
0.0
 30
0.0
  3
SW_NOTE_0_24
  1

  0
MTEXT
  5
16C
330
169
100
AcDbEntity
  8
0
  6
Continuous
 62
     0
370
     0
100
AcDbMText
 10
0.0
 20
2.3874608764
 30
0.0
 40
1.8520833333
 41
0.0
 71
     1
 72
     1
  1
fino
  7
SLDTEXTSTYLE0
 73
     1
 44
1.0
  0
ENDBLK
  5
16B
330
169
100
AcDbEntity
  8
0
100
AcDbBlockEnd
  0
BLOCK
  5
16F
330
16E
100
AcDbEntity
  8
0
100
AcDbBlockBegin
  2
SW_NOTE_0_25
 70
     0
 10
0.0
 20
0.0
 30
0.0
  3
SW_NOTE_0_25
  1

  0
MTEXT
  5
171
330
16E
100
AcDbEntity
  8
0
  6
Continuous
 62
     0
370
     0
100
AcDbMText
 10
0.0
 20
2.0463950369
 30
0.0
 40
1.5875
 41
0.0
 71
     1
 72
     1
  1
m
  7
SLDTEXTSTYLE1
 73
     1
 44
1.0
  0
ENDBLK
  5
170
330
16E
100
AcDbEntity
  8
0
100
AcDbBlockEnd
  0
BLOCK
  5
174
330
173
100
AcDbEntity
  8
0
100
AcDbBlockBegin
  2
SW_NOTE_0_26
 70
     0
 10
0.0
 20
0.0
 30
0.0
  3
SW_NOTE_0_26
  1

  0
MTEXT
  5
176
330
173
100
AcDbEntity
  8
0
  6
Continuous
 62
     0
370
     0
100
AcDbMText
 10
0.0
 20
2.3874608764
 30
0.0
 40
1.8520833333
 41
0.0
 71
     1
 72
     1
  1
Des.
  7
SLDTEXTSTYLE0
 73
     1
 44
1.0
  0
ENDBLK
  5
175
330
173
100
AcDbEntity
  8
0
100
AcDbBlockEnd
  0
BLOCK
  5
179
330
178
100
AcDbEntity
  8
0
100
AcDbBlockBegin
  2
SW_NOTE_0_27
 70
     0
 10
0.0
 20
0.0
 30
0.0
  3
SW_NOTE_0_27
  1

  0
MTEXT
  5
17B
330
178
100
AcDbEntity
  8
0
  6
Continuous
 62
     0
370
     0
100
AcDbMText
 10
0.0
 20
2.3874608764
 30
0.0
 40
1.8520833333
 41
0.0
 71
     1
 72
     1
  1
Classe di tolleranza
  7
SLDTEXTSTYLE0
 73
     1
 44
1.0
  0
ENDBLK
  5
17A
330
178
100
AcDbEntity
  8
0
100
AcDbBlockEnd
  0
BLOCK
  5
17E
330
17D
100
AcDbEntity
  8
0
100
AcDbBlockBegin
  2
SW_NOTE_0_28
 70
     0
 10
0.0
 20
0.0
 30
0.0
  3
SW_NOTE_0_28
  1

  0
MTEXT
  5
180
330
17D
100
AcDbEntity
  8
0
  6
Continuous
 62
     0
370
     0
100
AcDbMText
 10
0.0
 20
2.0463950369
 30
0.0
 40
1.5875
 41
0.0
 71
     1
 72
     1
  1
media
  7
SLDTEXTSTYLE1
 73
     1
 44
1.0
  0
ENDBLK
  5
17F
330
17D
100
AcDbEntity
  8
0
100
AcDbBlockEnd
  0
BLOCK
  5
183
330
182
100
AcDbEntity
  8
0
100
AcDbBlockBegin
  2
SW_NOTE_0_29
 70
     0
 10
0.0
 20
0.0
 30
0.0
  3
SW_NOTE_0_29
  1

  0
MTEXT
  5
185
330
182
100
AcDbEntity
  8
0
  6
Continuous
 62
     0
370
     0
100
AcDbMText
 10
0.0
 20
2.3874608764
 30
0.0
 40
1.8520833333
 41
0.0
 71
     1
 72
     1
  1
Denom.
  7
SLDTEXTSTYLE0
 73
     1
 44
1.0
  0
ENDBLK
  5
184
330
182
100
AcDbEntity
  8
0
100
AcDbBlockEnd
  0
BLOCK
  5
188
330
187
100
AcDbEntity
  8
0
100
AcDbBlockBegin
  2
SW_NOTE_0_30
 70
     0
 10
0.0
 20
0.0
 30
0.0
  3
SW_NOTE_0_30
  1

  0
MTEXT
  5
18A
330
187
100
AcDbEntity
  8
0
  6
Continuous
 62
     0
370
     0
100
AcDbMText
 10
0.0
 20
2.3874608764
 30
0.0
 40
1.8520833333
 41
0.0
 71
     1
 72
     1
  1
> 3
  7
SLDTEXTSTYLE3
 73
     1
 44
1.0
  0
ENDBLK
  5
189
330
187
100
AcDbEntity
  8
0
100
AcDbBlockEnd
  0
BLOCK
  5
18D
330
18C
100
AcDbEntity
  8
0
100
AcDbBlockBegin
  2
SW_NOTE_0_31
 70
     0
 10
0.0
 20
0.0
 30
0.0
  3
SW_NOTE_0_31
  1

  0
MTEXT
  5
18F
330
18C
100
AcDbEntity
  8
0
  6
Continuous
 62
     0
370
     0
100
AcDbMText
 10
0.0
 20
2.3874608764
 30
0.0
 40
1.8520833333
 41
0.0
 71
     1
 72
     1
  1
a 6
  7
SLDTEXTSTYLE3
 73
     1
 44
1.0
  0
ENDBLK
  5
18E
330
18C
100
AcDbEntity
  8
0
100
AcDbBlockEnd
  0
BLOCK
  5
192
330
191
100
AcDbEntity
  8
0
100
AcDbBlockBegin
  2
SW_NOTE_0_32
 70
     0
 10
0.0
 20
0.0
 30
0.0
  3
SW_NOTE_0_32
  1

  0
MTEXT
  5
194
330
191
100
AcDbEntity
  8
0
  6
Continuous
 62
     0
370
     0
100
AcDbMText
 10
0.0
 20
2.0463950369
 30
0.0
 40
1.5875
 41
0.0
 71
     1
 72
     1
  1
± 0.1
  7
SLDTEXTSTYLE2
 73
     1
 44
1.0
  0
ENDBLK
  5
193
330
191
100
AcDbEntity
  8
0
100
AcDbBlockEnd
  0
BLOCK
  5
197
330
196
100
AcDbEntity
  8
0
100
AcDbBlockBegin
  2
Blocco7
 70
     0
 10
0.0
 20
0.0
 30
0.0
  3
Blocco7
  1

  0
LINE
  5
199
330
196
100
AcDbEntity
  8
0
  6
Continuous
 62
     7
370
    18
100
AcDbLine
 10
168.4449441805
 20
94.8309588449
 30
0.0
 11
162.5305322197
 21
84.8819092675
 31
0.0
  0
LINE
  5
19A
330
196
100
AcDbEntity
  8
0
  6
Continuous
 62
     7
370
    18
100
AcDbLine
 10
162.5305322197
 20
84.8819092675
 30
0.0
 11
159.6879466261
 21
89.8564340562
 31
0.0
  0
LINE
  5
19B
330
196
100
AcDbEntity
  8
0
  6
Continuous
 62
     7
370
    18
100
AcDbLine
 10
159.6879466261
 20
89.8564340562
 30
0.0
 11
165.4877382001
 21
89.8564340562
 31
0.0
  0
INSERT
  5
1A0
330
196
100
AcDbEntity
  8
0
  6
Continuous
 62
     7
370
     0
100
AcDbBlockReference
  2
SW_NOTE_0_33
 10
159.6958746057
 20
89.8183908762
 30
0.0
  0
ENDBLK
  5
198
330
196
100
AcDbEntity
  8
0
100
AcDbBlockEnd
  0
BLOCK
  5
19D
330
19C
100
AcDbEntity
  8
0
100
AcDbBlockBegin
  2
SW_NOTE_0_33
 70
     0
 10
0.0
 20
0.0
 30
0.0
  3
SW_NOTE_0_33
  1

  0
MTEXT
  5
19F
330
19C
100
AcDbEntity
  8
0
  6
Continuous
 62
     0
370
     0
100
AcDbMText
 10
0.0
 20
3.6093896714
 30
0.0
 40
2.8
 41
0.0
 71
     1
 72
     1
  1
1.6
  7
SLDTEXTSTYLE1
 73
     1
 44
1.0
  0
ENDBLK
  5
19E
330
19C
100
AcDbEntity
  8
0
100
AcDbBlockEnd
  0
BLOCK
  5
1A2
330
1A1
100
AcDbEntity
  8
0
100
AcDbBlockBegin
  2
Blocco8
 70
     0
 10
0.0
 20
0.0
 30
0.0
  3
Blocco8
  1

  0
LINE
  5
1A4
330
1A1
100
AcDbEntity
  8
0
  6
Continuous
 62
     7
370
    18
100
AcDbLine
 10
183.8499241714
 20
94.8309588449
 30
0.0
 11
177.8438159011
 21
84.6068203391
 31
0.0
  0
LINE
  5
1A5
330
1A1
100
AcDbEntity
  8
0
  6
Continuous
 62
     7
370
    18
100
AcDbLine
 10
177.8438159011
 20
84.6068203391
 30
0.0
 11
174.9095339981
 21
89.718889592
 31
0.0
  0
LINE
  5
1A6
330
1A1
100
AcDbEntity
  8
0
  6
Continuous
 62
     7
370
    18
100
AcDbLine
 10
174.9095339981
 20
89.718889592
 30
0.0
 11
180.8468700363
 21
89.718889592
 31
0.0
  0
INSERT
  5
1AB
330
1A1
100
AcDbEntity
  8
0
  6
Continuous
 62
     7
370
     0
100
AcDbBlockReference
  2
SW_NOTE_0_34
 10
175.222932897
 20
89.8183908762
 30
0.0
  0
ENDBLK
  5
1A3
330
1A1
100
AcDbEntity
  8
0
100
AcDbBlockEnd
  0
BLOCK
  5
1A8
330
1A7
100
AcDbEntity
  8
0
100
AcDbBlockBegin
  2
SW_NOTE_0_34
 70
     0
 10
0.0
 20
0.0
 30
0.0
  3
SW_NOTE_0_34
  1

  0
MTEXT
  5
1AA
330
1A7
100
AcDbEntity
  8
0
  6
Continuous
 62
     0
370
     0
100
AcDbMText
 10
0.0
 20
3.6093896714
 30
0.0
 40
2.8
 41
0.0
 71
     1
 72
     1
  1
0.8
  7
SLDTEXTSTYLE1
 73
     1
 44
1.0
  0
ENDBLK
  5
1A9
330
1A7
100
AcDbEntity
  8
0
100
AcDbBlockEnd
  0
BLOCK
  5
1AD
330
1AC
100
AcDbEntity
  8
0
100
AcDbBlockBegin
  2
Blocco9
 70
     0
 10
0.0
 20
0.0
 30
0.0
  3
Blocco9
  1

  0
CIRCLE
  5
1AF
330
1AC
100
AcDbEntity
  8
0
  6
Continuous
 62
     7
370
    18
100
AcDbCircle
 10
2.9508630839
 20
3.5546149695
 30
0.0
 40
1.759240622001818
  0
LINE
  5
1B0
330
1AC
100
AcDbEntity
  8
0
  6
Continuous
 62
     7
370
    18
100
AcDbLine
 10
8.8945420186
 20
10.1182213113
 30
0.0
 11
2.9508630839
 21
0.0
 31
0.0
  0
LINE
  5
1B1
330
1AC
100
AcDbEntity
  8
0
  6
Continuous
 62
     7
370
    18
100
AcDbLine
 10
2.9508630839
 20
0.0
 30
0.0
 11
0.0
 21
5.0061520583
 31
0.0
  0
ENDBLK
  5
1AE
330
1AC
100
AcDbEntity
  8
0
100
AcDbBlockEnd
  0
ENDSEC
  0
SECTION
  2
ENTITIES
  0
MTEXT
  5
1B2
330
1F
100
AcDbEntity
  8
0
  6
Continuous
 62
     7
370
     0
100
AcDbMText
 10
7.6448834651
 20
287.1798240778
 30
0.0
 40
7.4083333333
 41
0.0
 71
     1
 72
     1
  1
6870
  7
SLDTEXTSTYLE1
 73
     1
 44
1.0
  0
CIRCLE
  5
1B3
330
1F
100
AcDbEntity
  8
0
  6
Continuous
 62
     7
370
    25
100
AcDbCircle
 10
95.7236996624
 20
174.7715502959
 30
0.0
 40
3.75
  0
ARC
  5
1B4
330
1F
100
AcDbEntity
  8
0
  6
Continuous
 62
     7
370
    25
100
AcDbCircle
 10
95.7236996624
 20
174.7715502959
 30
0.0
 40
2.299999999990018
100
AcDbArc
 50
257.06103055
 51
282.93896945
  0
LINE
  5
1B5
330
1F
100
AcDbEntity
  8
0
  6
Continuous
 62
     7
370
    25
100
AcDbLine
 10
96.2386996624
 20
174.2565502959
 30
0.0
 11
96.2386996624
 21
172.5299493055
 31
0.0
  0
LINE
  5
1B6
330
1F
100
AcDbEntity
  8
0
  6
Continuous
 62
     7
370
    25
100
AcDbLine
 10
97.9653006528
 20
174.2565502959
 30
0.0
 11
96.2386996624
 21
174.2565502959
 31
0.0
  0
ARC
  5
1B7
330
1F
100
AcDbEntity
  8
0
  6
Continuous
 62
     7
370
    25
100
AcDbCircle
 10
95.7236996624
 20
174.7715502959
 30
0.0
 40
2.299999999990087
100
AcDbArc
 50
347.06103055
 51
12.93896945
  0
LINE
  5
1B8
330
1F
100
AcDbEntity
  8
0
  6
Continuous
 62
     7
370
    25
100
AcDbLine
 10
96.2386996624
 20
175.2865502959
 30
0.0
 11
97.9653006528
 21
175.2865502959
 31
0.0
  0
LINE
  5
1B9
330
1F
100
AcDbEntity
  8
0
  6
Continuous
 62
     7
370
    25
100
AcDbLine
 10
96.2386996624
 20
177.0131512862
 30
0.0
 11
96.2386996624
 21
175.2865502959
 31
0.0
  0
ARC
  5
1BA
330
1F
100
AcDbEntity
  8
0
  6
Continuous
 62
     7
370
    25
100
AcDbCircle
 10
95.7236996624
 20
174.7715502959
 30
0.0
 40
2.299999999991181
100
AcDbArc
 50
77.06103055
 51
102.93896945
  0
LINE
  5
1BB
330
1F
100
AcDbEntity
  8
0
  6
Continuous
 62
     7
370
    25
100
AcDbLine
 10
95.2086996624
 20
175.2865502959
 30
0.0
 11
95.2086996624
 21
177.0131512862
 31
0.0
  0
LINE
  5
1BC
330
1F
100
AcDbEntity
  8
0
  6
Continuous
 62
     7
370
    25
100
AcDbLine
 10
93.4820986721
 20
175.2865502959
 30
0.0
 11
95.2086996624
 21
175.2865502959
 31
0.0
  0
ARC
  5
1BD
330
1F
100
AcDbEntity
  8
0
  6
Continuous
 62
     7
370
    25
100
AcDbCircle
 10
95.7236996624
 20
174.7715502959
 30
0.0
 40
2.299999999991126
100
AcDbArc
 50
167.06103055
 51
192.93896945
  0
LINE
  5
1BE
330
1F
100
AcDbEntity
  8
0
  6
Continuous
 62
     7
370
    25
100
AcDbLine
 10
95.2086996624
 20
174.2565502959
 30
0.0
 11
93.4820986721
 21
174.2565502959
 31
0.0
  0
LINE
  5
1BF
330
1F
100
AcDbEntity
  8
0
  6
Continuous
 62
     7
370
    25
100
AcDbLine
 10
95.2086996624
 20
172.5299493055
 30
0.0
 11
95.2086996624
 21
174.2565502959
 31
0.0
  0
ARC
  5
1C0
330
1F
100
AcDbEntity
  8
0
  6
Continuous
 62
     7
370
    25
100
AcDbCircle
 10
95.7236996624
 20
174.7715502959
 30
0.0
 40
1.080668528574405
100
AcDbArc
 50
151.5392345265
 51
208.4607654734
  0
ARC
  5
1C1
330
1F
100
AcDbEntity
  8
0
  6
Continuous
 62
     7
370
    25
100
AcDbCircle
 10
95.7236996624
 20
174.7715502959
 30
0.0
 40
1.080668528574418
100
AcDbArc
 50
61.5392345266
 51
118.4607654735
  0
ARC
  5
1C2
330
1F
100
AcDbEntity
  8
0
  6
Continuous
 62
     7
370
    25
100
AcDbCircle
 10
95.7236996624
 20
174.7715502959
 30
0.0
 40
1.080668528574455
100
AcDbArc
 50
331.5392345266
 51
28.4607654735
  0
ARC
  5
1C3
330
1F
100
AcDbEntity
  8
0
  6
Continuous
 62
     7
370
    25
100
AcDbCircle
 10
95.7236996624
 20
174.7715502959
 30
0.0
 40
1.080668528574418
100
AcDbArc
 50
241.5392345266
 51
298.4607654734
  0
CIRCLE
  5
1C4
330
1F
100
AcDbEntity
  8
0
  6
Continuous
 62
     7
370
    25
100
AcDbCircle
 10
95.7236996624
 20
227.2715502959
 30
0.0
 40
3.749999999999985
  0
ARC
  5
1C5
330
1F
100
AcDbEntity
  8
0
  6
Continuous
 62
     7
370
    25
100
AcDbCircle
 10
95.7236996624
 20
227.2715502959
 30
0.0
 40
2.299999999990022
100
AcDbArc
 50
260.001326832
 51
285.879265732
  0
LINE
  5
1C6
330
1F
100
AcDbEntity
  8
0
  6
Continuous
 62
     7
370
    25
100
AcDbLine
 10
96.2644387741
 20
226.7836453737
 30
0.0
 11
96.353005341
 21
225.0593174051
 31
0.0
  0
LINE
  5
1C7
330
1F
100
AcDbEntity
  8
0
  6
Continuous
 62
     7
370
    25
100
AcDbLine
 10
97.9887667427
 20
226.8722119406
 30
0.0
 11
96.2644387741
 21
226.7836453737
 31
0.0
  0
ARC
  5
1C8
330
1F
100
AcDbEntity
  8
0
  6
Continuous
 62
     7
370
    25
100
AcDbCircle
 10
95.7236996624
 20
227.2715502959
 30
0.0
 40
2.29999999999009
100
AcDbArc
 50
350.001326832
 51
15.879265732
  0
LINE
  5
1C9
330
1F
100
AcDbEntity
  8
0
  6
Continuous
 62
     7
370
    25
100
AcDbLine
 10
96.2116045846
 20
227.8122894075
 30
0.0
 11
97.9359325532
 21
227.9008559745
 31
0.0
  0
LINE
  5
1CA
330
1F
100
AcDbEntity
  8
0
  6
Continuous
 62
     7
370
    25
100
AcDbLine
 10
96.1230380177
 20
229.5366173761
 30
0.0
 11
96.2116045846
 21
227.8122894075
 31
0.0
  0
ARC
  5
1CB
330
1F
100
AcDbEntity
  8
0
  6
Continuous
 62
     7
370
    25
100
AcDbCircle
 10
95.7236996624
 20
227.2715502959
 30
0.0
 40
2.299999999991163
100
AcDbArc
 50
80.001326832
 51
105.879265732
  0
LINE
  5
1CC
330
1F
100
AcDbEntity
  8
0
  6
Continuous
 62
     7
370
    25
100
AcDbLine
 10
95.1829605507
 20
227.759455218
 30
0.0
 11
95.0943939838
 21
229.4837831866
 31
0.0
  0
LINE
  5
1CD
330
1F
100
AcDbEntity
  8
0
  6
Continuous
 62
     7
370
    25
100
AcDbLine
 10
93.4586325822
 20
227.6708886511
 30
0.0
 11
95.1829605507
 21
227.759455218
 31
0.0
  0
ARC
  5
1CE
330
1F
100
AcDbEntity
  8
0
  6
Continuous
 62
     7
370
    25
100
AcDbCircle
 10
95.7236996624
 20
227.2715502959
 30
0.0
 40
2.299999999991118
100
AcDbArc
 50
170.001326832
 51
195.879265732
  0
LINE
  5
1CF
330
1F
100
AcDbEntity
  8
0
  6
Continuous
 62
     7
370
    25
100
AcDbLine
 10
95.2357947402
 20
226.7308111842
 30
0.0
 11
93.5114667717
 21
226.6422446172
 31
0.0
  0
LINE
  5
1D0
330
1F
100
AcDbEntity
  8
0
  6
Continuous
 62
     7
370
    25
100
AcDbLine
 10
95.3243613072
 20
225.0064832156
 30
0.0
 11
95.2357947402
 21
226.7308111842
 31
0.0
  0
ARC
  5
1D1
330
1F
100
AcDbEntity
  8
0
  6
Continuous
 62
     7
370
    25
100
AcDbCircle
 10
95.7236996624
 20
227.2715502959
 30
0.0
 40
1.080668528574414
100
AcDbArc
 50
154.4795308085
 51
211.4010617554
  0
ARC
  5
1D2
330
1F
100
AcDbEntity
  8
0
  6
Continuous
 62
     7
370
    25
100
AcDbCircle
 10
95.7236996624
 20
227.2715502959
 30
0.0
 40
1.080668528574416
100
AcDbArc
 50
64.4795308086
 51
121.4010617554
  0
ARC
  5
1D3
330
1F
100
AcDbEntity
  8
0
  6
Continuous
 62
     7
370
    25
100
AcDbCircle
 10
95.7236996624
 20
227.2715502959
 30
0.0
 40
1.080668528574442
100
AcDbArc
 50
334.4795308086
 51
31.4010617554
  0
ARC
  5
1D4
330
1F
100
AcDbEntity
  8
0
  6
Continuous
 62
     7
370
    25
100
AcDbCircle
 10
95.7236996624
 20
227.2715502959
 30
0.0
 40
1.080668528574423
100
AcDbArc
 50
244.4795308085
 51
301.4010617554
  0
LINE
  5
1D5
330
1F
100
AcDbEntity
  8
0
  6
Continuous
 62
     7
370
    25
100
AcDbLine
 10
109.2236996624
 20
246.0215502959
 30
0.0
 11
107.2236996624
 21
246.0215502959
 31
0.0
  0
LINE
  5
1D6
330
1F
100
AcDbEntity
  8
0
  6
Continuous
 62
     7
370
    25
100
AcDbLine
 10
107.2236996624
 20
250.0215502959
 30
0.0
 11
109.2236996624
 21
250.0215502959
 31
0.0
  0
LINE
  5
1D7
330
1F
100
AcDbEntity
  8
0
  6
Continuous
 62
     7
370
    25
100
AcDbLine
 10
109.2236996624
 20
250.0215502959
 30
0.0
 11
109.2236996624
 21
246.0215502959
 31
0.0
  0
LINE
  5
1D8
330
1F
100
AcDbEntity
  8
0
  6
Continuous
 62
     7
370
    25
100
AcDbLine
 10
107.2236996624
 20
246.0215502959
 30
0.0
 11
107.2236996624
 21
250.0215502959
 31
0.0
  0
LINE
  5
1D9
330
1F
100
AcDbEntity
  8
0
  6
Continuous
 62
     7
370
    25
100
AcDbLine
 10
107.2236996624
 20
156.0215502959
 30
0.0
 11
109.2236996624
 21
156.0215502959
 31
0.0
  0
LINE
  5
1DA
330
1F
100
AcDbEntity
  8
0
  6
Continuous
 62
     7
370
    25
100
AcDbLine
 10
109.2236996624
 20
246.0215502959
 30
0.0
 11
109.2236996624
 21
156.0215502959
 31
0.0
  0
LINE
  5
1DB
330
1F
100
AcDbEntity
  8
0
  6
Continuous
 62
     7
370
    25
100
AcDbLine
 10
107.2236996624
 20
246.0215502959
 30
0.0
 11
107.2236996624
 21
156.0215502959
 31
0.0
  0
LINE
  5
1DC
330
1F
100
AcDbEntity
  8
0
  6
Continuous
 62
     7
370
    25
100
AcDbLine
 10
109.2236996624
 20
152.0215502959
 30
0.0
 11
107.2236996624
 21
152.0215502959
 31
0.0
  0
LINE
  5
1DD
330
1F
100
AcDbEntity
  8
0
  6
Continuous
 62
     7
370
    25
100
AcDbLine
 10
109.2236996624
 20
156.0215502959
 30
0.0
 11
109.2236996624
 21
152.0215502959
 31
0.0
  0
LINE
  5
1DE
330
1F
100
AcDbEntity
  8
0
  6
Continuous
 62
     7
370
    25
100
AcDbLine
 10
107.2236996624
 20
152.0215502959
 30
0.0
 11
107.2236996624
 21
156.0215502959
 31
0.0
  0
LINE
  5
1DF
330
1F
100
AcDbEntity
  8
0
  6
Continuous
 62
     7
370
    25
100
AcDbLine
 10
103.2236996624
 20
179.0215502959
 30
0.0
 11
103.2236996624
 21
223.0215502959
 31
0.0
  0
LINE
  5
1E0
330
1F
100
AcDbEntity
  8
0
  6
Continuous
 62
     7
370
    25
100
AcDbLine
 10
103.2236996624
 20
223.0215502959
 30
0.0
 11
91.2592335684
 21
223.0215502959
 31
0.0
  0
ARC
  5
1E1
330
1F
100
AcDbEntity
  8
0
  6
Continuous
 62
     7
370
    25
100
AcDbCircle
 10
91.2592335684
 20
225.5215502959
 30
0.0
 40
2.5
100
AcDbArc
 50
225.0
 51
270.0
  0
LINE
  5
1E2
330
1F
100
AcDbEntity
  8
0
  6
Continuous
 62
     7
370
    25
100
AcDbLine
 10
89.4914666154
 20
223.7537833429
 30
0.0
 11
88.9559327095
 21
224.2893172488
 31
0.0
  0
ARC
  5
1E3
330
1F
100
AcDbEntity
  8
0
  6
Continuous
 62
     7
370
    25
100
AcDbCircle
 10
87.1881657565
 20
222.5215502959
 30
0.0
 40
2.50000000000001
100
AcDbArc
 50
45.0
 51
90.0
  0
LINE
  5
1E4
330
1F
100
AcDbEntity
  8
0
  6
Continuous
 62
     7
370
    25
100
AcDbLine
 10
87.1881657565
 20
225.0215502959
 30
0.0
 11
84.2236996624
 21
225.0215502959
 31
0.0
  0
LINE
  5
1E5
330
1F
100
AcDbEntity
  8
0
  6
Continuous
 62
     7
370
    25
100
AcDbLine
 10
84.2236996624
 20
261.0215502959
 30
0.0
 11
84.2236996624
 21
225.0215502959
 31
0.0
  0
LINE
  5
1E6
330
1F
100
AcDbEntity
  8
0
  6
Continuous
 62
     7
370
    25
100
AcDbLine
 10
107.2236996624
 20
261.0215502959
 30
0.0
 11
84.2236996624
 21
261.0215502959
 31
0.0
  0
LINE
  5
1E7
330
1F
100
AcDbEntity
  8
0
  6
Continuous
 62
     7
370
    25
100
AcDbLine
 10
84.2236996624
 20
141.0215502959
 30
0.0
 11
107.2236996624
 21
141.0215502959
 31
0.0
  0
LINE
  5
1E8
330
1F
100
AcDbEntity
  8
0
  6
Continuous
 62
     7
370
    25
100
AcDbLine
 10
84.2236996624
 20
177.0215502959
 30
0.0
 11
84.2236996624
 21
141.0215502959
 31
0.0
  0
LINE
  5
1E9
330
1F
100
AcDbEntity
  8
0
  6
Continuous
 62
     7
370
    25
100
AcDbLine
 10
84.2236996624
 20
177.0215502959
 30
0.0
 11
87.1881657565
 21
177.0215502959
 31
0.0
  0
ARC
  5
1EA
330
1F
100
AcDbEntity
  8
0
  6
Continuous
 62
     7
370
    25
100
AcDbCircle
 10
87.1881657565
 20
179.5215502959
 30
0.0
 40
2.5
100
AcDbArc
 50
270.0
 51
315.0
  0
LINE
  5
1EB
330
1F
100
AcDbEntity
  8
0
  6
Continuous
 62
     7
370
    25
100
AcDbLine
 10
88.9559327095
 20
177.7537833429
 30
0.0
 11
89.4914666154
 21
178.2893172488
 31
0.0
  0
ARC
  5
1EC
330
1F
100
AcDbEntity
  8
0
  6
Continuous
 62
     7
370
    25
100
AcDbCircle
 10
91.2592335684
 20
176.5215502959
 30
0.0
 40
2.50000000000001
100
AcDbArc
 50
90.0
 51
135.0
  0
LINE
  5
1ED
330
1F
100
AcDbEntity
  8
0
  6
Continuous
 62
     7
370
    25
100
AcDbLine
 10
91.2592335684
 20
179.0215502959
 30
0.0
 11
103.2236996624
 21
179.0215502959
 31
0.0
  0
CIRCLE
  5
1EE
330
1F
100
AcDbEntity
  8
0
  6
Continuous
 62
     7
370
    25
100
AcDbCircle
 10
95.7236996624
 20
150.0215502959
 30
0.0
 40
4.099999999999966
  0
CIRCLE
  5
1EF
330
1F
100
AcDbEntity
  8
0
  6
Continuous
 62
     7
370
    25
100
AcDbCircle
 10
95.7236996624
 20
174.7715502959
 30
0.0
 40
4.099999999999994
  0
CIRCLE
  5
1F0
330
1F
100
AcDbEntity
  8
0
  6
Continuous
 62
     7
370
    25
100
AcDbCircle
 10
95.7236996624
 20
227.2715502959
 30
0.0
 40
4.100000000000023
  0
CIRCLE
  5
1F1
330
1F
100
AcDbEntity
  8
0
  6
Continuous
 62
     7
370
    25
100
AcDbCircle
 10
95.7236996624
 20
252.0215502959
 30
0.0
 40
4.100000000000051
  0
LINE
  5
1F2
330
1F
100
AcDbEntity
  8
0
  6
Continuous
 62
     7
370
    25
100
AcDbLine
 10
107.2236996624
 20
141.0215502959
 30
0.0
 11
107.2236996624
 21
152.0215502959
 31
0.0
  0
LINE
  5
1F3
330
1F
100
AcDbEntity
  8
0
  6
Continuous
 62
     7
370
    25
100
AcDbLine
 10
107.2236996624
 20
250.0215502959
 30
0.0
 11
107.2236996624
 21
261.0215502959
 31
0.0
  0
CIRCLE
  5
1F4
330
1F
100
AcDbEntity
  8
0
  6
Continuous
 62
     7
370
    25
100
AcDbCircle
 10
95.7236996624
 20
252.0215502959
 30
0.0
 40
2.500000000000028
  0
CIRCLE
  5
1F5
330
1F
100
AcDbEntity
  8
0
  6
Continuous
 62
     7
370
    25
100
AcDbCircle
 10
95.7236996624
 20
150.0215502959
 30
0.0
 40
2.5
  0
LINE
  5
1F6
330
1F
100
AcDbEntity
  8
0
  6
Continuous
 62
     7
370
    25
100
AcDbLine
 10
102.7236996624
 20
222.0215502959
 30
0.0
 11
101.7236996624
 21
222.0215502959
 31
0.0
  0
LINE
  5
1F7
330
1F
100
AcDbEntity
  8
0
  6
Continuous
 62
     7
370
    25
100
AcDbLine
 10
101.7236996624
 20
221.0251403981
 30
0.0
 11
102.7236996624
 21
221.0251403981
 31
0.0
  0
LINE
  5
1F8
330
1F
100
AcDbEntity
  8
0
  6
Continuous
 62
     7
370
    25
100
AcDbLine
 10
102.7236996624
 20
221.0251403981
 30
0.0
 11
102.7236996624
 21
222.0215502959
 31
0.0
  0
LINE
  5
1F9
330
1F
100
AcDbEntity
  8
0
  6
Continuous
 62
     7
370
    25
100
AcDbLine
 10
101.7236996624
 20
222.0215502959
 30
0.0
 11
101.7236996624
 21
221.0251403981
 31
0.0
  0
LINE
  5
1FA
330
1F
100
AcDbEntity
  8
0
  6
Continuous
 62
     7
370
    25
100
AcDbLine
 10
102.7236996624
 20
217.8215502959
 30
0.0
 11
101.7236996624
 21
217.8215502959
 31
0.0
  0
LINE
  5
1FB
330
1F
100
AcDbEntity
  8
0
  6
Continuous
 62
     7
370
    25
100
AcDbLine
 10
102.7236996624
 20
217.8215502959
 30
0.0
 11
102.7236996624
 21
218.8179601936
 31
0.0
  0
LINE
  5
1FC
330
1F
100
AcDbEntity
  8
0
  6
Continuous
 62
     7
370
    25
100
AcDbLine
 10
102.7236996624
 20
218.8179601936
 30
0.0
 11
101.7236996624
 21
218.8179601936
 31
0.0
  0
LINE
  5
1FD
330
1F
100
AcDbEntity
  8
0
  6
Continuous
 62
     7
370
    25
100
AcDbLine
 10
101.7236996624
 20
217.8215502959
 30
0.0
 11
101.7236996624
 21
218.8179601936
 31
0.0
  0
LINE
  5
1FE
330
1F
100
AcDbEntity
  8
0
  6
Continuous
 62
     7
370
    25
100
AcDbLine
 10
102.7236996624
 20
218.9367425428
 30
0.0
 11
101.7236996624
 21
218.9367425428
 31
0.0
  0
LINE
  5
1FF
330
1F
100
AcDbEntity
  8
0
  6
Continuous
 62
     7
370
    25
100
AcDbLine
 10
101.7236996624
 20
218.9367425428
 30
0.0
 11
101.7236996624
 21
218.8179601936
 31
0.0
  0
LINE
  5
200
330
1F
100
AcDbEntity
  8
0
  6
Continuous
 62
     7
370
    25
100
AcDbLine
 10
85.7236996624
 20
177.2215502959
 30
0.0
 11
88.1679616536
 21
177.2215502959
 31
0.0
  0
LINE
  5
201
330
1F
100
AcDbEntity
  8
0
  6
Continuous
 62
     7
370
    25
100
AcDbLine
 10
89.4914666154
 20
178.2893172488
 30
0.0
 11
90.2236996624
 21
179.0215502959
 31
0.0
  0
LINE
  5
202
330
1F
100
AcDbEntity
  8
0
  6
Continuous
 62
     7
370
    25
100
AcDbLine
 10
90.2236996624
 20
179.0215502959
 30
0.0
 11
91.2592335684
 21
179.0215502959
 31
0.0
  0
LINE
  5
203
330
1F
100
AcDbEntity
  8
0
  6
Continuous
 62
     7
370
    25
100
AcDbLine
 10
102.7236996624
 20
179.0215502959
 30
0.0
 11
102.7236996624
 21
217.8215502959
 31
0.0
  0
LINE
  5
204
330
1F
100
AcDbEntity
  8
0
  6
Continuous
 62
     7
370
    25
100
AcDbLine
 10
102.7236996624
 20
218.8179601936
 30
0.0
 11
102.7236996624
 21
221.0251403981
 31
0.0
  0
LINE
  5
205
330
1F
100
AcDbEntity
  8
0
  6
Continuous
 62
     7
370
    25
100
AcDbLine
 10
102.7236996624
 20
222.0215502959
 30
0.0
 11
102.7236996624
 21
223.0215502959
 31
0.0
  0
LINE
  5
206
330
1F
100
AcDbEntity
  8
0
  6
Continuous
 62
     7
370
    25
100
AcDbLine
 10
91.2592335684
 20
223.0215502959
 30
0.0
 11
90.2236996624
 21
223.0215502959
 31
0.0
  0
LINE
  5
207
330
1F
100
AcDbEntity
  8
0
  6
Continuous
 62
     7
370
    25
100
AcDbLine
 10
90.2236996624
 20
223.0215502959
 30
0.0
 11
89.4914666154
 21
223.7537833429
 31
0.0
  0
LINE
  5
208
330
1F
100
AcDbEntity
  8
0
  6
Continuous
 62
     7
370
    25
100
AcDbLine
 10
88.1679616536
 20
224.8215502959
 30
0.0
 11
85.7236996624
 21
224.8215502959
 31
0.0
  0
LINE
  5
209
330
1F
100
AcDbEntity
  8
0
  6
Continuous
 62
     7
370
    25
100
AcDbLine
 10
85.7236996624
 20
225.0215502959
 30
0.0
 11
85.7236996624
 21
224.8215502959
 31
0.0
  0
LINE
  5
20A
330
1F
100
AcDbEntity
  8
0
  6
Continuous
 62
     7
370
    25
100
AcDbLine
 10
85.7236996624
 20
177.2215502959
 30
0.0
 11
85.7236996624
 21
177.0215502959
 31
0.0
  0
LINE
  5
20B
330
1F
100
AcDbEntity
  8
0
  6
Continuous
 62
     7
370
    25
100
AcDbLine
 10
102.7236996624
 20
220.9063580489
 30
0.0
 11
101.7236996624
 21
220.9063580489
 31
0.0
  0
LINE
  5
20C
330
1F
100
AcDbEntity
  8
0
  6
Continuous
 62
     7
370
    25
100
AcDbLine
 10
101.7236996624
 20
221.0251403981
 30
0.0
 11
101.7236996624
 21
220.9063580489
 31
0.0
  0
LINE
  5
20D
330
1F
100
AcDbEntity
  8
0
  6
Continuous
 62
     7
370
    25
100
AcDbLine
 10
101.7236996624
 20
220.9063580489
 30
0.0
 11
101.7236996624
 21
218.9367425428
 31
0.0
  0
LINE
  5
20E
330
1F
100
AcDbEntity
  8
0
  6
Continuous
 62
     7
370
    25
100
AcDbLine
 10
99.7236996624
 20
179.0215502959
 30
0.0
 11
99.7236996624
 21
212.5215502959
 31
0.0
  0
LINE
  5
20F
330
1F
100
AcDbEntity
  8
0
  6
Continuous
 62
     7
370
    25
100
AcDbLine
 10
99.7236996624
 20
212.5215502959
 30
0.0
 11
102.7236996624
 21
212.5215502959
 31
0.0
  0
LINE
  5
210
330
1F
100
AcDbEntity
  8
0
  6
Continuous
 62
     7
370
    25
100
AcDbLine
 10
85.7236996624
 20
224.8215502959
 30
0.0
 11
85.7236996624
 21
224.5215502959
 31
0.0
  0
LINE
  5
211
330
1F
100
AcDbEntity
  8
0
  6
Continuous
 62
     7
370
    25
100
AcDbLine
 10
85.7236996624
 20
177.5215502959
 30
0.0
 11
85.7236996624
 21
177.2215502959
 31
0.0
  0
LINE
  5
212
330
1F
100
AcDbEntity
  8
0
  6
Continuous
 62
     7
370
    25
100
AcDbLine
 10
86.0070771342
 20
177.5215502959
 30
0.0
 11
86.0070771342
 21
224.5215502959
 31
0.0
  0
LINE
  5
213
330
1F
100
AcDbEntity
  8
0
  6
Continuous
 62
     7
370
    25
100
AcDbLine
 10
85.0112971022
 20
177.5215502959
 30
0.0
 11
86.0070771342
 21
177.5215502959
 31
0.0
  0
LINE
  5
214
330
1F
100
AcDbEntity
  8
0
  6
Continuous
 62
     7
370
    25
100
AcDbLine
 10
85.0112971022
 20
177.5215502959
 30
0.0
 11
85.0112971022
 21
224.5215502959
 31
0.0
  0
LINE
  5
215
330
1F
100
AcDbEntity
  8
0
  6
Continuous
 62
     7
370
    25
100
AcDbLine
 10
86.0070771342
 20
224.5215502959
 30
0.0
 11
85.0112971022
 21
224.5215502959
 31
0.0
  0
LINE
  5
216
330
1F
100
AcDbEntity
  8
0
  6
Continuous
 62
     7
370
    25
100
AcDbLine
 10
87.6736996624
 20
177.5215502959
 30
0.0
 11
87.6736996624
 21
224.5215502959
 31
0.0
  0
LINE
  5
217
330
1F
100
AcDbEntity
  8
0
  6
Continuous
 62
     7
370
    25
100
AcDbLine
 10
87.6736996624
 20
177.5215502959
 30
0.0
 11
86.0070771342
 21
177.5215502959
 31
0.0
  0
LINE
  5
218
330
1F
100
AcDbEntity
  8
0
  6
Continuous
 62
     7
370
    25
100
AcDbLine
 10
87.6736996624
 20
224.5215502959
 30
0.0
 11
86.0070771342
 21
224.5215502959
 31
0.0
  0
CIRCLE
  5
219
330
1F
100
AcDbEntity
  8
0
  6
Continuous
 62
     7
370
    25
100
AcDbCircle
 10
90.2236996624
 20
198.0215502959
 30
0.0
 40
1.999999999999972
  0
CIRCLE
  5
21A
330
1F
100
AcDbEntity
  8
0
  6
Continuous
 62
     7
370
    25
100
AcDbCircle
 10
90.2236996624
 20
198.0215502959
 30
0.0
 40
1.499999999978627
  0
LINE
  5
21B
330
1F
100
AcDbEntity
  8
0
  6
Continuous
 62
     7
370
    25
100
AcDbLine
 10
84.6742621644
 20
224.5215502959
 30
0.0
 11
84.6742621644
 21
177.5215502959
 31
0.0
  0
LINE
  5
21C
330
1F
100
AcDbEntity
  8
0
  6
Continuous
 62
     7
370
    25
100
AcDbLine
 10
85.0112971022
 20
177.5215502959
 30
0.0
 11
84.6742621644
 21
177.5215502959
 31
0.0
  0
LINE
  5
21D
330
1F
100
AcDbEntity
  8
0
  6
Continuous
 62
     7
370
    25
100
AcDbLine
 10
85.0112971022
 20
224.5215502959
 30
0.0
 11
84.6742621644
 21
224.5215502959
 31
0.0
  0
LINE
  5
21E
330
1F
100
AcDbEntity
  8
0
  6
Continuous
 62
     7
370
    25
100
AcDbLine
 10
92.9236996624
 20
200.2715502959
 30
0.0
 11
90.4236996624
 21
200.2715502959
 31
0.0
  0
ARC
  5
21F
330
1F
100
AcDbEntity
  8
0
  6
Continuous
 62
     7
370
    25
100
AcDbCircle
 10
90.4236996624
 20
198.0215502959
 30
0.0
 40
2.25
100
AcDbArc
 50
90.0
 51
270.0
  0
LINE
  5
220
330
1F
100
AcDbEntity
  8
0
  6
Continuous
 62
     7
370
    25
100
AcDbLine
 10
90.4236996624
 20
195.7715502959
 30
0.0
 11
92.9236996624
 21
195.7715502959
 31
0.0
  0
ARC
  5
221
330
1F
100
AcDbEntity
  8
0
  6
Continuous
 62
     7
370
    25
100
AcDbCircle
 10
92.9236996624
 20
198.0215502959
 30
0.0
 40
2.25
100
AcDbArc
 50
270.0
 51
90.0
  0
LINE
  5
222
330
1F
100
AcDbEntity
  8
0
  6
Continuous
 62
     7
370
    25
100
AcDbLine
 10
94.6736996624
 20
221.0215502958
 30
0.0
 11
90.6736996624
 21
221.0215502959
 31
0.0
  0
ARC
  5
223
330
1F
100
AcDbEntity
  8
0
  6
Continuous
 62
     7
370
    25
100
AcDbCircle
 10
90.6736996624
 20
218.2715502959
 30
0.0
 40
2.749999999995936
100
AcDbArc
 50
90.0
 51
270.0
  0
LINE
  5
224
330
1F
100
AcDbEntity
  8
0
  6
Continuous
 62
     7
370
    25
100
AcDbLine
 10
90.6736996624
 20
215.5215502959
 30
0.0
 11
94.6736996624
 21
215.5215502959
 31
0.0
  0
ARC
  5
225
330
1F
100
AcDbEntity
  8
0
  6
Continuous
 62
     7
370
    25
100
AcDbCircle
 10
94.6736996624
 20
218.2715502959
 30
0.0
 40
2.750000000020236
100
AcDbArc
 50
270.0
 51
0.0000000007
  0
ARC
  5
226
330
1F
100
AcDbEntity
  8
0
  6
Continuous
 62
     7
370
    25
100
AcDbCircle
 10
94.6736996624
 20
218.2715502959
 30
0.0
 40
2.750000000020236
100
AcDbArc
 50
0.0000000007
 51
90.0
  0
ARC
  5
227
330
1F
100
AcDbEntity
  8
0
  6
Continuous
 62
     7
370
    25
100
AcDbCircle
 10
94.6736996624
 20
183.7715502959
 30
0.0
 40
2.749999999996362
100
AcDbArc
 50
0.0000000012
 51
90.0
  0
LINE
  5
228
330
1F
100
AcDbEntity
  8
0
  6
Continuous
 62
     7
370
    25
100
AcDbLine
 10
94.6736996624
 20
186.5215502959
 30
0.0
 11
90.6736996624
 21
186.5215502959
 31
0.0
  0
ARC
  5
229
330
1F
100
AcDbEntity
  8
0
  6
Continuous
 62
     7
370
    25
100
AcDbCircle
 10
90.6736996624
 20
183.7715502959
 30
0.0
 40
2.750000000024357
100
AcDbArc
 50
90.0
 51
270.0
  0
LINE
  5
22A
330
1F
100
AcDbEntity
  8
0
  6
Continuous
 62
     7
370
    25
100
AcDbLine
 10
90.6736996624
 20
181.0215502958
 30
0.0
 11
94.6736996624
 21
181.0215502959
 31
0.0
  0
ARC
  5
22B
330
1F
100
AcDbEntity
  8
0
  6
Continuous
 62
     7
370
    25
100
AcDbCircle
 10
94.6736996624
 20
183.7715502959
 30
0.0
 40
2.749999999967514
100
AcDbArc
 50
270.0
 51
0.0
  0
LINE
  5
22C
330
1F
100
AcDbEntity
  8
0
  6
Continuous
 62
     7
370
    25
100
AcDbLine
 10
87.6736996624
 20
222.7715502959
 30
0.0
 11
98.1736996624
 21
222.7715502959
 31
0.0
  0
LINE
  5
22D
330
1F
100
AcDbEntity
  8
0
  6
Continuous
 62
     7
370
    25
100
AcDbLine
 10
98.1736996624
 20
179.2715502959
 30
0.0
 11
98.1736996624
 21
222.7715502959
 31
0.0
  0
LINE
  5
22E
330
1F
100
AcDbEntity
  8
0
  6
Continuous
 62
     7
370
    25
100
AcDbLine
 10
87.6736996624
 20
179.2715502959
 30
0.0
 11
98.1736996624
 21
179.2715502959
 31
0.0
  0
LINE
  5
22F
330
1F
100
AcDbEntity
  8
0
  6
Continuous
 62
     7
370
    25
100
AcDbLine
 10
94.6736996624
 20
185.5215502959
 30
0.0
 11
94.6736996624
 21
186.5215502959
 31
0.0
  0
LINE
  5
230
330
1F
100
AcDbEntity
  8
0
  6
Continuous
 62
     7
370
    25
100
AcDbLine
 10
97.4236996624
 20
183.7715502959
 30
0.0
 11
96.4236996624
 21
183.7715502959
 31
0.0
  0
ARC
  5
231
330
1F
100
AcDbEntity
  8
0
  6
Continuous
 62
     7
370
    25
100
AcDbCircle
 10
94.6736996624
 20
183.7715502959
 30
0.0
 40
1.750000000010459
100
AcDbArc
 50
0.0000000009
 51
90.0
  0
LINE
  5
232
330
1F
100
AcDbEntity
  8
0
  6
Continuous
 62
     7
370
    25
100
AcDbLine
 10
90.6736996624
 20
186.5215502959
 30
0.0
 11
90.6736996624
 21
185.5215502959
 31
0.0
  0
LINE
  5
233
330
1F
100
AcDbEntity
  8
0
  6
Continuous
 62
     7
370
    25
100
AcDbLine
 10
94.6736996624
 20
185.5215502959
 30
0.0
 11
90.6736996624
 21
185.5215502959
 31
0.0
  0
ARC
  5
234
330
1F
100
AcDbEntity
  8
0
  6
Continuous
 62
     7
370
    25
100
AcDbCircle
 10
90.6736996624
 20
183.7715502959
 30
0.0
 40
1.750000000007731
100
AcDbArc
 50
90.0
 51
270.0
  0
LINE
  5
235
330
1F
100
AcDbEntity
  8
0
  6
Continuous
 62
     7
370
    25
100
AcDbLine
 10
90.6736996624
 20
181.0215502958
 30
0.0
 11
90.6736996624
 21
182.0215502959
 31
0.0
  0
LINE
  5
236
330
1F
100
AcDbEntity
  8
0
  6
Continuous
 62
     7
370
    25
100
AcDbLine
 10
90.6736996624
 20
182.0215502959
 30
0.0
 11
94.6736996624
 21
182.0215502959
 31
0.0
  0
LINE
  5
237
330
1F
100
AcDbEntity
  8
0
  6
Continuous
 62
     7
370
    25
100
AcDbLine
 10
94.6736996624
 20
181.0215502959
 30
0.0
 11
94.6736996624
 21
182.0215502959
 31
0.0
  0
LINE
  5
238
330
1F
100
AcDbEntity
  8
0
  6
Continuous
 62
     7
370
    25
100
AcDbLine
 10
90.6736996624
 20
215.5215502959
 30
0.0
 11
90.6736996624
 21
216.5215502959
 31
0.0
  0
LINE
  5
239
330
1F
100
AcDbEntity
  8
0
  6
Continuous
 62
     7
370
    25
100
AcDbLine
 10
90.6736996624
 20
220.0215502958
 30
0.0
 11
90.6736996624
 21
221.0215502959
 31
0.0
  0
ARC
  5
23A
330
1F
100
AcDbEntity
  8
0
  6
Continuous
 62
     7
370
    25
100
AcDbCircle
 10
90.6736996624
 20
218.2715502959
 30
0.0
 40
1.749999999979309
100
AcDbArc
 50
90.0
 51
270.0
  0
LINE
  5
23B
330
1F
100
AcDbEntity
  8
0
  6
Continuous
 62
     7
370
    25
100
AcDbLine
 10
94.6736996624
 20
221.0215502958
 30
0.0
 11
94.6736996624
 21
220.0215502959
 31
0.0
  0
LINE
  5
23C
330
1F
100
AcDbEntity
  8
0
  6
Continuous
 62
     7
370
    25
100
AcDbLine
 10
94.6736996624
 20
220.0215502959
 30
0.0
 11
90.6736996624
 21
220.0215502958
 31
0.0
  0
LINE
  5
23D
330
1F
100
AcDbEntity
  8
0
  6
Continuous
 62
     7
370
    25
100
AcDbLine
 10
90.6736996624
 20
216.5215502959
 30
0.0
 11
94.6736996624
 21
216.5215502959
 31
0.0
  0
LINE
  5
23E
330
1F
100
AcDbEntity
  8
0
  6
Continuous
 62
     7
370
    25
100
AcDbLine
 10
94.6736996624
 20
215.5215502959
 30
0.0
 11
94.6736996624
 21
216.5215502959
 31
0.0
  0
ARC
  5
23F
330
1F
100
AcDbEntity
  8
0
  6
Continuous
 62
     7
370
    25
100
AcDbCircle
 10
94.6736996624
 20
218.2715502959
 30
0.0
 40
1.750000000048871
100
AcDbArc
 50
270.0
 51
0.0000000009
  0
LINE
  5
240
330
1F
100
AcDbEntity
  8
0
  6
Continuous
 62
     7
370
    25
100
AcDbLine
 10
97.4236996624
 20
218.2715502959
 30
0.0
 11
96.4236996625
 21
218.2715502959
 31
0.0
  0
ARC
  5
241
330
1F
100
AcDbEntity
  8
0
  6
Continuous
 62
     7
370
    25
100
AcDbCircle
 10
94.6736996624
 20
183.7715502959
 30
0.0
 40
1.750000000010459
100
AcDbArc
 50
270.0
 51
0.0000000009
  0
ARC
  5
242
330
1F
100
AcDbEntity
  8
0
  6
Continuous
 62
     7
370
    25
100
AcDbCircle
 10
94.6736996624
 20
218.2715502959
 30
0.0
 40
1.750000000048871
100
AcDbArc
 50
0.0000000009
 51
90.0
  0
ARC
  5
243
330
1F
100
AcDbEntity
  8
0
  6
Continuous
 62
     7
370
    25
100
AcDbCircle
 10
12.5584354581
 20
156.0215502959
 30
0.0
 40
4.000000000000004
100
AcDbArc
 50
180.0
 51
270.0
  0
LINE
  5
244
330
1F
100
AcDbEntity
  8
0
  6
Continuous
 62
     7
370
    25
100
AcDbLine
 10
8.5584354581
 20
246.0215502959
 30
0.0
 11
8.5584354581
 21
156.0215502959
 31
0.0
  0
ARC
  5
245
330
1F
100
AcDbEntity
  8
0
  6
Continuous
 62
     7
370
    25
100
AcDbCircle
 10
12.5584354581
 20
246.0215502959
 30
0.0
 40
4.000000000000004
100
AcDbArc
 50
90.0
 51
180.0
  0
LINE
  5
246
330
1F
100
AcDbEntity
  8
0
  6
Continuous
 62
     7
370
    25
100
AcDbLine
 10
12.5584354581
 20
152.0215502959
 30
0.0
 11
23.5584354581
 21
152.0215502959
 31
0.0
  0
LINE
  5
247
330
1F
100
AcDbEntity
  8
0
  6
Continuous
 62
     7
370
    25
100
AcDbLine
 10
23.5584354581
 20
250.0215502959
 30
0.0
 11
12.5584354581
 21
250.0215502959
 31
0.0
  0
LINE
  5
248
330
1F
100
AcDbEntity
  8
0
  6
Continuous
 62
     7
370
    25
100
AcDbLine
 10
23.5584354581
 20
152.0215502959
 30
0.0
 11
23.5584354581
 21
250.0215502959
 31
0.0
  0
LINE
  5
249
330
1F
100
AcDbEntity
  8
0
  6
Continuous
 62
     7
370
    25
100
AcDbLine
 10
21.5584354581
 20
250.0215502959
 30
0.0
 11
21.5584354581
 21
261.0215502959
 31
0.0
  0
LINE
  5
24A
330
1F
100
AcDbEntity
  8
0
  6
Continuous
 62
     7
370
    25
100
AcDbLine
 10
23.5584354581
 20
261.0215502959
 30
0.0
 11
21.5584354581
 21
261.0215502959
 31
0.0
  0
LINE
  5
24B
330
1F
100
AcDbEntity
  8
0
  6
Continuous
 62
     7
370
    25
100
AcDbLine
 10
23.5584354581
 20
250.0215502959
 30
0.0
 11
23.5584354581
 21
261.0215502959
 31
0.0
  0
LINE
  5
24C
330
1F
100
AcDbEntity
  8
0
  6
Continuous
 62
     7
370
    25
100
AcDbLine
 10
23.5584354581
 20
141.0215502959
 30
0.0
 11
21.5584354581
 21
141.0215502959
 31
0.0
  0
LINE
  5
24D
330
1F
100
AcDbEntity
  8
0
  6
Continuous
 62
     7
370
    25
100
AcDbLine
 10
21.5584354581
 20
141.0215502959
 30
0.0
 11
21.5584354581
 21
152.0215502959
 31
0.0
  0
LINE
  5
24E
330
1F
100
AcDbEntity
  8
0
  6
Continuous
 62
     7
370
    25
100
AcDbLine
 10
23.5584354581
 20
141.0215502959
 30
0.0
 11
23.5584354581
 21
152.0215502959
 31
0.0
  0
LINE
  5
24F
330
1F
100
AcDbEntity
  8
0
  6
Continuous
 62
     7
370
    25
100
AcDbLine
 10
52.5584354581
 20
234.5215502959
 30
0.0
 11
52.5584354581
 21
167.5215502959
 31
0.0
  0
LINE
  5
250
330
1F
100
AcDbEntity
  8
0
  6
Continuous
 62
     7
370
    25
100
AcDbLine
 10
52.5584354581
 20
167.5215502959
 30
0.0
 11
51.5584354581
 21
167.5215502959
 31
0.0
  0
LINE
  5
251
330
1F
100
AcDbEntity
  8
0
  6
Continuous
 62
     7
370
    25
100
AcDbLine
 10
51.5584354581
 20
167.5215502959
 30
0.0
 11
51.5584354581
 21
234.5215502959
 31
0.0
  0
LINE
  5
252
330
1F
100
AcDbEntity
  8
0
  6
Continuous
 62
     7
370
    25
100
AcDbLine
 10
52.5584354581
 20
234.5215502959
 30
0.0
 11
51.5584354581
 21
234.5215502959
 31
0.0
  0
LINE
  5
253
330
1F
100
AcDbEntity
  8
0
  6
Continuous
 62
     7
370
    25
100
AcDbLine
 10
51.5584354581
 20
235.5215502959
 30
0.0
 11
51.5584354581
 21
234.5215502959
 31
0.0
  0
ARC
  5
254
330
1F
100
AcDbEntity
  8
0
  6
Continuous
 62
     7
370
    25
100
AcDbCircle
 10
51.5584354581
 20
234.5215502959
 30
0.0
 40
1.0
100
AcDbArc
 50
0.0
 51
90.0
  0
ARC
  5
255
330
1F
100
AcDbEntity
  8
0
  6
Continuous
 62
     7
370
    25
100
AcDbCircle
 10
51.5584354581
 20
167.5215502959
 30
0.0
 40
1.0
100
AcDbArc
 50
270.0
 51
0.0
  0
LINE
  5
256
330
1F
100
AcDbEntity
  8
0
  6
Continuous
 62
     7
370
    25
100
AcDbLine
 10
51.5584354581
 20
167.5215502959
 30
0.0
 11
51.5584354581
 21
166.5215502959
 31
0.0
  0
LINE
  5
257
330
1F
100
AcDbEntity
  8
0
  6
Continuous
 62
     7
370
    25
100
AcDbLine
 10
51.5584354581
 20
234.5215502959
 30
0.0
 11
23.5584354581
 21
234.5215502959
 31
0.0
  0
LINE
  5
258
330
1F
100
AcDbEntity
  8
0
  6
Continuous
 62
     7
370
    25
100
AcDbLine
 10
23.5584354581
 20
235.5215502959
 30
0.0
 11
51.5584354581
 21
235.5215502959
 31
0.0
  0
LINE
  5
259
330
1F
100
AcDbEntity
  8
0
  6
Continuous
 62
     7
370
    25
100
AcDbLine
 10
23.5584354581
 20
167.5215502959
 30
0.0
 11
51.5584354581
 21
167.5215502959
 31
0.0
  0
LINE
  5
25A
330
1F
100
AcDbEntity
  8
0
  6
Continuous
 62
     7
370
    25
100
AcDbLine
 10
51.5584354581
 20
166.5215502959
 30
0.0
 11
23.5584354581
 21
166.5215502959
 31
0.0
  0
LINE
  5
25B
330
1F
100
AcDbEntity
  8
0
  6
Continuous
 62
     7
370
    25
100
AcDbLine
 10
182.9619857539
 20
177.0215502959
 30
0.0
 11
182.9619857539
 21
141.0215502959
 31
0.0
  0
LINE
  5
25C
330
1F
100
AcDbEntity
  8
0
  6
Continuous
 62
     7
370
    25
100
AcDbLine
 10
180.9619857539
 20
141.0215502959
 30
0.0
 11
182.9619857539
 21
141.0215502959
 31
0.0
  0
LINE
  5
25D
330
1F
100
AcDbEntity
  8
0
  6
Continuous
 62
     7
370
    25
100
AcDbLine
 10
180.9619857539
 20
177.0215502959
 30
0.0
 11
180.9619857539
 21
141.0215502959
 31
0.0
  0
LINE
  5
25E
330
1F
100
AcDbEntity
  8
0
  6
Continuous
 62
     7
370
    25
100
AcDbLine
 10
182.9619857539
 20
177.0215502959
 30
0.0
 11
180.9619857539
 21
177.0215502959
 31
0.0
  0
LINE
  5
25F
330
1F
100
AcDbEntity
  8
0
  6
Continuous
 62
     7
370
    25
100
AcDbLine
 10
180.9619857539
 20
261.0215502959
 30
0.0
 11
180.9619857539
 21
225.0215502959
 31
0.0
  0
LINE
  5
260
330
1F
100
AcDbEntity
  8
0
  6
Continuous
 62
     7
370
    25
100
AcDbLine
 10
182.9619857539
 20
261.0215502959
 30
0.0
 11
182.9619857539
 21
225.0215502959
 31
0.0
  0
LINE
  5
261
330
1F
100
AcDbEntity
  8
0
  6
Continuous
 62
     7
370
    25
100
AcDbLine
 10
182.9619857539
 20
225.0215502959
 30
0.0
 11
180.9619857539
 21
225.0215502959
 31
0.0
  0
LINE
  5
262
330
1F
100
AcDbEntity
  8
0
  6
Continuous
 62
     7
370
    25
100
AcDbLine
 10
180.9619857539
 20
261.0215502959
 30
0.0
 11
182.9619857539
 21
261.0215502959
 31
0.0
  0
LINE
  5
263
330
1F
100
AcDbEntity
  8
0
  6
Continuous
 62
     7
370
    25
100
AcDbLine
 10
182.9619857539
 20
177.7537833429
 30
0.0
 11
182.9619857539
 21
177.0215502959
 31
0.0
  0
LINE
  5
264
330
1F
100
AcDbEntity
  8
0
  6
Continuous
 62
     7
370
    25
100
AcDbLine
 10
180.9619857539
 20
177.2215502959
 30
0.0
 11
180.9619857539
 21
177.5215502959
 31
0.0
  0
LINE
  5
265
330
1F
100
AcDbEntity
  8
0
  6
Continuous
 62
     7
370
    25
100
AcDbLine
 10
182.9619857539
 20
225.0215502959
 30
0.0
 11
182.9619857539
 21
224.2893172488
 31
0.0
  0
LINE
  5
266
330
1F
100
AcDbEntity
  8
0
  6
Continuous
 62
     7
370
    25
100
AcDbLine
 10
180.9619857539
 20
224.5215502959
 30
0.0
 11
180.9619857539
 21
224.8215502959
 31
0.0
  0
LINE
  5
267
330
1F
100
AcDbEntity
  8
0
  6
Continuous
 62
     7
370
    25
100
AcDbLine
 10
182.9619857539
 20
177.7537833429
 30
0.0
 11
182.9619857539
 21
178.2893172488
 31
0.0
  0
LINE
  5
268
330
1F
100
AcDbEntity
  8
0
  6
Continuous
 62
     7
370
    25
100
AcDbLine
 10
182.9619857539
 20
223.7537833429
 30
0.0
 11
182.9619857539
 21
224.2893172488
 31
0.0
  0
LINE
  5
269
330
1F
100
AcDbEntity
  8
0
  6
Continuous
 62
     7
370
    25
100
AcDbLine
 10
182.9619857539
 20
223.0215502959
 30
0.0
 11
182.7119857539
 21
223.0215502959
 31
0.0
  0
LINE
  5
26A
330
1F
100
AcDbEntity
  8
0
  6
Continuous
 62
     7
370
    25
100
AcDbLine
 10
182.9619857539
 20
223.7537833429
 30
0.0
 11
182.9619857539
 21
223.0215502959
 31
0.0
  0
LINE
  5
26B
330
1F
100
AcDbEntity
  8
0
  6
Continuous
 62
     7
370
    25
100
AcDbLine
 10
182.7119857539
 20
179.0215502959
 30
0.0
 11
182.9619857539
 21
179.0215502959
 31
0.0
  0
LINE
  5
26C
330
1F
100
AcDbEntity
  8
0
  6
Continuous
 62
     7
370
    25
100
AcDbLine
 10
182.9619857539
 20
179.0215502959
 30
0.0
 11
182.9619857539
 21
178.2893172488
 31
0.0
  0
LINE
  5
26D
330
1F
100
AcDbEntity
  8
0
  6
Continuous
 62
     7
370
    25
100
AcDbLine
 10
182.9619857539
 20
179.0215502959
 30
0.0
 11
182.9619857539
 21
223.0215502959
 31
0.0
  0
ARC
  5
26E
330
1F
100
AcDbEntity
  8
0
  6
Continuous
 62
     7
370
    25
100
AcDbCircle
 10
191.9619857539
 20
156.0215502959
 30
0.0
 40
4.000000000000028
100
AcDbArc
 50
270.0
 51
0.0
  0
ARC
  5
26F
330
1F
100
AcDbEntity
  8
0
  6
Continuous
 62
     7
370
    25
100
AcDbCircle
 10
191.9619857539
 20
246.0215502959
 30
0.0
 40
4.000000000000028
100
AcDbArc
 50
0.0
 51
90.0
  0
LINE
  5
270
330
1F
100
AcDbEntity
  8
0
  6
Continuous
 62
     7
370
    25
100
AcDbLine
 10
195.9619857539
 20
246.0215502959
 30
0.0
 11
195.9619857539
 21
156.0215502959
 31
0.0
  0
LINE
  5
271
330
1F
100
AcDbEntity
  8
0
  6
Continuous
 62
     7
370
    25
100
AcDbLine
 10
182.9619857539
 20
250.0215502959
 30
0.0
 11
191.9619857539
 21
250.0215502959
 31
0.0
  0
LINE
  5
272
330
1F
100
AcDbEntity
  8
0
  6
Continuous
 62
     7
370
    25
100
AcDbLine
 10
191.9619857539
 20
152.0215502959
 30
0.0
 11
182.9619857539
 21
152.0215502959
 31
0.0
  0
LINE
  5
273
330
1F
100
AcDbEntity
  8
0
  6
Continuous
 62
     7
370
    25
100
AcDbLine
 10
152.9619857539
 20
234.5215502959
 30
0.0
 11
152.9619857539
 21
167.5215502959
 31
0.0
  0
LINE
  5
274
330
1F
100
AcDbEntity
  8
0
  6
Continuous
 62
     7
370
    25
100
AcDbLine
 10
152.9619857539
 20
167.5215502959
 30
0.0
 11
151.9619857539
 21
167.5215502959
 31
0.0
  0
LINE
  5
275
330
1F
100
AcDbEntity
  8
0
  6
Continuous
 62
     7
370
    25
100
AcDbLine
 10
151.9619857539
 20
167.5215502959
 30
0.0
 11
151.9619857539
 21
234.5215502959
 31
0.0
  0
LINE
  5
276
330
1F
100
AcDbEntity
  8
0
  6
Continuous
 62
     7
370
    25
100
AcDbLine
 10
152.9619857539
 20
234.5215502959
 30
0.0
 11
151.9619857539
 21
234.5215502959
 31
0.0
  0
ARC
  5
277
330
1F
100
AcDbEntity
  8
0
  6
Continuous
 62
     7
370
    25
100
AcDbCircle
 10
152.9619857539
 20
234.5215502959
 30
0.0
 40
1.0
100
AcDbArc
 50
90.0
 51
180.0
  0
LINE
  5
278
330
1F
100
AcDbEntity
  8
0
  6
Continuous
 62
     7
370
    25
100
AcDbLine
 10
152.9619857539
 20
234.5215502959
 30
0.0
 11
152.9619857539
 21
235.5215502959
 31
0.0
  0
LINE
  5
279
330
1F
100
AcDbEntity
  8
0
  6
Continuous
 62
     7
370
    25
100
AcDbLine
 10
152.9619857539
 20
167.5215502959
 30
0.0
 11
152.9619857539
 21
166.5215502959
 31
0.0
  0
ARC
  5
27A
330
1F
100
AcDbEntity
  8
0
  6
Continuous
 62
     7
370
    25
100
AcDbCircle
 10
152.9619857539
 20
167.5215502959
 30
0.0
 40
1.0
100
AcDbArc
 50
180.0
 51
270.0
  0
LINE
  5
27B
330
1F
100
AcDbEntity
  8
0
  6
Continuous
 62
     7
370
    25
100
AcDbLine
 10
180.9619857539
 20
234.5215502959
 30
0.0
 11
152.9619857539
 21
234.5215502959
 31
0.0
  0
LINE
  5
27C
330
1F
100
AcDbEntity
  8
0
  6
Continuous
 62
     7
370
    25
100
AcDbLine
 10
152.9619857539
 20
235.5215502959
 30
0.0
 11
180.9619857539
 21
235.5215502959
 31
0.0
  0
LINE
  5
27D
330
1F
100
AcDbEntity
  8
0
  6
Continuous
 62
     7
370
    25
100
AcDbLine
 10
180.9619857539
 20
225.0215502959
 30
0.0
 11
180.9619857539
 21
224.8215502959
 31
0.0
  0
LINE
  5
27E
330
1F
100
AcDbEntity
  8
0
  6
Continuous
 62
     7
370
    25
100
AcDbLine
 10
165.9619857539
 20
224.8215502959
 30
0.0
 11
180.9619857539
 21
224.8215502959
 31
0.0
  0
LINE
  5
27F
330
1F
100
AcDbEntity
  8
0
  6
Continuous
 62
     7
370
    25
100
AcDbLine
 10
165.9619857539
 20
224.8215502959
 30
0.0
 11
165.9619857539
 21
177.2215502959
 31
0.0
  0
LINE
  5
280
330
1F
100
AcDbEntity
  8
0
  6
Continuous
 62
     7
370
    25
100
AcDbLine
 10
165.9619857539
 20
177.2215502959
 30
0.0
 11
180.9619857539
 21
177.2215502959
 31
0.0
  0
LINE
  5
281
330
1F
100
AcDbEntity
  8
0
  6
Continuous
 62
     7
370
    25
100
AcDbLine
 10
180.9619857539
 20
177.2215502959
 30
0.0
 11
180.9619857539
 21
177.0215502959
 31
0.0
  0
LINE
  5
282
330
1F
100
AcDbEntity
  8
0
  6
Continuous
 62
     7
370
    25
100
AcDbLine
 10
152.9619857539
 20
167.5215502959
 30
0.0
 11
180.9619857539
 21
167.5215502959
 31
0.0
  0
LINE
  5
283
330
1F
100
AcDbEntity
  8
0
  6
Continuous
 62
     7
370
    25
100
AcDbLine
 10
180.9619857539
 20
166.5215502959
 30
0.0
 11
152.9619857539
 21
166.5215502959
 31
0.0
  0
LINE
  5
284
330
1F
100
AcDbEntity
  8
0
  6
Continuous
 62
     7
370
    25
100
AcDbLine
 10
165.9619857539
 20
223.0215502959
 30
0.0
 11
166.2119857539
 21
223.0215502959
 31
0.0
  0
LINE
  5
285
330
1F
100
AcDbEntity
  8
0
  6
Continuous
 62
     7
370
    25
100
AcDbLine
 10
165.9619857539
 20
179.0215502959
 30
0.0
 11
166.2119857539
 21
179.0215502959
 31
0.0
  0
LINE
  5
286
330
1F
100
AcDbEntity
  8
0
  6
Continuous
 62
     7
370
    25
100
AcDbLine
 10
174.1619857539
 20
177.5215502959
 30
0.0
 11
174.1619857539
 21
224.5215502959
 31
0.0
  0
LINE
  5
287
330
1F
100
AcDbEntity
  8
0
  6
Continuous
 62
     7
370
    25
100
AcDbLine
 10
166.2119857539
 20
224.5215502959
 30
0.0
 11
166.2119857539
 21
177.5215502959
 31
0.0
  0
LINE
  5
288
330
1F
100
AcDbEntity
  8
0
  6
Continuous
 62
     7
370
    25
100
AcDbLine
 10
174.1619857539
 20
177.5215502959
 30
0.0
 11
166.2119857539
 21
177.5215502959
 31
0.0
  0
LINE
  5
289
330
1F
100
AcDbEntity
  8
0
  6
Continuous
 62
     7
370
    25
100
AcDbLine
 10
174.1619857539
 20
224.5215502959
 30
0.0
 11
166.2119857539
 21
224.5215502959
 31
0.0
  0
LINE
  5
28A
330
1F
100
AcDbEntity
  8
0
  6
Continuous
 62
     7
370
    25
100
AcDbLine
 10
181.8037579058
 20
177.5215502959
 30
0.0
 11
181.8037579058
 21
224.5215502959
 31
0.0
  0
LINE
  5
28B
330
1F
100
AcDbEntity
  8
0
  6
Continuous
 62
     7
370
    25
100
AcDbLine
 10
174.7619857539
 20
224.5215502959
 30
0.0
 11
174.7619857539
 21
177.5215502959
 31
0.0
  0
LINE
  5
28C
330
1F
100
AcDbEntity
  8
0
  6
Continuous
 62
     7
370
    25
100
AcDbLine
 10
181.8037579058
 20
177.5215502959
 30
0.0
 11
174.7619857539
 21
177.5215502959
 31
0.0
  0
LINE
  5
28D
330
1F
100
AcDbEntity
  8
0
  6
Continuous
 62
     7
370
    25
100
AcDbLine
 10
181.8037579058
 20
224.5215502959
 30
0.0
 11
174.7619857539
 21
224.5215502959
 31
0.0
  0
LINE
  5
28E
330
1F
100
AcDbEntity
  8
0
  6
Continuous
 62
     7
370
    25
100
AcDbLine
 10
182.7119857539
 20
177.5215502959
 30
0.0
 11
182.7119857539
 21
224.5215502959
 31
0.0
  0
LINE
  5
28F
330
1F
100
AcDbEntity
  8
0
  6
Continuous
 62
     7
370
    25
100
AcDbLine
 10
181.8037579058
 20
177.5215502959
 30
0.0
 11
182.7119857539
 21
177.5215502959
 31
0.0
  0
LINE
  5
290
330
1F
100
AcDbEntity
  8
0
  6
Continuous
 62
     7
370
    25
100
AcDbLine
 10
182.7119857539
 20
224.5215502959
 30
0.0
 11
181.8037579058
 21
224.5215502959
 31
0.0
  0
LINE
  5
291
330
1F
100
AcDbEntity
  8
0
  6
Continuous
 62
     7
370
    25
100
AcDbLine
 10
174.7619857539
 20
177.5215502959
 30
0.0
 11
174.1619857539
 21
177.5215502959
 31
0.0
  0
LINE
  5
292
330
1F
100
AcDbEntity
  8
0
  6
Continuous
 62
     7
370
    25
100
AcDbLine
 10
174.1619857539
 20
224.5215502959
 30
0.0
 11
174.7619857539
 21
224.5215502959
 31
0.0
  0
LINE
  5
293
330
1F
100
AcDbEntity
  8
0
  6
Continuous
 62
     8
370
    25
100
AcDbLine
 10
182.7119857539
 20
177.7537833429
 30
0.0
 11
182.9619857539
 21
177.7537833429
 31
0.0
  0
LINE
  5
294
330
1F
100
AcDbEntity
  8
0
  6
Continuous
 62
     8
370
    25
100
AcDbLine
 10
182.9619857539
 20
224.2893172488
 30
0.0
 11
182.7119857539
 21
224.2893172488
 31
0.0
  0
LINE
  5
295
330
1F
100
AcDbEntity
  8
0
  6
Continuous
 62
     8
370
    25
100
AcDbLine
 10
182.9619857539
 20
178.2893172488
 30
0.0
 11
182.7119857539
 21
178.2893172488
 31
0.0
  0
LINE
  5
296
330
1F
100
AcDbEntity
  8
0
  6
Continuous
 62
     8
370
    25
100
AcDbLine
 10
182.7119857539
 20
223.7537833429
 30
0.0
 11
182.9619857539
 21
223.7537833429
 31
0.0
  0
LINE
  5
297
330
1F
100
AcDbEntity
  8
0
  6
Continuous
 62
     7
370
    25
100
AcDbLine
 10
84.2236996624
 20
83.9593254438
 30
0.0
 11
84.2236996624
 21
81.9593254438
 31
0.0
  0
LINE
  5
298
330
1F
100
AcDbEntity
  8
0
  6
Continuous
 62
     7
370
    25
100
AcDbLine
 10
107.2236996624
 20
81.9593254438
 30
0.0
 11
84.2236996624
 21
81.9593254438
 31
0.0
  0
LINE
  5
299
330
1F
100
AcDbEntity
  8
0
  6
Continuous
 62
     7
370
    25
100
AcDbLine
 10
107.2236996624
 20
83.9593254438
 30
0.0
 11
107.2236996624
 21
81.9593254438
 31
0.0
  0
LINE
  5
29A
330
1F
100
AcDbEntity
  8
0
  6
Continuous
 62
     7
370
    25
100
AcDbLine
 10
107.2236996624
 20
83.9593254438
 30
0.0
 11
84.2236996624
 21
83.9593254438
 31
0.0
  0
LINE
  5
29B
330
1F
100
AcDbEntity
  8
0
  6
Continuous
 62
     7
370
    25
100
AcDbLine
 10
109.2236996624
 20
83.9593254438
 30
0.0
 11
109.2236996624
 21
72.9593254438
 31
0.0
  0
LINE
  5
29C
330
1F
100
AcDbEntity
  8
0
  6
Continuous
 62
     7
370
    25
100
AcDbLine
 10
107.2236996624
 20
72.9593254438
 30
0.0
 11
109.2236996624
 21
72.9593254438
 31
0.0
  0
LINE
  5
29D
330
1F
100
AcDbEntity
  8
0
  6
Continuous
 62
     7
370
    25
100
AcDbLine
 10
107.2236996624
 20
81.9593254438
 30
0.0
 11
107.2236996624
 21
72.9593254438
 31
0.0
  0
LINE
  5
29E
330
1F
100
AcDbEntity
  8
0
  6
Continuous
 62
     7
370
    25
100
AcDbLine
 10
109.2236996624
 20
83.9593254438
 30
0.0
 11
107.2236996624
 21
83.9593254438
 31
0.0
  0
LINE
  5
29F
330
1F
100
AcDbEntity
  8
0
  6
Continuous
 62
     7
370
    25
100
AcDbLine
 10
109.2236996624
 20
68.9593254438
 30
0.0
 11
107.2236996624
 21
68.9593254438
 31
0.0
  0
LINE
  5
2A0
330
1F
100
AcDbEntity
  8
0
  6
Continuous
 62
     7
370
    25
100
AcDbLine
 10
107.2236996624
 20
68.9593254438
 30
0.0
 11
107.2236996624
 21
72.9593254438
 31
0.0
  0
LINE
  5
2A1
330
1F
100
AcDbEntity
  8
0
  6
Continuous
 62
     7
370
    25
100
AcDbLine
 10
109.2236996624
 20
72.9593254438
 30
0.0
 11
109.2236996624
 21
68.9593254438
 31
0.0
  0
LINE
  5
2A2
330
1F
100
AcDbEntity
  8
0
  6
Continuous
 62
     7
370
    25
100
AcDbLine
 10
105.7236996624
 20
111.9593254438
 30
0.0
 11
86.7236996624
 21
111.9593254438
 31
0.0
  0
LINE
  5
2A3
330
1F
100
AcDbEntity
  8
0
  6
Continuous
 62
     7
370
    25
100
AcDbLine
 10
86.7236996624
 20
111.9593254438
 30
0.0
 11
86.7236996624
 21
112.9593254438
 31
0.0
  0
LINE
  5
2A4
330
1F
100
AcDbEntity
  8
0
  6
Continuous
 62
     7
370
    25
100
AcDbLine
 10
86.7236996624
 20
112.9593254438
 30
0.0
 11
105.7236996624
 21
112.9593254438
 31
0.0
  0
LINE
  5
2A5
330
1F
100
AcDbEntity
  8
0
  6
Continuous
 62
     7
370
    25
100
AcDbLine
 10
105.7236996624
 20
111.9593254438
 30
0.0
 11
105.7236996624
 21
112.9593254438
 31
0.0
  0
ARC
  5
2A6
330
1F
100
AcDbEntity
  8
0
  6
Continuous
 62
     7
370
    25
100
AcDbCircle
 10
86.7236996624
 20
111.9593254438
 30
0.0
 40
1.0
100
AcDbArc
 50
90.0
 51
180.0
  0
LINE
  5
2A7
330
1F
100
AcDbEntity
  8
0
  6
Continuous
 62
     7
370
    25
100
AcDbLine
 10
85.7236996624
 20
111.9593254438
 30
0.0
 11
86.7236996624
 21
111.9593254438
 31
0.0
  0
ARC
  5
2A8
330
1F
100
AcDbEntity
  8
0
  6
Continuous
 62
     7
370
    25
100
AcDbCircle
 10
105.7236996624
 20
111.9593254438
 30
0.0
 40
1.0
100
AcDbArc
 50
0.0
 51
90.0
  0
LINE
  5
2A9
330
1F
100
AcDbEntity
  8
0
  6
Continuous
 62
     7
370
    25
100
AcDbLine
 10
105.7236996624
 20
111.9593254438
 30
0.0
 11
106.7236996624
 21
111.9593254438
 31
0.0
  0
LINE
  5
2AA
330
1F
100
AcDbEntity
  8
0
  6
Continuous
 62
     7
370
    25
100
AcDbLine
 10
106.7236996624
 20
111.9593254438
 30
0.0
 11
106.7236996624
 21
83.9593254438
 31
0.0
  0
LINE
  5
2AB
330
1F
100
AcDbEntity
  8
0
  6
Continuous
 62
     7
370
    25
100
AcDbLine
 10
105.7236996624
 20
83.9593254438
 30
0.0
 11
105.7236996624
 21
111.9593254438
 31
0.0
  0
LINE
  5
2AC
330
1F
100
AcDbEntity
  8
0
  6
Continuous
 62
     7
370
    25
100
AcDbLine
 10
86.7236996624
 20
111.9593254438
 30
0.0
 11
86.7236996624
 21
83.9593254438
 31
0.0
  0
LINE
  5
2AD
330
1F
100
AcDbEntity
  8
0
  6
Continuous
 62
     7
370
    25
100
AcDbLine
 10
85.7236996624
 20
83.9593254438
 30
0.0
 11
85.7236996624
 21
111.9593254438
 31
0.0
  0
ARC
  5
2AE
330
1F
100
AcDbEntity
  8
0
  6
Continuous
 62
     7
370
    25
100
AcDbCircle
 10
164.6736996624
 20
90.4593254438
 30
0.0
 40
80.0
100
AcDbArc
 50
180.2148596768
 51
184.6604193841
  0
LINE
  5
2AF
330
1F
100
AcDbEntity
  8
0
  6
Continuous
 62
     7
370
    25
100
AcDbLine
 10
85.6736996624
 20
90.1593254438
 30
0.0
 11
84.6742621644
 21
90.1593254438
 31
0.0
  0
LINE
  5
2B0
330
1F
100
AcDbEntity
  8
0
  6
Continuous
 62
     7
370
    25
100
AcDbLine
 10
85.6736996624
 20
90.7593254438
 30
0.0
 11
85.6736996624
 21
90.1593254438
 31
0.0
  0
LINE
  5
2B1
330
1F
100
AcDbEntity
  8
0
  6
Continuous
 62
     7
370
    25
100
AcDbLine
 10
85.6736996624
 20
90.7593254438
 30
0.0
 11
84.6742621644
 21
90.7593254438
 31
0.0
  0
ARC
  5
2B2
330
1F
100
AcDbEntity
  8
0
  6
Continuous
 62
     7
370
    25
100
AcDbCircle
 10
164.6736996624
 20
90.4593254438
 30
0.0
 40
80.0
100
AcDbArc
 50
174.080849488
 51
179.7851403232
  0
LINE
  5
2B3
330
1F
100
AcDbEntity
  8
0
  6
Continuous
 62
     7
370
    25
100
AcDbLine
 10
85.7236996624
 20
98.7093254438
 30
0.0
 11
85.100227324
 21
98.7093254438
 31
0.0
  0
LINE
  5
2B4
330
1F
100
AcDbEntity
  8
0
  6
Continuous
 62
     7
370
    25
100
AcDbLine
 10
84.2236996624
 20
313.0646508876
 30
0.0
 11
84.2236996624
 21
315.0646508876
 31
0.0
  0
LINE
  5
2B5
330
1F
100
AcDbEntity
  8
0
  6
Continuous
 62
     7
370
    25
100
AcDbLine
 10
84.2236996624
 20
315.0646508876
 30
0.0
 11
107.2236996624
 21
315.0646508876
 31
0.0
  0
LINE
  5
2B6
330
1F
100
AcDbEntity
  8
0
  6
Continuous
 62
     7
370
    25
100
AcDbLine
 10
84.2236996624
 20
313.0646508876
 30
0.0
 11
107.2236996624
 21
313.0646508876
 31
0.0
  0
LINE
  5
2B7
330
1F
100
AcDbEntity
  8
0
  6
Continuous
 62
     7
370
    25
100
AcDbLine
 10
107.2236996624
 20
313.0646508876
 30
0.0
 11
107.2236996624
 21
315.0646508876
 31
0.0
  0
LINE
  5
2B8
330
1F
100
AcDbEntity
  8
0
  6
Continuous
 62
     7
370
    25
100
AcDbLine
 10
107.2236996624
 20
324.0646508876
 30
0.0
 11
107.2236996624
 21
315.0646508876
 31
0.0
  0
LINE
  5
2B9
330
1F
100
AcDbEntity
  8
0
  6
Continuous
 62
     7
370
    25
100
AcDbLine
 10
109.2236996624
 20
324.0646508876
 30
0.0
 11
107.2236996624
 21
324.0646508876
 31
0.0
  0
LINE
  5
2BA
330
1F
100
AcDbEntity
  8
0
  6
Continuous
 62
     7
370
    25
100
AcDbLine
 10
109.2236996624
 20
324.0646508876
 30
0.0
 11
109.2236996624
 21
313.0646508876
 31
0.0
  0
LINE
  5
2BB
330
1F
100
AcDbEntity
  8
0
  6
Continuous
 62
     7
370
    25
100
AcDbLine
 10
109.2236996624
 20
313.0646508876
 30
0.0
 11
107.2236996624
 21
313.0646508876
 31
0.0
  0
LINE
  5
2BC
330
1F
100
AcDbEntity
  8
0
  6
Continuous
 62
     7
370
    25
100
AcDbLine
 10
107.2236996624
 20
324.0646508876
 30
0.0
 11
107.2236996624
 21
328.0646508876
 31
0.0
  0
LINE
  5
2BD
330
1F
100
AcDbEntity
  8
0
  6
Continuous
 62
     7
370
    25
100
AcDbLine
 10
107.2236996624
 20
328.0646508876
 30
0.0
 11
109.2236996624
 21
328.0646508876
 31
0.0
  0
LINE
  5
2BE
330
1F
100
AcDbEntity
  8
0
  6
Continuous
 62
     7
370
    25
100
AcDbLine
 10
109.2236996624
 20
328.0646508876
 30
0.0
 11
109.2236996624
 21
324.0646508876
 31
0.0
  0
LINE
  5
2BF
330
1F
100
AcDbEntity
  8
0
  6
Continuous
 62
     7
370
    25
100
AcDbLine
 10
85.7236996624
 20
285.0646508876
 30
0.0
 11
86.7236996624
 21
285.0646508876
 31
0.0
  0
LINE
  5
2C0
330
1F
100
AcDbEntity
  8
0
  6
Continuous
 62
     7
370
    25
100
AcDbLine
 10
86.7236996624
 20
284.0646508876
 30
0.0
 11
86.7236996624
 21
285.0646508876
 31
0.0
  0
ARC
  5
2C1
330
1F
100
AcDbEntity
  8
0
  6
Continuous
 62
     7
370
    25
100
AcDbCircle
 10
86.7236996624
 20
285.0646508876
 30
0.0
 40
1.0
100
AcDbArc
 50
180.0
 51
270.0
  0
LINE
  5
2C2
330
1F
100
AcDbEntity
  8
0
  6
Continuous
 62
     7
370
    25
100
AcDbLine
 10
105.7236996624
 20
284.0646508876
 30
0.0
 11
86.7236996624
 21
284.0646508876
 31
0.0
  0
LINE
  5
2C3
330
1F
100
AcDbEntity
  8
0
  6
Continuous
 62
     7
370
    25
100
AcDbLine
 10
86.7236996624
 20
285.0646508876
 30
0.0
 11
105.7236996624
 21
285.0646508876
 31
0.0
  0
LINE
  5
2C4
330
1F
100
AcDbEntity
  8
0
  6
Continuous
 62
     7
370
    25
100
AcDbLine
 10
105.7236996624
 20
284.0646508876
 30
0.0
 11
105.7236996624
 21
285.0646508876
 31
0.0
  0
LINE
  5
2C5
330
1F
100
AcDbEntity
  8
0
  6
Continuous
 62
     7
370
    25
100
AcDbLine
 10
106.7236996624
 20
313.0646508876
 30
0.0
 11
106.7236996624
 21
285.0646508876
 31
0.0
  0
LINE
  5
2C6
330
1F
100
AcDbEntity
  8
0
  6
Continuous
 62
     7
370
    25
100
AcDbLine
 10
106.7236996624
 20
285.0646508876
 30
0.0
 11
105.7236996624
 21
285.0646508876
 31
0.0
  0
LINE
  5
2C7
330
1F
100
AcDbEntity
  8
0
  6
Continuous
 62
     7
370
    25
100
AcDbLine
 10
105.7236996624
 20
285.0646508876
 30
0.0
 11
105.7236996624
 21
313.0646508876
 31
0.0
  0
LINE
  5
2C8
330
1F
100
AcDbEntity
  8
0
  6
Continuous
 62
     7
370
    25
100
AcDbLine
 10
86.7236996624
 20
313.0646508876
 30
0.0
 11
86.7236996624
 21
285.0646508876
 31
0.0
  0
LINE
  5
2C9
330
1F
100
AcDbEntity
  8
0
  6
Continuous
 62
     7
370
    25
100
AcDbLine
 10
85.7236996624
 20
285.0646508876
 30
0.0
 11
85.7236996624
 21
313.0646508876
 31
0.0
  0
ARC
  5
2CA
330
1F
100
AcDbEntity
  8
0
  6
Continuous
 62
     7
370
    25
100
AcDbCircle
 10
105.7236996624
 20
285.0646508876
 30
0.0
 40
1.0
100
AcDbArc
 50
270.0
 51
0.0
  0
LINE
  5
2CB
330
1F
100
AcDbEntity
  8
0
  6
Continuous
 62
     7
370
    25
100
AcDbLine
 10
85.6736996624
 20
306.8646508876
 30
0.0
 11
85.6736996624
 21
306.2646508876
 31
0.0
  0
ARC
  5
2CC
330
1F
100
AcDbEntity
  8
0
  6
Continuous
 62
     7
370
    25
100
AcDbCircle
 10
164.6736996624
 20
306.5646508876
 30
0.0
 40
80.0
100
AcDbArc
 50
175.3395806159
 51
179.7851403232
  0
LINE
  5
2CD
330
1F
100
AcDbEntity
  8
0
  6
Continuous
 62
     7
370
    25
100
AcDbLine
 10
85.100227324
 20
298.3146508876
 30
0.0
 11
85.7236996624
 21
298.3146508876
 31
0.0
  0
ARC
  5
2CE
330
1F
100
AcDbEntity
  8
0
  6
Continuous
 62
     7
370
    25
100
AcDbCircle
 10
164.6736996624
 20
306.5646508876
 30
0.0
 40
80.0
100
AcDbArc
 50
180.2148596768
 51
185.919150512
  0
LINE
  5
2CF
330
1F
100
AcDbEntity
  8
0
  6
Continuous
 62
     7
370
    25
100
AcDbLine
 10
84.6742621644
 20
306.8646508876
 30
0.0
 11
85.6736996624
 21
306.8646508876
 31
0.0
  0
LINE
  5
2D0
330
1F
100
AcDbEntity
  8
0
  6
Continuous
 62
     7
370
    25
100
AcDbLine
 10
85.6736996624
 20
306.2646508876
 30
0.0
 11
84.6742621644
 21
306.2646508876
 31
0.0
  0
LINE
  5
2D1
330
1F
100
AcDbEntity
  8
0
  6
Continuous
 62
     7
370
    25
100
AcDbLine
 10
195.1130450243
 20
34.4986435424
 30
0.0
 11
196.5272585866
 21
35.3150516543
 31
0.0
  0
LINE
  5
2D2
330
1F
100
AcDbEntity
  8
0
  6
Continuous
 62
     7
370
    25
100
AcDbLine
 10
169.0715769987
 20
115.8702877193
 30
0.0
 11
164.9753422873
 21
118.234993684
 31
0.0
  0
ARC
  5
2D3
330
1F
100
AcDbEntity
  8
0
  6
Continuous
 62
     7
370
    25
100
AcDbCircle
 10
151.0403540784
 20
109.6130677594
 30
0.0
 40
1.000000000000009
100
AcDbArc
 50
119.9973117337
 51
180.0
  0
LINE
  5
2D4
330
1F
100
AcDbEntity
  8
0
  6
Continuous
 62
     7
370
    25
100
AcDbLine
 10
150.0403540784
 20
109.6130677594
 30
0.0
 11
150.0403540784
 21
54.904833363
 31
0.0
  0
LINE
  5
2D5
330
1F
100
AcDbEntity
  8
0
  6
Continuous
 62
     7
370
    25
100
AcDbLine
 10
163.9754235546
 20
118.234993684
 30
0.0
 11
150.5403947121
 21
110.4791166217
 31
0.0
  0
ARC
  5
2D6
330
1F
100
AcDbEntity
  8
0
  6
Continuous
 62
     7
370
    25
100
AcDbCircle
 10
164.4753829209
 20
117.3689448217
 30
0.0
 40
1.000000000000007
100
AcDbArc
 50
60.0026882664
 51
119.9973117337
  0
LINE
  5
2D7
330
1F
100
AcDbEntity
  8
0
  6
Continuous
 62
     7
370
    25
100
AcDbLine
 10
150.5403947121
 20
54.0387845006
 30
0.0
 11
169.0715769987
 21
43.3409606762
 31
0.0
  0
ARC
  5
2D8
330
1F
100
AcDbEntity
  8
0
  6
Continuous
 62
     7
370
    25
100
AcDbCircle
 10
151.0403540784
 20
54.904833363
 30
0.0
 40
1.0
100
AcDbArc
 50
180.0
 51
240.0026882664
  0
LINE
  5
2D9
330
1F
100
AcDbEntity
  8
0
  6
Continuous
 62
     7
370
    25
100
AcDbLine
 10
174.1983310117
 20
67.6651247729
 30
0.0
 11
174.5518269399
 21
67.8692599732
 31
0.0
  0
LINE
  5
2DA
330
1F
100
AcDbEntity
  8
0
  6
Continuous
 62
     7
370
    25
100
AcDbLine
 10
175.6123147246
 20
69.7062777417
 30
0.0
 11
175.6123147246
 21
70.1144817976
 31
0.0
  0
LINE
  5
2DB
330
1F
100
AcDbEntity
  8
0
  6
Continuous
 62
     7
370
    25
100
AcDbLine
 10
172.7485322608
 20
67.8255534782
 30
0.0
 11
173.1981824296
 21
67.565975961
 31
0.0
  0
LINE
  5
2DC
330
1F
100
AcDbEntity
  8
0
  6
Continuous
 62
     7
370
    25
100
AcDbLine
 10
175.1980198949
 20
71.0301714106
 30
0.0
 11
172.7485322608
 21
72.4442305226
 31
0.0
  0
LWPOLYLINE
  5
2DD
330
1F
100
AcDbEntity
  8
0
  6
Continuous
 62
     7
370
    25
100
AcDbPolyline
 90
       27
 70
   128
 43
0.0
 10
178.49056331
 20
55.5237852388
 10
178.843501638
 20
55.6814891713
 10
179.3017543744
 20
55.7999902811
 10
179.7300607605
 20
55.8090631454
 10
180.1146546764
 20
55.7084161548
 10
180.4431749575
 20
55.5012841866
 10
180.7050626915
 20
55.1943246325
 10
180.8919005911
 20
54.7974034252
 10
180.9976835326
 20
54.3232779389
 10
181.0190115652
 20
53.7871869568
 10
180.9551991883
 20
53.2063608842
 10
180.8082973842
 20
52.599467949
 10
180.5830276979
 20
51.9860141894
 10
180.2866304823
 20
51.3857165141
 10
179.9286321879
 20
50.8178689843
 10
179.5205391744
 20
50.3007226867
 10
179.0754678871
 20
49.8508991289
 10
178.6077232832
 20
49.4828560102
 10
178.1323390593
 20
49.2084225392
 10
177.6645944555
 20
49.0364192335
 10
177.2195231681
 20
48.9723744209
 10
176.8114301546
 20
49.0183465543
 10
176.4534318602
 20
49.1728580516
 10
176.1570346446
 20
49.430942786
 10
175.9317649583
 20
49.7843057019
 10
175.7848631542
 20
50.2215894244
 10
175.7211412084
 20
50.7264856544
  0
ARC
  5
2DE
330
1F
100
AcDbEntity
  8
0
  6
Continuous
 62
     7
370
    25
100
AcDbCircle
 10
177.3135611585
 20
52.3950398315
 30
0.0
 40
2.154541335657056
100
AcDbArc
 50
288.7431310939
 51
311.2514923731
  0
LINE
  5
2DF
330
1F
100
AcDbEntity
  8
0
  6
Continuous
 62
     7
370
    25
100
AcDbLine
 10
178.7341911636
 20
52.1850470653
 30
0.0
 11
178.7341911636
 21
50.7752068908
 31
0.0
  0
LINE
  5
2E0
330
1F
100
AcDbEntity
  8
0
  6
Continuous
 62
     7
370
    25
100
AcDbLine
 10
179.9550824322
 20
52.8898525925
 30
0.0
 11
178.7341911636
 21
52.1850470653
 31
0.0
  0
ARC
  5
2E1
330
1F
100
AcDbEntity
  8
0
  6
Continuous
 62
     7
370
    25
100
AcDbCircle
 10
177.8414480458
 20
53.3103711106
 30
0.0
 40
2.155060589289699
100
AcDbArc
 50
348.7476401811
 51
11.2523598189
  0
LINE
  5
2E2
330
1F
100
AcDbEntity
  8
0
  6
Continuous
 62
     7
370
    25
100
AcDbLine
 10
178.7341911636
 20
53.0260841015
 30
0.0
 11
179.9550824322
 21
53.7308896287
 31
0.0
  0
LINE
  5
2E3
330
1F
100
AcDbEntity
  8
0
  6
Continuous
 62
     7
370
    25
100
AcDbLine
 10
178.7341911636
 20
54.435924276
 30
0.0
 11
178.7341911636
 21
53.0260841015
 31
0.0
  0
ARC
  5
2E4
330
1F
100
AcDbEntity
  8
0
  6
Continuous
 62
     7
370
    25
100
AcDbCircle
 10
179.4265011841
 20
52.3956411577
 30
0.0
 40
2.154541335718698
100
AcDbArc
 50
108.7431310944
 51
131.2514923728
  0
LINE
  5
2E5
330
1F
100
AcDbEntity
  8
0
  6
Continuous
 62
     7
370
    25
100
AcDbLine
 10
178.0058711789
 20
52.6056339239
 30
0.0
 11
178.0058711789
 21
54.0154740984
 31
0.0
  0
LINE
  5
2E6
330
1F
100
AcDbEntity
  8
0
  6
Continuous
 62
     7
370
    25
100
AcDbLine
 10
176.7849799103
 20
51.9008283967
 30
0.0
 11
178.0058711789
 21
52.6056339239
 31
0.0
  0
ARC
  5
2E7
330
1F
100
AcDbEntity
  8
0
  6
Continuous
 62
     7
370
    25
100
AcDbCircle
 10
178.8986142966
 20
51.4803098786
 30
0.0
 40
2.155060589262901
100
AcDbArc
 50
168.7476401809
 51
191.252359819
  0
LINE
  5
2E8
330
1F
100
AcDbEntity
  8
0
  6
Continuous
 62
     7
370
    25
100
AcDbLine
 10
178.0058711789
 20
51.7645968877
 30
0.0
 11
176.7849799103
 21
51.0597913605
 31
0.0
  0
LINE
  5
2E9
330
1F
100
AcDbEntity
  8
0
  6
Continuous
 62
     7
370
    25
100
AcDbLine
 10
178.0058711789
 20
50.3547567132
 30
0.0
 11
178.0058711789
 21
51.7645968877
 31
0.0
  0
LINE
  5
2EA
330
1F
100
AcDbEntity
  8
0
  6
Continuous
 62
     7
370
    25
100
AcDbLine
 10
178.0058711789
 20
51.7645968877
 30
0.0
 11
177.2774328122
 21
52.1851154058
 31
0.0
  0
LINE
  5
2EB
330
1F
100
AcDbEntity
  8
0
  6
Continuous
 62
     7
370
    25
100
AcDbLine
 10
178.0058711789
 20
53.4465342791
 30
0.0
 11
178.7341911636
 21
53.0260841015
 31
0.0
  0
LINE
  5
2EC
330
1F
100
AcDbEntity
  8
0
  6
Continuous
 62
     7
370
    25
100
AcDbLine
 10
178.7341911636
 20
50.7752068908
 30
0.0
 11
178.0058711789
 21
51.6301496235
 31
0.0
  0
LINE
  5
2ED
330
1F
100
AcDbEntity
  8
0
  6
Continuous
 62
     7
370
    25
100
AcDbLine
 10
177.7805033833
 20
51.8946989468
 30
0.0
 11
177.4488156199
 21
52.2840525947
 31
0.0
  0
LINE
  5
2EE
330
1F
100
AcDbEntity
  8
0
  6
Continuous
 62
     7
370
    25
100
AcDbLine
 10
179.9550824322
 20
52.8898525925
 30
0.0
 11
178.8503216997
 21
53.0931248331
 31
0.0
  0
LINE
  5
2EF
330
1F
100
AcDbEntity
  8
0
  6
Continuous
 62
     7
370
    25
100
AcDbLine
 10
178.5094000117
 20
53.1558532713
 30
0.0
 11
178.0058711789
 21
53.2485008745
 31
0.0
  0
LINE
  5
2F0
330
1F
100
AcDbEntity
  8
0
  6
Continuous
 62
     7
370
    25
100
AcDbLine
 10
178.7341911636
 20
52.1850470653
 30
0.0
 11
178.0057527968
 21
52.6055655834
 31
0.0
  0
LWPOLYLINE
  5
2F1
330
1F
100
AcDbEntity
  8
0
  6
Continuous
 62
     7
370
    25
100
AcDbPolyline
 90
       28
 70
   128
 43
0.0
 10
178.4905633116
 20
98.3921778637
 10
178.7090468983
 20
98.4963419607
 10
179.1731836638
 20
98.6455762303
 10
179.6115064473
 20
98.6861152797
 10
180.0099271939
 20
98.6166561505
 10
180.3556403331
 20
98.4394313163
 10
180.63753436
 20
98.160136929
 10
180.8465489688
 20
97.7877497401
 10
180.9759662578
 20
97.3342385802
 10
181.021626649
 20
96.8141796712
 10
180.9820625798
 20
96.2442881342
 10
180.858545672
 20
95.6428807522
 10
180.6550458605
 20
95.0292872534
 10
180.3781037968
 20
94.4232290375
 10
180.0366206267
 20
93.8441853144
 10
179.6415719002
 20
93.3107670257
 10
179.2056548084
 20
92.8401186741
 10
178.7428800854
 20
92.447367285
 10
178.2681216915
 20
92.145136211
 10
177.7966387522
 20
91.9431394077
 10
177.343585117
 20
91.8478692184
 10
176.9235223025
 20
91.8623877054
 10
176.5499514732
 20
91.9862282327
 10
176.234879503
 20
92.2154104637
 10
175.9884330643
 20
92.5425682931
 10
175.8185331483
 20
92.9571865989
 10
175.7306404781
 20
93.4459392077
 10
175.7211412085
 20
93.5948782761
  0
ARC
  5
2F2
330
1F
100
AcDbEntity
  8
0
  6
Continuous
 62
     7
370
    25
100
AcDbCircle
 10
177.2269597873
 20
95.4060284032
 30
0.0
 40
2.320361156710226
100
AcDbArc
 50
291.7731161366
 51
313.1885241826
  0
LINE
  5
2F3
330
1F
100
AcDbEntity
  8
0
  6
Continuous
 62
     7
370
    25
100
AcDbLine
 10
178.752391464
 20
95.0860707359
 30
0.0
 11
178.815017484
 21
93.7142398084
 31
0.0
  0
LINE
  5
2F4
330
1F
100
AcDbEntity
  8
0
  6
Continuous
 62
     7
370
    25
100
AcDbLine
 10
179.9716754635
 20
95.8622666229
 30
0.0
 11
178.752391464
 21
95.0860707359
 31
0.0
  0
ARC
  5
2F5
330
1F
100
AcDbEntity
  8
0
  6
Continuous
 62
     7
370
    25
100
AcDbCircle
 10
178.0039716897
 20
96.1824722725
 30
0.0
 40
1.993587168814914
100
AcDbArc
 50
350.7572407712
 51
14.4703962624
  0
LINE
  5
2F6
330
1F
100
AcDbEntity
  8
0
  6
Continuous
 62
     7
370
    25
100
AcDbLine
 10
178.7150320503
 20
95.90443344
 30
0.0
 11
179.9343160499
 21
96.680629327
 31
0.0
  0
LINE
  5
2F7
330
1F
100
AcDbEntity
  8
0
  6
Continuous
 62
     7
370
    25
100
AcDbLine
 10
178.6524060302
 20
97.2762643676
 30
0.0
 11
178.7150320503
 21
95.90443344
 31
0.0
  0
ARC
  5
2F8
330
1F
100
AcDbEntity
  8
0
  6
Continuous
 62
     7
370
    25
100
AcDbCircle
 10
179.5131025552
 20
95.121437834
 30
0.0
 40
2.320361156777202
100
AcDbArc
 50
111.773116137
 51
133.1885241824
  0
LINE
  5
2F9
330
1F
100
AcDbEntity
  8
0
  6
Continuous
 62
     7
370
    25
100
AcDbLine
 10
177.9876708785
 20
95.4413955013
 30
0.0
 11
177.9250448585
 21
96.8132264289
 31
0.0
  0
LINE
  5
2FA
330
1F
100
AcDbEntity
  8
0
  6
Continuous
 62
     7
370
    25
100
AcDbLine
 10
176.768386879
 20
94.6651996144
 30
0.0
 11
177.9876708785
 21
95.4413955013
 31
0.0
  0
ARC
  5
2FB
330
1F
100
AcDbEntity
  8
0
  6
Continuous
 62
     7
370
    25
100
AcDbCircle
 10
178.7360906528
 20
94.3449939647
 30
0.0
 40
1.993587168791712
100
AcDbArc
 50
170.757240771
 51
194.4703962625
  0
LINE
  5
2FC
330
1F
100
AcDbEntity
  8
0
  6
Continuous
 62
     7
370
    25
100
AcDbLine
 10
178.0250302922
 20
94.6230327972
 30
0.0
 11
176.8057462927
 21
93.8468369102
 31
0.0
  0
LINE
  5
2FD
330
1F
100
AcDbEntity
  8
0
  6
Continuous
 62
     7
370
    25
100
AcDbLine
 10
178.0876563123
 20
93.2512018696
 30
0.0
 11
178.0250302922
 21
94.6230327972
 31
0.0
  0
LINE
  5
2FE
330
1F
100
AcDbEntity
  8
0
  6
Continuous
 62
     7
370
    25
100
AcDbLine
 10
177.9462726576
 20
96.348228791
 30
0.0
 11
178.7150320503
 21
95.90443344
 31
0.0
  0
LINE
  5
2FF
330
1F
100
AcDbEntity
  8
0
  6
Continuous
 62
     7
370
    25
100
AcDbLine
 10
178.0250302922
 20
94.6230327972
 30
0.0
 11
177.3312710064
 21
95.0235315081
 31
0.0
  0
LINE
  5
300
330
1F
100
AcDbEntity
  8
0
  6
Continuous
 62
     7
370
    25
100
AcDbLine
 10
179.9716754635
 20
95.8622666229
 30
0.0
 11
178.9199813861
 21
96.0349041355
 31
0.0
  0
LINE
  5
301
330
1F
100
AcDbEntity
  8
0
  6
Continuous
 62
     7
370
    25
100
AcDbLine
 10
178.3177934802
 20
96.1337543853
 30
0.0
 11
177.9533325332
 21
96.1935813186
 31
0.0
  0
LINE
  5
302
330
1F
100
AcDbEntity
  8
0
  6
Continuous
 62
     7
370
    25
100
AcDbLine
 10
178.815017484
 20
93.7142398084
 30
0.0
 11
177.5376779601
 21
95.1549301228
 31
0.0
  0
LINE
  5
303
330
1F
100
AcDbEntity
  8
0
  6
Continuous
 62
     7
370
    25
100
AcDbLine
 10
178.752391464
 20
95.0860707359
 30
0.0
 11
177.9836320713
 21
95.5298660869
 31
0.0
  0
LINE
  5
304
330
1F
100
AcDbEntity
  8
0
  6
Continuous
 62
     7
370
    25
100
AcDbLine
 10
169.0715769987
 20
118.801175569
 30
0.0
 11
170.485790561
 21
117.9847674572
 31
0.0
  0
LINE
  5
305
330
1F
100
AcDbEntity
  8
0
  6
Continuous
 62
     7
370
    25
100
AcDbLine
 10
185.3350329659
 20
128.189868855
 30
0.0
 11
169.0715769987
 21
118.801175569
 31
0.0
  0
LINE
  5
306
330
1F
100
AcDbEntity
  8
0
  6
Continuous
 62
     7
370
    25
100
AcDbLine
 10
185.3350329659
 20
128.189868855
 30
0.0
 11
186.7492465283
 21
127.3734607432
 31
0.0
  0
LINE
  5
307
330
1F
100
AcDbEntity
  8
0
  6
Continuous
 62
     7
370
    25
100
AcDbLine
 10
186.7492465283
 20
127.3734607432
 30
0.0
 11
170.485790561
 21
117.9847674572
 31
0.0
  0
LINE
  5
308
330
1F
100
AcDbEntity
  8
0
  6
Continuous
 62
     7
370
    25
100
AcDbLine
 10
183.9208194036
 20
58.7842979449
 30
0.0
 11
183.9208194036
 21
94.7120936679
 31
0.0
  0
LINE
  5
309
330
1F
100
AcDbEntity
  8
0
  6
Continuous
 62
     7
370
    25
100
AcDbLine
 10
183.9208194036
 20
94.7120936679
 30
0.0
 11
175.4606642952
 21
89.8281500814
 31
0.0
  0
ARC
  5
30A
330
1F
100
AcDbEntity
  8
0
  6
Continuous
 62
     7
370
    25
100
AcDbCircle
 10
174.7283803117
 20
90.8503084271
 30
0.0
 40
1.257397119455581
100
AcDbArc
 50
245.6860478386
 51
305.6181726599
  0
LINE
  5
30B
330
1F
100
AcDbEntity
  8
0
  6
Continuous
 62
     7
370
    25
100
AcDbLine
 10
174.2106642952
 20
89.7044386081
 30
0.0
 11
173.8319846387
 21
89.9231167859
 31
0.0
  0
ARC
  5
30C
330
1F
100
AcDbEntity
  8
0
  6
Continuous
 62
     7
370
    25
100
AcDbCircle
 10
173.3142686222
 20
88.7772469669
 30
0.0
 40
1.25739711945554
100
AcDbArc
 50
65.6860478386
 51
125.6181726599
  0
LINE
  5
30D
330
1F
100
AcDbEntity
  8
0
  6
Continuous
 62
     7
370
    25
100
AcDbLine
 10
172.5819846387
 20
89.7994053125
 30
0.0
 11
170.485790561
 21
88.5892982293
 31
0.0
  0
LINE
  5
30E
330
1F
100
AcDbEntity
  8
0
  6
Continuous
 62
     7
370
    25
100
AcDbLine
 10
170.485790561
 20
117.9847674572
 30
0.0
 11
170.485790561
 21
88.5892982293
 31
0.0
  0
LINE
  5
30F
330
1F
100
AcDbEntity
  8
0
  6
Continuous
 62
     7
370
    25
100
AcDbLine
 10
186.7492465283
 20
118.3915118124
 30
0.0
 11
186.7492465283
 21
127.3734607432
 31
0.0
  0
LINE
  5
310
330
1F
100
AcDbEntity
  8
0
  6
Continuous
 62
     7
370
    25
100
AcDbLine
 10
186.7492465283
 20
38.3705122476
 30
0.0
 11
186.7492465283
 21
118.3915118124
 31
0.0
  0
LINE
  5
311
330
1F
100
AcDbEntity
  8
0
  6
Continuous
 62
     7
370
    25
100
AcDbLine
 10
186.7492465283
 20
29.3885633169
 30
0.0
 11
186.7492465283
 21
38.3705122476
 31
0.0
  0
LINE
  5
312
330
1F
100
AcDbEntity
  8
0
  6
Continuous
 62
     7
370
    25
100
AcDbLine
 10
170.485790561
 20
19.9998700309
 30
0.0
 11
186.7492465283
 21
29.3885633169
 31
0.0
  0
LINE
  5
313
330
1F
100
AcDbEntity
  8
0
  6
Continuous
 62
     7
370
    25
100
AcDbLine
 10
170.485790561
 20
49.3953392588
 30
0.0
 11
170.485790561
 21
19.9998700309
 31
0.0
  0
LINE
  5
314
330
1F
100
AcDbEntity
  8
0
  6
Continuous
 62
     7
370
    25
100
AcDbLine
 10
170.485790561
 20
49.3953392588
 30
0.0
 11
172.5819846387
 21
50.605446342
 31
0.0
  0
ARC
  5
315
330
1F
100
AcDbEntity
  8
0
  6
Continuous
 62
     7
370
    25
100
AcDbCircle
 10
170.6732185263
 20
53.6654949797
 30
0.0
 40
3.606561483868127
100
AcDbArc
 50
301.9546716495
 51
331.1443911208
  0
LINE
  5
316
330
1F
100
AcDbEntity
  8
0
  6
Continuous
 62
     7
370
    25
100
AcDbLine
 10
173.8319846387
 20
51.9249541488
 30
0.0
 11
174.2106642952
 21
52.5808465517
 31
0.0
  0
ARC
  5
317
330
1F
100
AcDbEntity
  8
0
  6
Continuous
 62
     7
370
    25
100
AcDbCircle
 10
177.3694304076
 20
50.8403057208
 30
0.0
 40
3.606561483867817
100
AcDbArc
 50
121.9546716495
 51
151.1443911208
  0
LINE
  5
318
330
1F
100
AcDbEntity
  8
0
  6
Continuous
 62
     7
370
    25
100
AcDbLine
 10
175.4606642952
 20
53.9003543585
 30
0.0
 11
183.9208194036
 21
58.7842979449
 31
0.0
  0
LWPOLYLINE
  5
319
330
1F
100
AcDbEntity
  8
0
  6
Continuous
 62
     7
370
    25
100
AcDbPolyline
 90
       38
 70
   128
 43
0.0
 10
178.6175185447
 20
28.6952666521
 10
179.1074752116
 20
29.02626792
 10
179.5833367172
 20
29.4440574932
 10
180.0314133925
 20
29.9366163265
 10
180.4388148873
 20
30.4897743989
 10
180.7938210024
 20
31.0876183599
 10
181.0862188581
 20
31.7129493272
 10
181.3075967006
 20
32.3477776674
 10
181.4515858923
 20
32.973840525
 10
181.5140441264
 20
33.5731272114
 10
181.4931745932
 20
34.1283973399
 10
181.3895776712
 20
34.6236767997
 10
181.2062336552
 20
35.0447173026
 10
180.9484170187
 20
35.3794062799
 10
180.623544677
 20
35.6181153391
 10
180.2409626158
 20
35.7539772552
 10
179.8116770245
 20
35.7830835281
 10
179.3480376679
 20
35.7045968235
 10
178.8633826062
 20
35.5207750609
 10
178.3716544831
 20
35.2369064577
 10
177.8869994214
 20
34.8611573969
 10
177.4233600648
 20
34.4043374947
 10
176.9940744735
 20
33.8795886281
 10
176.6114924123
 20
33.3020068665
 10
176.2866200706
 20
32.6882081856
 10
176.0288034342
 20
32.0558504558
 10
175.8454594181
 20
31.4231254579
 10
175.7418624961
 20
30.8082355379
 10
175.7209929629
 20
30.2288699593
 10
175.783451197
 20
29.701696015
 10
175.9274403888
 20
29.2418795395
 10
176.1488182312
 20
28.8626486156
 10
176.4412160869
 20
28.5749130266
 10
176.796222202
 20
28.3869504015
 10
177.2036236968
 20
28.3041680827
 10
177.6517003721
 20
28.3289475669
 10
178.1275618778
 20
28.4605759935
 10
178.6175185447
 20
28.6952666521
  0
LWPOLYLINE
  5
31A
330
1F
100
AcDbEntity
  8
0
  6
Continuous
 62
     7
370
    25
100
AcDbPolyline
 90
       38
 70
   128
 43
0.0
 10
178.6175185447
 20
48.9046517463
 10
179.1074752116
 20
49.2356530142
 10
179.5833367172
 20
49.6534425874
 10
180.0314133925
 20
50.1460014206
 10
180.4388148873
 20
50.6991594931
 10
180.7938210024
 20
51.297003454
 10
181.0862188581
 20
51.9223344213
 10
181.3075967006
 20
52.5571627615
 10
181.4515858923
 20
53.1832256191
 10
181.5140441264
 20
53.7825123056
 10
181.4931745932
 20
54.337782434
 10
181.3895776712
 20
54.8330618939
 10
181.2062336552
 20
55.2541023968
 10
180.9484170187
 20
55.5887913741
 10
180.623544677
 20
55.8275004333
 10
180.2409626158
 20
55.9633623493
 10
179.8116770245
 20
55.9924686223
 10
179.3480376679
 20
55.9139819177
 10
178.8633826062
 20
55.7301601551
 10
178.3716544831
 20
55.4462915519
 10
177.8869994214
 20
55.0705424911
 10
177.4233600648
 20
54.6137225889
 10
176.9940744735
 20
54.0889737223
 10
176.6114924123
 20
53.5113919606
 10
176.2866200706
 20
52.8975932797
 10
176.0288034342
 20
52.26523555
 10
175.8454594181
 20
51.632510552
 10
175.7418624961
 20
51.017620632
 10
175.7209929629
 20
50.4382550535
 10
175.783451197
 20
49.9110811091
 10
175.9274403888
 20
49.4512646336
 10
176.1488182312
 20
49.0720337098
 10
176.4412160869
 20
48.7842981208
 10
176.796222202
 20
48.5963354957
 10
177.2036236968
 20
48.5135531769
 10
177.6517003721
 20
48.5383326611
 10
178.1275618778
 20
48.6699610876
 10
178.6175185447
 20
48.9046517463
  0
LWPOLYLINE
  5
31B
330
1F
100
AcDbEntity
  8
0
  6
Continuous
 62
     7
370
    25
100
AcDbPolyline
 90
       38
 70
   128
 43
0.0
 10
178.6175185447
 20
91.7730443703
 10
179.1074752116
 20
92.1040456382
 10
179.5833367172
 20
92.5218352114
 10
180.0314133925
 20
93.0143940446
 10
180.4388148873
 20
93.5675521171
 10
180.7938210024
 20
94.165396078
 10
181.0862188581
 20
94.7907270453
 10
181.3075967006
 20
95.4255553855
 10
181.4515858923
 20
96.0516182431
 10
181.5140441264
 20
96.6509049296
 10
181.4931745932
 20
97.2061750581
 10
181.3895776712
 20
97.7014545179
 10
181.2062336552
 20
98.1224950208
 10
180.9484170187
 20
98.4571839981
 10
180.623544677
 20
98.6958930573
 10
180.2409626158
 20
98.8317549733
 10
179.8116770245
 20
98.8608612463
 10
179.3480376679
 20
98.7823745417
 10
178.8633826062
 20
98.5985527791
 10
178.3716544831
 20
98.3146841759
 10
177.8869994214
 20
97.9389351151
 10
177.4233600648
 20
97.4821152129
 10
176.9940744735
 20
96.9573663463
 10
176.6114924123
 20
96.3797845847
 10
176.2866200706
 20
95.7659859037
 10
176.0288034342
 20
95.133628174
 10
175.8454594181
 20
94.500903176
 10
175.7418624961
 20
93.886013256
 10
175.7209929629
 20
93.3066476775
 10
175.783451197
 20
92.7794737331
 10
175.9274403888
 20
92.3196572576
 10
176.1488182312
 20
91.9404263338
 10
176.4412160869
 20
91.6526907448
 10
176.796222202
 20
91.4647281197
 10
177.2036236968
 20
91.3819458009
 10
177.6517003721
 20
91.4067252851
 10
178.1275618778
 20
91.5383537116
 10
178.6175185447
 20
91.7730443703
  0
LWPOLYLINE
  5
31C
330
1F
100
AcDbEntity
  8
0
  6
Continuous
 62
     7
370
    25
100
AcDbPolyline
 90
       38
 70
   128
 43
0.0
 10
178.6175185447
 20
111.9824294645
 10
179.1074752116
 20
112.3134307323
 10
179.5833367172
 20
112.7312203056
 10
180.0314133925
 20
113.2237791388
 10
180.4388148873
 20
113.7769372112
 10
180.7938210024
 20
114.3747811722
 10
181.0862188581
 20
115.0001121395
 10
181.3075967006
 20
115.6349404797
 10
181.4515858923
 20
116.2610033373
 10
181.5140441264
 20
116.8602900238
 10
181.4931745932
 20
117.4155601522
 10
181.3895776712
 20
117.9108396121
 10
181.2062336552
 20
118.331880115
 10
180.9484170187
 20
118.6665690923
 10
180.623544677
 20
118.9052781515
 10
180.2409626158
 20
119.0411400675
 10
179.8116770245
 20
119.0702463405
 10
179.3480376679
 20
118.9917596358
 10
178.8633826062
 20
118.8079378732
 10
178.3716544831
 20
118.5240692701
 10
177.8869994214
 20
118.1483202092
 10
177.4233600648
 20
117.6915003071
 10
176.9940744735
 20
117.1667514404
 10
176.6114924123
 20
116.5891696788
 10
176.2866200706
 20
115.9753709979
 10
176.0288034342
 20
115.3430132682
 10
175.8454594181
 20
114.7102882702
 10
175.7418624961
 20
114.0953983502
 10
175.7209929629
 20
113.5160327716
 10
175.783451197
 20
112.9888588273
 10
175.9274403888
 20
112.5290423518
 10
176.1488182312
 20
112.149811428
 10
176.4412160869
 20
111.862075839
 10
176.796222202
 20
111.6741132138
 10
177.2036236968
 20
111.5913308951
 10
177.6517003721
 20
111.6161103793
 10
178.1275618778
 20
111.7477388058
 10
178.6175185447
 20
111.9824294645
  0
LINE
  5
31D
330
1F
100
AcDbEntity
  8
0
  6
Continuous
 62
     7
370
    25
100
AcDbLine
 10
169.0715769987
 20
118.801175569
 30
0.0
 11
169.0715769987
 21
89.4057063411
 31
0.0
  0
LINE
  5
31E
330
1F
100
AcDbEntity
  8
0
  6
Continuous
 62
     7
370
    25
100
AcDbLine
 10
170.485790561
 20
88.5892982293
 30
0.0
 11
169.0715769987
 21
89.4057063411
 31
0.0
  0
LWPOLYLINE
  5
31F
330
1F
100
AcDbEntity
  8
0
  6
Continuous
 62
     7
370
    25
100
AcDbPolyline
 90
       15
 70
   128
 43
0.0
 10
177.4861476948
 20
113.942021253
 10
177.8661653348
 20
114.209126443
 10
178.2284137724
 20
114.5591934433
 10
178.5559546732
 20
114.9758535101
 10
178.8334725886
 20
115.4396240816
 10
179.0479910895
 20
115.9288197615
 10
179.1894795291
 20
116.4205663034
 10
179.2513220652
 20
116.8918701855
 10
179.2306270096
 20
117.3206937622
 10
179.1283620401
 20
117.6869857195
 10
178.949308953
 20
117.9736186528
 10
178.7018400717
 20
118.1671899246
 10
178.397526766
 20
118.2586483573
 10
178.0505983878
 20
118.2437174563
 10
177.9807665417
 20
118.2287284361
  0
LWPOLYLINE
  5
320
330
1F
100
AcDbEntity
  8
0
  6
Continuous
 62
     7
370
    25
100
AcDbPolyline
 90
        7
 70
   128
 43
0.0
 10
175.7890680682
 20
114.4321839616
 10
175.9243043001
 20
114.1255537615
 10
176.1388228009
 20
113.8840358708
 10
176.4163407164
 20
113.7406806642
 10
176.7438816171
 20
113.7021912719
 10
177.1061300547
 20
113.770367415
 10
177.4861476948
 20
113.942021253
  0
LWPOLYLINE
  5
321
330
1F
100
AcDbEntity
  8
0
  6
Continuous
 62
     7
370
    25
100
AcDbPolyline
 90
       12
 70
   128
 43
0.0
 10
177.2033049823
 20
114.1053028753
 10
177.5833226224
 20
114.3724080654
 10
177.9455710599
 20
114.7224750657
 10
178.2731119607
 20
115.1391351325
 10
178.5506298762
 20
115.602905704
 10
178.765148377
 20
116.0921013839
 10
178.9066368166
 20
116.5838479257
 10
178.9684793527
 20
117.0551518079
 10
178.9477842972
 20
117.4839753845
 10
178.8455193277
 20
117.8502673419
 10
178.6664662406
 20
118.1369002752
 10
178.5866009495
 20
118.2162371067
  0
ARC
  5
322
330
1F
100
AcDbEntity
  8
0
  6
Continuous
 62
     7
370
    25
100
AcDbCircle
 10
176.4512994627
 20
115.1689963983
 30
0.0
 40
1.302672718809989
100
AcDbArc
 50
254.4852296029
 51
305.2593841154
  0
LINE
  5
323
330
1F
100
AcDbEntity
  8
0
  6
Continuous
 62
     7
370
    25
100
AcDbLine
 10
197.3558482461
 20
110.6351039499
 30
0.0
 11
195.9416346837
 21
109.818695838
 31
0.0
  0
ARC
  5
324
330
1F
100
AcDbEntity
  8
0
  6
Continuous
 62
     7
370
    25
100
AcDbCircle
 10
189.8267427691
 20
109.5542476536
 30
0.0
 40
6.120607483709632
100
AcDbArc
 50
2.476303705
 51
57.5236964406
  0
LINE
  5
325
330
1F
100
AcDbEntity
  8
0
  6
Continuous
 62
     7
370
    25
100
AcDbLine
 10
193.113207559
 20
114.7176753092
 30
0.0
 11
194.5274211214
 21
115.534083421
 31
0.0
  0
ARC
  5
326
330
1F
100
AcDbEntity
  8
0
  6
Continuous
 62
     7
370
    25
100
AcDbCircle
 10
191.2409374465
 20
110.3706448622
 30
0.0
 40
6.120626822136332
100
AcDbArc
 50
2.4763980378
 51
57.5236021078
  0
ARC
  5
327
330
1F
100
AcDbEntity
  8
0
  6
Continuous
 62
     7
370
    25
100
AcDbCircle
 10
194.208677841
 20
36.0653092053
 30
0.0
 40
1.753058096345629
100
AcDbArc
 50
231.325810101
 51
8.6849416537
  0
LINE
  5
328
330
1F
100
AcDbEntity
  8
0
  6
Continuous
 62
     7
370
    25
100
AcDbLine
 10
193.113207559
 20
34.6966757444
 30
0.0
 11
186.7492465283
 21
38.3705122476
 31
0.0
  0
LINE
  5
329
330
1F
100
AcDbEntity
  8
0
  6
Continuous
 62
     7
370
    25
100
AcDbLine
 10
186.7492465283
 20
118.3915118124
 30
0.0
 11
193.113207559
 21
114.7176753092
 31
0.0
  0
LINE
  5
32A
330
1F
100
AcDbEntity
  8
0
  6
Continuous
 62
     7
370
    25
100
AcDbLine
 10
195.9416346837
 20
109.818695838
 30
0.0
 11
195.9416346837
 21
36.3300227683
 31
0.0
  0
LINE
  5
32B
330
1F
100
AcDbEntity
  8
0
  6
Continuous
 62
     7
370
    25
100
AcDbLine
 10
195.9416346837
 20
36.3300227683
 30
0.0
 11
197.3558482461
 21
37.1464308801
 31
0.0
  0
LINE
  5
32C
330
1F
100
AcDbEntity
  8
0
  6
Continuous
 62
     7
370
    25
100
AcDbLine
 10
197.3558482461
 20
110.6351039499
 30
0.0
 11
197.3558482461
 21
37.1464308801
 31
0.0
  0
LINE
  5
32D
330
1F
100
AcDbEntity
  8
0
  6
Continuous
 62
     7
370
    25
100
AcDbLine
 10
186.7492465283
 20
120.0243280361
 30
0.0
 11
194.5274211214
 21
115.534083421
 31
0.0
  0
LINE
  5
32E
330
1F
100
AcDbEntity
  8
0
  6
Continuous
 62
     7
370
    25
100
AcDbLine
 10
173.8230799088
 20
89.9281863117
 30
0.0
 11
174.2106642952
 21
89.7044386081
 31
0.0
  0
LINE
  5
32F
330
1F
100
AcDbEntity
  8
0
  6
Continuous
 62
     7
370
    25
100
AcDbLine
 10
183.9208194036
 20
58.7842979449
 30
0.0
 11
182.5066058412
 21
59.6007060567
 31
0.0
  0
LINE
  5
330
330
1F
100
AcDbEntity
  8
0
  6
Continuous
 62
     7
370
    25
100
AcDbLine
 10
182.5066058412
 20
92.8370210755
 30
0.0
 11
182.5066058412
 21
91.6878948489
 31
0.0
  0
LINE
  5
331
330
1F
100
AcDbEntity
  8
0
  6
Continuous
 62
     7
370
    25
100
AcDbLine
 10
182.5066058412
 20
90.2211590125
 30
0.0
 11
182.5066058412
 21
59.6007060567
 31
0.0
  0
LINE
  5
332
330
1F
100
AcDbEntity
  8
0
  6
Continuous
 62
     7
370
    25
100
AcDbLine
 10
169.0715769987
 20
20.8162781427
 30
0.0
 11
170.485790561
 21
19.9998700309
 31
0.0
  0
LINE
  5
333
330
1F
100
AcDbEntity
  8
0
  6
Continuous
 62
     7
370
    25
100
AcDbLine
 10
170.485790561
 20
49.3953392588
 30
0.0
 11
169.0715769987
 21
50.2117473706
 31
0.0
  0
LINE
  5
334
330
1F
100
AcDbEntity
  8
0
  6
Continuous
 62
     7
370
    25
100
AcDbLine
 10
169.0715769987
 20
50.2117473706
 30
0.0
 11
169.0715769987
 21
20.8162781427
 31
0.0
  0
LINE
  5
335
330
1F
100
AcDbEntity
  8
0
  6
Continuous
 62
     7
370
    25
100
AcDbLine
 10
169.9603584947
 20
50.724830007
 30
0.0
 11
169.0715769987
 21
50.2117473706
 31
0.0
  0
LINE
  5
336
330
1F
100
AcDbEntity
  8
0
  6
Continuous
 62
     7
370
    25
100
AcDbLine
 10
174.2106642952
 20
52.5808465517
 30
0.0
 11
172.7964507328
 21
53.3972546635
 31
0.0
  0
LINE
  5
337
330
1F
100
AcDbEntity
  8
0
  6
Continuous
 62
     7
370
    25
100
AcDbLine
 10
174.0464507328
 20
54.7167624703
 30
0.0
 11
175.4606642952
 21
53.9003543585
 31
0.0
  0
ARC
  5
338
330
1F
100
AcDbEntity
  8
0
  6
Continuous
 62
     7
370
    25
100
AcDbCircle
 10
175.9552168452
 20
51.6567138326
 30
0.0
 40
3.606561483867646
100
AcDbArc
 50
121.9546716495
 51
151.1443911208
  0
LINE
  5
339
330
1F
100
AcDbEntity
  8
0
  6
Continuous
 62
     7
370
    25
100
AcDbLine
 10
172.7964507328
 20
53.3972546635
 30
0.0
 11
172.7485322608
 21
53.3142574356
 31
0.0
  0
LINE
  5
33A
330
1F
100
AcDbEntity
  8
0
  6
Continuous
 62
     7
370
    25
100
AcDbLine
 10
182.5066058412
 20
59.6007060567
 30
0.0
 11
174.0464507328
 21
54.7167624703
 31
0.0
  0
LWPOLYLINE
  5
33B
330
1F
100
AcDbEntity
  8
0
  6
Continuous
 62
     7
370
    25
100
AcDbPolyline
 90
       15
 70
   128
 43
0.0
 10
177.4861476948
 20
30.6548584406
 10
177.8661653348
 20
30.9219636307
 10
178.2284137724
 20
31.272030631
 10
178.5559546732
 20
31.6886906977
 10
178.8334725886
 20
32.1524612693
 10
179.0479910895
 20
32.6416569491
 10
179.1894795291
 20
33.133403491
 10
179.2513220652
 20
33.6047073731
 10
179.2306270096
 20
34.0335309498
 10
179.1283620401
 20
34.3998229072
 10
178.949308953
 20
34.6864558405
 10
178.7018400717
 20
34.8800271122
 10
178.397526766
 20
34.9714855449
 10
178.0505983878
 20
34.9565546439
 10
177.9807665416
 20
34.9415656238
  0
LWPOLYLINE
  5
33C
330
1F
100
AcDbEntity
  8
0
  6
Continuous
 62
     7
370
    25
100
AcDbPolyline
 90
        7
 70
   128
 43
0.0
 10
175.7890680681
 20
31.1450211493
 10
175.9243043001
 20
30.8383909492
 10
176.1388228009
 20
30.5968730585
 10
176.4163407164
 20
30.4535178519
 10
176.7438816171
 20
30.4150284595
 10
177.1061300547
 20
30.4832046027
 10
177.4861476948
 20
30.6548584406
  0
ARC
  5
33D
330
1F
100
AcDbEntity
  8
0
  6
Continuous
 62
     7
370
    25
100
AcDbCircle
 10
195.4101628791
 20
36.9236039719
 30
0.0
 40
1.958403272671581
100
AcDbArc
 50
304.7789244315
 51
6.5332559619
  0
LWPOLYLINE
  5
33E
330
1F
100
AcDbEntity
  8
0
  6
Continuous
 62
     7
370
    25
100
AcDbPolyline
 90
       12
 70
   128
 43
0.0
 10
177.2033049823
 20
30.818140063
 10
177.5833226224
 20
31.085245253
 10
177.9455710599
 20
31.4353122533
 10
178.2731119607
 20
31.8519723201
 10
178.5506298762
 20
32.3157428917
 10
178.765148377
 20
32.8049385715
 10
178.9066368166
 20
33.2966851134
 10
178.9684793527
 20
33.7679889955
 10
178.9477842972
 20
34.1968125722
 10
178.8455193277
 20
34.5631045296
 10
178.6664662406
 20
34.8497374628
 10
178.5866009529
 20
34.9290742914
  0
ARC
  5
33F
330
1F
100
AcDbEntity
  8
0
  6
Continuous
 62
     7
370
    25
100
AcDbCircle
 10
176.451299462
 20
31.881833588
 30
0.0
 40
1.30267272092883
100
AcDbArc
 50
254.4852298729
 51
305.2593840873
  0
ARC
  5
340
330
1F
100
AcDbEntity
  8
0
  6
Continuous
 62
     7
370
    25
100
AcDbCircle
 10
151.8684633986
 20
109.1350028512
 30
0.0
 40
1.536804807571969
100
AcDbArc
 50
122.60547834
 51
177.3945215143
  0
LINE
  5
341
330
1F
100
AcDbEntity
  8
0
  6
Continuous
 62
     7
370
    25
100
AcDbLine
 10
172.7485322608
 20
53.3142574356
 30
0.0
 11
173.3142176858
 21
54.2940533299
 31
0.0
  0
LINE
  5
342
330
1F
100
AcDbEntity
  8
0
  6
Continuous
 62
     7
370
    25
100
AcDbLine
 10
173.3142176858
 20
54.2940533299
 30
0.0
 11
182.1530524506
 21
59.3966040288
 31
0.0
  0
LINE
  5
343
330
1F
100
AcDbEntity
  8
0
  6
Continuous
 62
     7
370
    25
100
AcDbLine
 10
182.1530524506
 20
59.3966040288
 30
0.0
 11
182.1530524506
 21
90.2619794181
 31
0.0
  0
LINE
  5
344
330
1F
100
AcDbEntity
  8
0
  6
Continuous
 62
     7
370
    25
100
AcDbLine
 10
182.1530524506
 20
91.8919968768
 30
0.0
 11
182.1530524506
 21
92.8778414811
 31
0.0
  0
LINE
  5
345
330
1F
100
AcDbEntity
  8
0
  6
Continuous
 62
     7
370
    25
100
AcDbLine
 10
159.5256354526
 20
95.9777651013
 30
0.0
 11
169.0715769987
 21
90.4670103465
 31
0.0
  0
LINE
  5
346
330
1F
100
AcDbEntity
  8
0
  6
Continuous
 62
     7
370
    25
100
AcDbLine
 10
159.5256354526
 20
95.9777651013
 30
0.0
 11
159.5256354526
 21
95.5287008298
 31
0.0
  0
LINE
  5
347
330
1F
100
AcDbEntity
  8
0
  6
Continuous
 62
     7
370
    25
100
AcDbLine
 10
150.3332472972
 20
109.2048637034
 30
0.0
 11
150.3332472972
 21
54.4966293071
 31
0.0
  0
LINE
  5
348
330
1F
100
AcDbEntity
  8
0
  6
Continuous
 62
     7
370
    25
100
AcDbLine
 10
164.4753829209
 20
118.1854856336
 30
0.0
 11
151.0403540784
 21
110.4296085712
 31
0.0
  0
LINE
  5
349
330
1F
100
AcDbEntity
  8
0
  6
Continuous
 62
     7
370
    25
100
AcDbLine
 10
182.365184485
 20
90.1395182013
 30
0.0
 11
182.365184485
 21
90.9531275482
 31
0.0
  0
LINE
  5
34A
330
1F
100
AcDbEntity
  8
0
  6
Continuous
 62
     7
370
    25
100
AcDbLine
 10
179.1826063124
 20
91.9767814731
 30
0.0
 11
182.365184485
 21
90.1395182013
 31
0.0
  0
LINE
  5
34B
330
1F
100
AcDbEntity
  8
0
  6
Continuous
 62
     7
370
    25
100
AcDbLine
 10
182.365184485
 20
93.5689896112
 30
0.0
 11
182.1529375165
 21
93.6915171781
 31
0.0
  0
LINE
  5
34C
330
1F
100
AcDbEntity
  8
0
  6
Continuous
 62
     7
370
    25
100
AcDbLine
 10
182.365184485
 20
93.5689896112
 30
0.0
 11
182.365184485
 21
92.7553802644
 31
0.0
  0
LINE
  5
34D
330
1F
100
AcDbEntity
  8
0
  6
Continuous
 62
     7
370
    25
100
AcDbLine
 10
182.365184485
 20
92.7553802644
 30
0.0
 11
181.4482547995
 21
93.2847125046
 31
0.0
  0
ARC
  5
34E
330
1F
100
AcDbEntity
  8
0
  6
Continuous
 62
     7
370
    25
100
AcDbCircle
 10
182.0002025832
 20
93.1162153948
 30
0.0
 40
1.628145149972407
100
AcDbArc
 50
194.9797061743
 51
230.7290022947
  0
LINE
  5
34F
330
1F
100
AcDbEntity
  8
0
  6
Continuous
 62
     7
370
    25
100
AcDbLine
 10
180.9696044749
 20
91.8557693752
 30
0.0
 11
181.4459456694
 21
91.4837928209
 31
0.0
  0
LINE
  5
350
330
1F
100
AcDbEntity
  8
0
  6
Continuous
 62
     7
370
    25
100
AcDbLine
 10
182.365184485
 20
90.9531275482
 30
0.0
 11
181.4459456694
 21
91.4837928209
 31
0.0
  0
LINE
  5
351
330
1F
100
AcDbEntity
  8
0
  6
Continuous
 62
     7
370
    25
100
AcDbLine
 10
183.0722912661
 20
93.9771936672
 30
0.0
 11
182.365184485
 21
93.5689896112
 31
0.0
  0
LINE
  5
352
330
1F
100
AcDbEntity
  8
0
  6
Continuous
 62
     7
370
    25
100
AcDbLine
 10
183.0722912661
 20
93.1635843203
 30
0.0
 11
183.0722912661
 21
93.9771936672
 31
0.0
  0
LINE
  5
353
330
1F
100
AcDbEntity
  8
0
  6
Continuous
 62
     7
370
    25
100
AcDbLine
 10
182.365184485
 20
92.7553802644
 30
0.0
 11
183.0722912661
 21
93.1635843203
 31
0.0
  0
LINE
  5
354
330
1F
100
AcDbEntity
  8
0
  6
Continuous
 62
     7
370
    25
100
AcDbLine
 10
183.0722912661
 20
93.9771936672
 30
0.0
 11
182.8600442977
 21
94.099721234
 31
0.0
  0
LINE
  5
355
330
1F
100
AcDbEntity
  8
0
  6
Continuous
 62
     7
370
    25
100
AcDbLine
 10
179.8903107508
 20
60.7028570077
 30
0.0
 11
182.1530524506
 21
59.3966040288
 31
0.0
  0
LINE
  5
356
330
1F
100
AcDbEntity
  8
0
  6
Continuous
 62
     7
370
    25
100
AcDbLine
 10
179.8903107508
 20
60.7028570077
 30
0.0
 11
179.8903107508
 21
88.0569742058
 31
0.0
  0
LINE
  5
357
330
1F
100
AcDbEntity
  8
0
  6
Continuous
 62
     7
370
    25
100
AcDbLine
 10
176.2840661668
 20
90.138814891
 30
0.0
 11
179.8903107508
 21
88.0569742058
 31
0.0
  0
ARC
  5
358
330
1F
100
AcDbEntity
  8
0
  6
Continuous
 62
     7
370
    25
100
AcDbCircle
 10
182.7073093644
 20
93.5244194507
 30
0.0
 40
1.628145149972074
100
AcDbArc
 50
194.9797061743
 51
230.7290022947
  0
LINE
  5
359
330
1F
100
AcDbEntity
  8
0
  6
Continuous
 62
     7
370
    25
100
AcDbLine
 10
181.676711256
 20
92.2639734311
 30
0.0
 11
180.9696044749
 21
91.8557693752
 31
0.0
  0
LINE
  5
35A
330
1F
100
AcDbEntity
  8
0
  6
Continuous
 62
     7
370
    25
100
AcDbLine
 10
182.1530524506
 20
91.8919968768
 30
0.0
 11
181.4459456694
 21
91.4837928209
 31
0.0
  0
LINE
  5
35B
330
1F
100
AcDbEntity
  8
0
  6
Continuous
 62
     7
370
    25
100
AcDbLine
 10
183.0722912661
 20
91.3613316041
 30
0.0
 11
182.1530524506
 21
91.8919968768
 31
0.0
  0
LINE
  5
35C
330
1F
100
AcDbEntity
  8
0
  6
Continuous
 62
     7
370
    25
100
AcDbLine
 10
183.0722912661
 20
91.3613316041
 30
0.0
 11
182.365184485
 21
90.9531275482
 31
0.0
  0
LINE
  5
35D
330
1F
100
AcDbEntity
  8
0
  6
Continuous
 62
     7
370
    25
100
AcDbLine
 10
183.0722912661
 20
90.5477222572
 30
0.0
 11
183.0722912661
 21
91.3613316041
 31
0.0
  0
LINE
  5
35E
330
1F
100
AcDbEntity
  8
0
  6
Continuous
 62
     7
370
    25
100
AcDbLine
 10
183.0722912661
 20
90.5477222572
 30
0.0
 11
182.365184485
 21
90.1395182013
 31
0.0
  0
LINE
  5
35F
330
1F
100
AcDbEntity
  8
0
  6
Continuous
 62
     7
370
    25
100
AcDbLine
 10
181.676711256
 20
92.2639734311
 30
0.0
 11
182.1530524506
 21
91.8919968768
 31
0.0
  0
LINE
  5
360
330
1F
100
AcDbEntity
  8
0
  6
Continuous
 62
     7
370
    25
100
AcDbLine
 10
177.7689904072
 20
59.4782448399
 30
0.0
 11
177.7689904072
 21
86.8323620381
 31
0.0
  0
LINE
  5
361
330
1F
100
AcDbEntity
  8
0
  6
Continuous
 62
     7
370
    25
100
AcDbLine
 10
177.7689904072
 20
86.8323620381
 30
0.0
 11
179.8903107508
 21
88.0569742058
 31
0.0
  0
LINE
  5
362
330
1F
100
AcDbEntity
  8
0
  6
Continuous
 62
     7
370
    25
100
AcDbLine
 10
177.7689904072
 20
59.4782448399
 30
0.0
 11
179.8903107508
 21
60.7028570077
 31
0.0
  0
LINE
  5
363
330
1F
100
AcDbEntity
  8
0
  6
Continuous
 62
     7
370
    25
100
AcDbLine
 10
177.7689904072
 20
86.8323620381
 30
0.0
 11
176.2840661668
 21
87.6895905555
 31
0.0
  0
LINE
  5
364
330
1F
100
AcDbEntity
  8
0
  6
Continuous
 62
     7
370
    25
100
AcDbLine
 10
177.7689904072
 20
59.4782448399
 30
0.0
 11
176.2840661668
 21
60.3354733574
 31
0.0
  0
LINE
  5
365
330
1F
100
AcDbEntity
  8
0
  6
Continuous
 62
     7
370
    25
100
AcDbLine
 10
172.7485322608
 20
54.6206165746
 30
0.0
 11
173.3142176858
 21
54.2940533299
 31
0.0
  0
LINE
  5
366
330
1F
100
AcDbEntity
  8
0
  6
Continuous
 62
     7
370
    25
100
AcDbLine
 10
172.7485322608
 20
89.6913828302
 30
0.0
 11
172.5716980985
 21
89.7934670192
 31
0.0
  0
LINE
  5
367
330
1F
100
AcDbEntity
  8
0
  6
Continuous
 62
     7
370
    25
100
AcDbLine
 10
172.7485322608
 20
89.6913828302
 30
0.0
 11
171.5700521694
 21
89.0110607545
 31
0.0
  0
ARC
  5
368
330
1F
100
AcDbEntity
  8
0
  6
Continuous
 62
     7
370
    25
100
AcDbCircle
 10
170.900693685
 20
90.2590711147
 30
0.0
 40
1.416181711398708
100
AcDbArc
 50
271.001465469
 51
298.2064608388
  0
ARC
  5
369
330
1F
100
AcDbEntity
  8
0
  6
Continuous
 62
     7
370
    25
100
AcDbCircle
 10
204.6134607912
 20
160.9130242305
 30
0.0
 40
79.73388949399069
100
AcDbArc
 50
240.2151668471
 51
243.5282630395
  0
LINE
  5
36A
330
1F
100
AcDbEntity
  8
0
  6
Continuous
 62
     7
370
    25
100
AcDbLine
 10
165.712819788
 20
92.1201969629
 30
0.0
 11
165.0061107558
 21
91.7122225226
 31
0.0
  0
LINE
  5
36B
330
1F
100
AcDbEntity
  8
0
  6
Continuous
 62
     7
370
    25
100
AcDbLine
 10
165.2885557193
 20
92.3651193965
 30
0.0
 11
165.712819788
 21
92.1201969629
 31
0.0
  0
LINE
  5
36C
330
1F
100
AcDbEntity
  8
0
  6
Continuous
 62
     7
370
    25
100
AcDbLine
 10
165.2885557193
 20
92.3651193965
 30
0.0
 11
164.5818466871
 21
91.9571449561
 31
0.0
  0
ARC
  5
36D
330
1F
100
AcDbEntity
  8
0
  6
Continuous
 62
     7
370
    25
100
AcDbCircle
 10
199.4269294293
 20
152.0267207737
 30
0.0
 40
69.4444650797252
100
AcDbArc
 50
234.6632289445
 51
239.882891919
  0
LINE
  5
36E
330
1F
100
AcDbEntity
  8
0
  6
Continuous
 62
     7
370
    25
100
AcDbLine
 10
159.9145786625
 20
95.7532329655
 30
0.0
 11
159.2615506295
 21
95.3762479064
 31
0.0
  0
LINE
  5
36F
330
1F
100
AcDbEntity
  8
0
  6
Continuous
 62
     7
370
    25
100
AcDbLine
 10
171.5700521694
 20
50.6336425959
 30
0.0
 11
171.5700521694
 21
89.0110607545
 31
0.0
  0
ARC
  5
370
330
1F
100
AcDbEntity
  8
0
  6
Continuous
 62
     7
370
    25
100
AcDbCircle
 10
170.8596977602
 20
52.0166130022
 30
0.0
 40
1.554738090905969
100
AcDbArc
 50
245.8541479227
 51
297.1870256255
  0
ARC
  5
371
330
1F
100
AcDbEntity
  8
0
  6
Continuous
 62
     7
370
    25
100
AcDbCircle
 10
205.1570718388
 20
123.5364045962
 30
0.0
 40
80.87251913381095
100
AcDbArc
 50
240.233121266
 51
244.4082534618
  0
LINE
  5
372
330
1F
100
AcDbEntity
  8
0
  6
Continuous
 62
     7
370
    25
100
AcDbLine
 10
165.0061107558
 20
91.7122225226
 30
0.0
 11
165.0061107558
 21
53.334804364
 31
0.0
  0
LINE
  5
373
330
1F
100
AcDbEntity
  8
0
  6
Continuous
 62
     7
370
    25
100
AcDbLine
 10
172.7485322608
 20
51.3139646716
 30
0.0
 11
172.7485322608
 21
89.6913828302
 31
0.0
  0
LINE
  5
374
330
1F
100
AcDbEntity
  8
0
  6
Continuous
 62
     7
370
    25
100
AcDbLine
 10
172.7485322608
 20
51.3139646716
 30
0.0
 11
171.5700521694
 21
50.6336425959
 31
0.0
  0
LINE
  5
375
330
1F
100
AcDbEntity
  8
0
  6
Continuous
 62
     7
370
    25
100
AcDbLine
 10
164.5818466871
 20
53.5797267975
 30
0.0
 11
164.5818466871
 21
91.9571449561
 31
0.0
  0
LINE
  5
376
330
1F
100
AcDbEntity
  8
0
  6
Continuous
 62
     7
370
    25
100
AcDbLine
 10
165.2885557193
 20
92.3651193965
 30
0.0
 11
165.2885557193
 21
91.8752745294
 31
0.0
  0
LINE
  5
377
330
1F
100
AcDbEntity
  8
0
  6
Continuous
 62
     7
370
    25
100
AcDbLine
 10
165.0061107558
 20
53.8246492311
 30
0.0
 11
164.5818466871
 21
53.5797267975
 31
0.0
  0
ARC
  5
378
330
1F
100
AcDbEntity
  8
0
  6
Continuous
 62
     7
370
    25
100
AcDbCircle
 10
199.4269294293
 20
113.649302615
 30
0.0
 40
69.44446507972505
100
AcDbArc
 50
234.6632289445
 51
239.882891919
  0
LINE
  5
379
330
1F
100
AcDbEntity
  8
0
  6
Continuous
 62
     7
370
    25
100
AcDbLine
 10
159.2615506295
 20
95.3762479064
 30
0.0
 11
159.2615506295
 21
56.9988297478
 31
0.0
  0
LWPOLYLINE
  5
37A
330
1F
100
AcDbEntity
  8
0
  6
Continuous
 62
     7
370
    25
100
AcDbPolyline
 90
       11
 70
   128
 43
0.0
 10
173.7414068188
 20
71.8710562407
 10
173.8811148784
 20
72.153463847
 10
174.0593572984
 20
72.6485330519
 10
174.1511457129
 20
73.1315554238
 10
174.1511457129
 20
73.5744594582
 10
174.0593572984
 20
73.9515051825
 10
173.8811148784
 20
74.2407800697
 10
173.6267772544
 20
74.4254725148
 10
173.3111256048
 20
74.4948488643
 10
172.9525044559
 20
74.4448772169
 10
172.7485322608
 20
74.3691366921
  0
LINE
  5
37B
330
1F
100
AcDbEntity
  8
0
  6
Continuous
 62
     7
370
    25
100
AcDbLine
 10
172.7485322608
 20
86.8327601383
 30
0.0
 11
173.8091924326
 21
87.4450662222
 31
0.0
  0
ARC
  5
37C
330
1F
100
AcDbEntity
  8
0
  6
Continuous
 62
     7
370
    25
100
AcDbCircle
 10
171.442249011
 20
91.0779504629
 30
0.0
 40
4.335927705451743
100
AcDbArc
 50
303.0855647833
 51
344.5193620581
  0
ARC
  5
37D
330
1F
100
AcDbEntity
  8
0
  6
Continuous
 62
     7
370
    25
100
AcDbCircle
 10
174.5682815704
 20
62.83475639
 30
0.0
 40
1.200950292904431
100
AcDbArc
 50
350.7859630095
 51
129.2032852346
  0
LINE
  5
37E
330
1F
100
AcDbEntity
  8
0
  6
Continuous
 62
     7
370
    25
100
AcDbLine
 10
173.8091924326
 20
63.7653826775
 30
0.0
 11
172.7485322608
 21
63.1530765936
 31
0.0
  0
LINE
  5
37F
330
1F
100
AcDbEntity
  8
0
  6
Continuous
 62
     7
370
    25
100
AcDbLine
 10
172.7485322608
 20
58.6621021282
 30
0.0
 11
173.8091924326
 21
59.2744082121
 31
0.0
  0
ARC
  5
380
330
1F
100
AcDbEntity
  8
0
  6
Continuous
 62
     7
370
    25
100
AcDbCircle
 10
171.5318918021
 20
62.8345739422
 30
0.0
 40
4.226213220757863
100
AcDbArc
 50
302.60547834
 51
357.3945215145
  0
LINE
  5
381
330
1F
100
AcDbEntity
  8
0
  6
Continuous
 62
     7
370
    25
100
AcDbLine
 10
176.2840661668
 20
59.274175987
 30
0.0
 11
176.2840661668
 21
90.303489864
 31
0.0
  0
LINE
  5
382
330
1F
100
AcDbEntity
  8
0
  6
Continuous
 62
     7
370
    25
100
AcDbLine
 10
172.7485322608
 20
57.2331557074
 30
0.0
 11
176.2840661668
 21
59.274175987
 31
0.0
  0
ARC
  5
383
330
1F
100
AcDbEntity
  8
0
  6
Continuous
 62
     7
370
    25
100
AcDbCircle
 10
171.6839350404
 20
90.896791173
 30
0.0
 40
2.640187767151949
100
AcDbArc
 50
302.4891616194
 51
335.0139911207
  0
LINE
  5
384
330
1F
100
AcDbEntity
  8
0
  6
Continuous
 62
     7
370
    25
100
AcDbLine
 10
172.7485322608
 20
88.465709062
 30
0.0
 11
173.1020856514
 21
88.66981109
 31
0.0
  0
LINE
  5
385
330
1F
100
AcDbEntity
  8
0
  6
Continuous
 62
     7
370
    25
100
AcDbLine
 10
173.8091924326
 20
87.4450662222
 30
0.0
 11
173.1020856514
 21
88.66981109
 31
0.0
  0
LWPOLYLINE
  5
386
330
1F
100
AcDbEntity
  8
0
  6
Continuous
 62
     7
370
    25
100
AcDbPolyline
 90
       21
 70
   128
 43
0.0
 10
174.1981011623
 20
67.664992062
 10
173.8596577041
 20
67.5170671964
 10
173.5408833496
 20
67.4726479542
 10
173.2603041055
 20
67.5343158204
 10
173.0342262175
 20
67.6984868828
 10
172.8757885108
 20
67.9556201159
 10
172.794198809
 20
68.2907718708
 10
172.794198809
 20
68.6844643458
 10
172.8757885108
 20
69.1138175653
 10
173.0342262175
 20
69.5538790808
 10
173.2603041055
 20
69.9790741165
 10
173.5408833496
 20
70.3646918825
 10
173.8596577041
 20
70.688321676
 10
174.1981011623
 20
70.9311553096
 10
174.5365446204
 20
71.0790801752
 10
174.8553189749
 20
71.1234994174
 10
175.1358982191
 20
71.0618315512
 10
175.361976107
 20
70.8976604888
 10
175.5204138137
 20
70.6405272557
 10
175.6020035155
 20
70.3053755008
 10
175.6123147246
 20
70.1144817976
  0
LWPOLYLINE
  5
387
330
1F
100
AcDbEntity
  8
0
  6
Continuous
 62
     7
370
    25
100
AcDbPolyline
 90
       23
 70
   128
 43
0.0
 10
174.5516545528
 20
70.3187828757
 10
174.850477055
 20
70.4416759739
 10
175.1250907351
 20
70.4553860836
 10
175.3532480262
 20
70.3588024931
 10
175.5164649813
 20
70.1597498307
 10
175.6015187334
 20
69.874354159
 10
175.6015187334
 20
69.5257365383
 10
175.5164649813
 20
69.1421398947
 10
175.3532480262
 20
68.7546409471
 10
175.1250907351
 20
68.3946325555
 10
174.850477055
 20
68.0912804589
 10
174.5516545528
 20
67.86916044
 10
174.2528320507
 20
67.7462673418
 10
173.9782183705
 20
67.7325572321
 10
173.7500610795
 20
67.8291408226
 10
173.5868441244
 20
68.0281934851
 10
173.5017903723
 20
68.3135891567
 10
173.5017903723
 20
68.6622067774
 10
173.5868441244
 20
69.045803421
 10
173.7500610795
 20
69.4333023686
 10
173.9782183705
 20
69.7933107602
 10
174.2528320507
 20
70.0966628568
 10
174.5516545528
 20
70.3187828757
  0
ARC
  5
388
330
1F
100
AcDbEntity
  8
0
  6
Continuous
 62
     7
370
    25
100
AcDbCircle
 10
171.0440388417
 20
73.6277352697
 30
0.0
 40
2.40406413824822
100
AcDbArc
 50
325.880919352
 51
21.1524777216
  0
LINE
  5
389
330
1F
100
AcDbEntity
  8
0
  6
Continuous
 62
     7
370
    25
100
AcDbLine
 10
173.1020856514
 20
63.3570459215
 30
0.0
 11
173.8091924326
 21
63.7653826775
 31
0.0
  0
LINE
  5
38A
330
1F
100
AcDbEntity
  8
0
  6
Continuous
 62
     7
370
    25
100
AcDbLine
 10
173.1020856514
 20
63.3570459215
 30
0.0
 11
172.7485322608
 21
63.1529438935
 31
0.0
  0
ARC
  5
38B
330
1F
100
AcDbEntity
  8
0
  6
Continuous
 62
     7
370
    25
100
AcDbCircle
 10
171.6528943411
 20
62.76471309
 30
0.0
 40
2.689408413251341
100
AcDbArc
 50
302.6054783395
 51
357.3945215139
  0
LINE
  5
38C
330
1F
100
AcDbEntity
  8
0
  6
Continuous
 62
     7
370
    25
100
AcDbLine
 10
172.7485322608
 20
60.2950510519
 30
0.0
 11
173.1020856514
 21
60.4991530799
 31
0.0
  0
ARC
  5
38D
330
1F
100
AcDbEntity
  8
0
  6
Continuous
 62
     7
370
    25
100
AcDbCircle
 10
173.5851423755
 20
62.7648291931
 30
0.0
 40
0.7642410955194239
100
AcDbArc
 50
350.7859630102
 51
129.2032852352
  0
LINE
  5
38E
330
1F
100
AcDbEntity
  8
0
  6
Continuous
 62
     7
370
    25
100
AcDbLine
 10
175.7537360808
 20
62.6424565985
 30
0.0
 11
174.3395225185
 21
62.6424565985
 31
0.0
  0
LINE
  5
38F
330
1F
100
AcDbEntity
  8
0
  6
Continuous
 62
     7
370
    25
100
AcDbLine
 10
173.8091924326
 20
59.2744082121
 30
0.0
 11
173.1020856514
 21
60.4991530799
 31
0.0
  0
LINE
  5
390
330
1F
100
AcDbEntity
  8
0
  6
Continuous
 62
     8
370
    25
100
AcDbLine
 10
172.5819846387
 20
50.605446342
 30
0.0
 11
172.0515970858
 21
50.911632559
 31
0.0
  0
LINE
  5
391
330
1F
100
AcDbEntity
  8
0
  6
Continuous
 62
     8
370
    25
100
AcDbLine
 10
172.7485322608
 20
52.5504178932
 30
0.0
 11
173.8319846387
 21
51.9249541488
 31
0.0
  0
LINE
  5
392
330
1F
100
AcDbEntity
  8
0
  6
Continuous
 62
     8
370
    25
100
AcDbLine
 10
169.0715769987
 20
98.3874562218
 30
0.0
 11
150.3332472972
 21
109.2048637034
 31
0.0
  0
LINE
  5
393
330
1F
100
AcDbEntity
  8
0
  6
Continuous
 62
     8
370
    25
100
AcDbLine
 10
151.0403540784
 20
110.4296085712
 30
0.0
 11
169.0715769987
 21
100.0204051455
 31
0.0
  0
LINE
  5
394
330
1F
100
AcDbEntity
  8
0
  6
Continuous
 62
     8
370
    25
100
AcDbLine
 10
150.3332472972
 20
54.4966293071
 30
0.0
 11
169.0715769987
 21
43.6792218254
 31
0.0
  0
LINE
  5
395
330
1F
100
AcDbEntity
  8
0
  6
Continuous
 62
     8
370
    25
100
AcDbLine
 10
169.0715769987
 20
115.5321592701
 30
0.0
 11
164.4753829209
 21
118.1854856336
 31
0.0
  0
ARC
  5
396
330
1F
100
AcDbEntity
  8
0
  6
Continuous
 62
     8
370
    25
100
AcDbCircle
 10
164.7683029758
 20
117.7766043044
 30
0.0
 40
0.5029772359018017
100
AcDbArc
 50
65.6928809539
 51
125.6175774752
  0
ARC
  5
397
330
1F
100
AcDbEntity
  8
0
  6
Continuous
 62
     8
370
    25
100
AcDbCircle
 10
150.5408111409
 20
109.6629741362
 30
0.0
 40
0.5029392784936578
100
AcDbArc
 50
185.6947992512
 51
245.6253417064
  0
ARC
  5
398
330
1F
100
AcDbEntity
  8
0
  6
Continuous
 62
     8
370
    25
100
AcDbCircle
 10
150.7474340235
 20
110.0207272421
 30
0.0
 40
0.5029772359018579
100
AcDbArc
 50
54.3824225248
 51
114.3071190461
  0
ARC
  5
399
330
1F
100
AcDbEntity
  8
0
  6
Continuous
 62
     8
370
    25
100
AcDbCircle
 10
150.5408111409
 20
54.9547397399
 30
0.0
 40
0.5029392784937382
100
AcDbArc
 50
185.6947992512
 51
245.6253417064
  0
ARC
  5
39A
330
1F
100
AcDbEntity
  8
0
  6
Continuous
 62
     8
370
    25
100
AcDbCircle
 10
164.1824628661
 20
117.7766043044
 30
0.0
 40
0.5029772359017043
100
AcDbArc
 50
54.3824225248
 51
114.3071190461
  0
ARC
  5
39B
330
1F
100
AcDbEntity
  8
0
  6
Continuous
 62
     8
370
    25
100
AcDbCircle
 10
150.8089328532
 20
54.4360652785
 30
0.0
 40
0.4795255464542947
100
AcDbArc
 50
172.7441704411
 51
235.9436491656
  0
LINE
  5
39C
330
1F
100
AcDbEntity
  8
0
  6
Continuous
 62
     8
370
    25
100
AcDbLine
 10
170.223715286
 20
50.5979034393
 30
0.0
 11
170.223715286
 21
88.7405910652
 31
0.0
  0
ENDSEC
  0
SECTION
  2
OBJECTS
  0
DICTIONARY
  5
C
330
0
100
AcDbDictionary
281
     1
  3
ACAD_GROUP
350
D
  3
ACAD_LAYOUT
350
1A
  3
ACAD_MLINESTYLE
350
17
  3
ACAD_PLOTSETTINGS
350
19
  3
ACAD_PLOTSTYLENAME
350
E
  3
ACAD_SCALELIST
350
47
  3
DWGPROPS
350
39D
  0
DICTIONARY
  5
D
102
{ACAD_REACTORS
330
C
102
}
330
C
100
AcDbDictionary
281
     1
  0
DICTIONARY
  5
1A
102
{ACAD_REACTORS
330
C
102
}
330
C
100
AcDbDictionary
281
     1
  3
Layout1
350
1E
  3
Layout2
350
26
  3
Model
350
22
  0
DICTIONARY
  5
17
102
{ACAD_REACTORS
330
C
102
}
330
C
100
AcDbDictionary
281
     1
  3
Standard
350
18
  0
DICTIONARY
  5
19
102
{ACAD_REACTORS
330
C
102
}
330
C
100
AcDbDictionary
281
     1
  0
ACDBDICTIONARYWDFLT
  5
E
102
{ACAD_REACTORS
330
C
102
}
330
C
100
AcDbDictionary
281
     1
  3
Normal
350
F
100
AcDbDictionaryWithDefault
340
F
  0
DICTIONARY
  5
47
102
{ACAD_REACTORS
330
C
102
}
330
C
100
AcDbDictionary
281
     1
  3
A0
350
48
  3
A1
350
49
  3
A2
350
4A
  3
A3
350
4B
  3
A4
350
4C
  3
A5
350
4D
  3
A6
350
4E
  3
A7
350
4F
  3
A8
350
50
  3
A9
350
51
  3
B0
350
52
  3
B1
350
53
  3
B2
350
54
  3
B3
350
55
  3
B4
350
56
  3
B5
350
57
  3
B6
350
58
  3
B7
350
59
  3
B8
350
5A
  3
B9
350
5B
  3
C0
350
5C
  3
C1
350
5D
  3
C2
350
5E
  3
C3
350
5F
  3
C4
350
60
  3
C5
350
61
  3
C6
350
62
  3
C7
350
63
  3
C8
350
64
  3
C9
350
65
  3
D0
350
66
  3
D1
350
67
  3
D2
350
68
  0
XRECORD
  5
39D
102
{ACAD_REACTORS
330
C
102
}
330
C
100
AcDbXrecord
280
     1
  1
DWGPROPS COOKIE
  2

  3

  4

  6

  7

  8
raffaele
  9

300
=
301
=
302
=
303
=
304
=
305
=
306
=
307
=
308
=
309
=
 40
0.0
 41
2458894.50196978
 42
2458894.501971227
  1

 90
        0
  0
LAYOUT
  5
1E
102
{ACAD_REACTORS
330
1A
102
}
330
1A
100
AcDbPlotSettings
  1

  2
none_device
  4

  6

 40
0.0
 41
0.0
 42
0.0
 43
0.0
 44
0.0
 45
0.0
 46
0.0
 47
0.0
 48
0.0
 49
0.0
140
0.0
141
0.0
142
1.0
143
1.0
 70
   688
 72
     1
 73
     0
 74
     5
  7

 75
    16
147
1.0
148
0.0
149
0.0
100
AcDbLayout
  1
Layout1
 70
     1
 71
     1
 10
0.0
 20
0.0
 11
420.0
 21
297.0
 12
0.0
 22
0.0
 32
0.0
 14
1.0000000000E+20
 24
1.0000000000E+20
 34
1.0000000000E+20
 15
-1.0000000000E+20
 25
-1.0000000000E+20
 35
-1.0000000000E+20
146
0.0
 13
0.0
 23
0.0
 33
0.0
 16
1.0
 26
0.0
 36
0.0
 17
0.0
 27
1.0
 37
0.0
 76
     0
330
1B
  0
LAYOUT
  5
26
102
{ACAD_REACTORS
330
1A
102
}
330
1A
100
AcDbPlotSettings
  1

  2
none_device
  4

  6

 40
0.0
 41
0.0
 42
0.0
 43
0.0
 44
0.0
 45
0.0
 46
0.0
 47
0.0
 48
0.0
 49
0.0
140
0.0
141
0.0
142
1.0
143
1.0
 70
   688
 72
     1
 73
     0
 74
     5
  7

 75
    16
147
1.0
148
0.0
149
0.0
100
AcDbLayout
  1
Layout2
 70
     1
 71
     2
 10
0.0
 20
0.0
 11
0.0
 21
0.0
 12
0.0
 22
0.0
 32
0.0
 14
0.0
 24
0.0
 34
0.0
 15
0.0
 25
0.0
 35
0.0
146
0.0
 13
0.0
 23
0.0
 33
0.0
 16
1.0
 26
0.0
 36
0.0
 17
0.0
 27
1.0
 37
0.0
 76
     0
330
23
  0
LAYOUT
  5
22
102
{ACAD_REACTORS
330
1A
102
}
330
1A
100
AcDbPlotSettings
  1

  2
none_device
  4
Letter_(8.50_x_11.00_Inches)
  6

 40
6.35
 41
6.35
 42
6.35000508
 43
6.35000508
 44
215.9
 45
279.4
 46
0.0
 47
0.0
 48
0.0
 49
0.0
140
0.0
141
0.0
142
1.0
143
1.0
 70
  1712
 72
     1
 73
     0
 74
     0
  7

 75
     0
147
1.0
148
0.0
149
0.0
100
AcDbLayout
  1
Model
 70
     1
 71
     0
 10
0.0
 20
0.0
 11
210.0
 21
297.0
 12
0.0
 22
0.0
 32
0.0
 14
0.0
 24
0.0
 34
0.0
 15
210.0
 25
297.0
 35
0.0
146
0.0
 13
0.0
 23
0.0
 33
0.0
 16
1.0
 26
0.0
 36
0.0
 17
0.0
 27
1.0
 37
0.0
 76
     0
330
1F
331
29
  0
MLINESTYLE
  5
18
102
{ACAD_REACTORS
330
17
102
}
330
17
100
AcDbMlineStyle
  2
Standard
 70
     0
  3

 62
   256
 51
90.0
 52
90.0
 71
     2
 49
0.5
 62
   256
  6
BYLAYER
 49
-0.5
 62
   256
  6
BYLAYER
  0
ACDBPLACEHOLDER
  5
F
102
{ACAD_REACTORS
330
E
102
}
330
E
  0
SCALE
  5
48
102
{ACAD_REACTORS
330
47
102
}
330
47
100
AcDbScale
 70
     0
300
1:1
140
1.0
141
1.0
290
     1
  0
SCALE
  5
49
102
{ACAD_REACTORS
330
47
102
}
330
47
100
AcDbScale
 70
     0
300
1:2
140
1.0
141
2.0
290
     0
  0
SCALE
  5
4A
102
{ACAD_REACTORS
330
47
102
}
330
47
100
AcDbScale
 70
     0
300
1:4
140
1.0
141
4.0
290
     0
  0
SCALE
  5
4B
102
{ACAD_REACTORS
330
47
102
}
330
47
100
AcDbScale
 70
     0
300
1:5
140
1.0
141
5.0
290
     0
  0
SCALE
  5
4C
102
{ACAD_REACTORS
330
47
102
}
330
47
100
AcDbScale
 70
     0
300
1:8
140
1.0
141
8.0
290
     0
  0
SCALE
  5
4D
102
{ACAD_REACTORS
330
47
102
}
330
47
100
AcDbScale
 70
     0
300
1:10
140
1.0
141
10.0
290
     0
  0
SCALE
  5
4E
102
{ACAD_REACTORS
330
47
102
}
330
47
100
AcDbScale
 70
     0
300
1:16
140
1.0
141
16.0
290
     0
  0
SCALE
  5
4F
102
{ACAD_REACTORS
330
47
102
}
330
47
100
AcDbScale
 70
     0
300
1:20
140
1.0
141
20.0
290
     0
  0
SCALE
  5
50
102
{ACAD_REACTORS
330
47
102
}
330
47
100
AcDbScale
 70
     0
300
1:30
140
1.0
141
30.0
290
     0
  0
SCALE
  5
51
102
{ACAD_REACTORS
330
47
102
}
330
47
100
AcDbScale
 70
     0
300
1:40
140
1.0
141
40.0
290
     0
  0
SCALE
  5
52
102
{ACAD_REACTORS
330
47
102
}
330
47
100
AcDbScale
 70
     0
300
1:50
140
1.0
141
50.0
290
     0
  0
SCALE
  5
53
102
{ACAD_REACTORS
330
47
102
}
330
47
100
AcDbScale
 70
     0
300
1:100
140
1.0
141
100.0
290
     0
  0
SCALE
  5
54
102
{ACAD_REACTORS
330
47
102
}
330
47
100
AcDbScale
 70
     0
300
2:1
140
2.0
141
1.0
290
     0
  0
SCALE
  5
55
102
{ACAD_REACTORS
330
47
102
}
330
47
100
AcDbScale
 70
     0
300
4:1
140
4.0
141
1.0
290
     0
  0
SCALE
  5
56
102
{ACAD_REACTORS
330
47
102
}
330
47
100
AcDbScale
 70
     0
300
8:1
140
8.0
141
1.0
290
     0
  0
SCALE
  5
57
102
{ACAD_REACTORS
330
47
102
}
330
47
100
AcDbScale
 70
     0
300
10:1
140
10.0
141
1.0
290
     0
  0
SCALE
  5
58
102
{ACAD_REACTORS
330
47
102
}
330
47
100
AcDbScale
 70
     0
300
100:1
140
100.0
141
1.0
290
     0
  0
SCALE
  5
59
102
{ACAD_REACTORS
330
47
102
}
330
47
100
AcDbScale
 70
     0
300
1/128" = 1'-0"
140
0.0078125
141
12.0
290
     0
  0
SCALE
  5
5A
102
{ACAD_REACTORS
330
47
102
}
330
47
100
AcDbScale
 70
     0
300
1/64" = 1'-0"
140
0.015625
141
12.0
290
     0
  0
SCALE
  5
5B
102
{ACAD_REACTORS
330
47
102
}
330
47
100
AcDbScale
 70
     0
300
1/32" = 1'-0"
140
0.03125
141
12.0
290
     0
  0
SCALE
  5
5C
102
{ACAD_REACTORS
330
47
102
}
330
47
100
AcDbScale
 70
     0
300
1/16" = 1'-0"
140
0.0625
141
12.0
290
     0
  0
SCALE
  5
5D
102
{ACAD_REACTORS
330
47
102
}
330
47
100
AcDbScale
 70
     0
300
3/32" = 1'-0"
140
0.09375
141
12.0
290
     0
  0
SCALE
  5
5E
102
{ACAD_REACTORS
330
47
102
}
330
47
100
AcDbScale
 70
     0
300
1/8" = 1'-0"
140
0.125
141
12.0
290
     0
  0
SCALE
  5
5F
102
{ACAD_REACTORS
330
47
102
}
330
47
100
AcDbScale
 70
     0
300
3/16" = 1'-0"
140
0.1875
141
12.0
290
     0
  0
SCALE
  5
60
102
{ACAD_REACTORS
330
47
102
}
330
47
100
AcDbScale
 70
     0
300
1/4" = 1'-0"
140
0.25
141
12.0
290
     0
  0
SCALE
  5
61
102
{ACAD_REACTORS
330
47
102
}
330
47
100
AcDbScale
 70
     0
300
3/8" = 1'-0"
140
0.375
141
12.0
290
     0
  0
SCALE
  5
62
102
{ACAD_REACTORS
330
47
102
}
330
47
100
AcDbScale
 70
     0
300
1/2" = 1'-0"
140
0.5
141
12.0
290
     0
  0
SCALE
  5
63
102
{ACAD_REACTORS
330
47
102
}
330
47
100
AcDbScale
 70
     0
300
3/4" = 1'-0"
140
0.75
141
12.0
290
     0
  0
SCALE
  5
64
102
{ACAD_REACTORS
330
47
102
}
330
47
100
AcDbScale
 70
     0
300
1" = 1'-0"
140
1.0
141
12.0
290
     0
  0
SCALE
  5
65
102
{ACAD_REACTORS
330
47
102
}
330
47
100
AcDbScale
 70
     0
300
1-1/2" = 1'-0"
140
1.5
141
12.0
290
     0
  0
SCALE
  5
66
102
{ACAD_REACTORS
330
47
102
}
330
47
100
AcDbScale
 70
     0
300
3" = 1'-0"
140
3.0
141
12.0
290
     0
  0
SCALE
  5
67
102
{ACAD_REACTORS
330
47
102
}
330
47
100
AcDbScale
 70
     0
300
6" = 1'-0"
140
6.0
141
12.0
290
     0
  0
SCALE
  5
68
102
{ACAD_REACTORS
330
47
102
}
330
47
100
AcDbScale
 70
     0
300
1'-0" = 1'-0"
140
12.0
141
12.0
290
     0
  0
ENDSEC
  0
EOF
