  0
SECTION
  2
HEADER
  9
$ACADVER
  1
AC1018
  9
$ACADMAINTVER
 70
     0
  9
$DWGCODEPAGE
  3
ANSI_1252
  9
$LASTSAVEDBY
  1
simone.danesi
  9
$INSBASE
 10
0.0
 20
0.0
 30
0.0
  9
$EXTMIN
 10
231.5487383268488
 20
252.8043751777669
 30
0.0
  9
$EXTMAX
 10
440.5735006970508
 20
477.8996697693875
 30
0.0
  9
$LIMMIN
 10
0.0
 20
0.0
  9
$LIMMAX
 10
840.0
 20
594.0
  9
$ORTHOMODE
 70
     0
  9
$REGENMODE
 70
     1
  9
$FILLMODE
 70
     1
  9
$QTEXTMODE
 70
     0
  9
$MIRRTEXT
 70
     1
  9
$LTSCALE
 40
2.0
  9
$ATTMODE
 70
     1
  9
$TEXTSIZE
 40
5.6
  9
$TRACEWID
 40
1.0
  9
$TEXTSTYLE
  7
Standard
  9
$CLAYER
  8
0
  9
$CELTYPE
  6
ByLayer
  9
$CECOLOR
 62
   256
  9
$CELTSCALE
 40
1.0
  9
$DISPSILH
 70
     0
  9
$DIMSCALE
 40
1.0
  9
$DIMASZ
 40
6.4
  9
$DIMEXO
 40
0.2
  9
$DIMDLI
 40
3.75
  9
$DIMRND
 40
0.0
  9
$DIMDLE
 40
0.0
  9
$DIMEXE
 40
2.0
  9
$DIMTP
 40
0.0
  9
$DIMTM
 40
0.0
  9
$DIMTXT
 40
6.4
  9
$DIMCEN
 40
2.5
  9
$DIMTSZ
 40
0.0
  9
$DIMTOL
 70
     0
  9
$DIMLIM
 70
     0
  9
$DIMTIH
 70
     1
  9
$DIMTOH
 70
     1
  9
$DIMSE1
 70
     0
  9
$DIMSE2
 70
     0
  9
$DIMTAD
 70
     1
  9
$DIMZIN
 70
     0
  9
$DIMBLK
  1

  9
$DIMASO
 70
     1
  9
$DIMSHO
 70
     1
  9
$DIMPOST
  1

  9
$DIMAPOST
  1

  9
$DIMALT
 70
     0
  9
$DIMALTD
 70
     3
  9
$DIMALTF
 40
0.0393700787401575
  9
$DIMLFAC
 40
1.0
  9
$DIMTOFL
 70
     1
  9
$DIMTVP
 40
0.0
  9
$DIMTIX
 70
     0
  9
$DIMSOXD
 70
     0
  9
$DIMSAH
 70
     0
  9
$DIMBLK1
  1

  9
$DIMBLK2
  1

  9
$DIMSTYLE
  2
ISO-25
  9
$DIMCLRD
 70
     0
  9
$DIMCLRE
 70
     0
  9
$DIMCLRT
 70
     0
  9
$DIMTFAC
 40
1.0
  9
$DIMGAP
 40
4.0
  9
$DIMJUST
 70
     0
  9
$DIMSD1
 70
     0
  9
$DIMSD2
 70
     0
  9
$DIMTOLJ
 70
     0
  9
$DIMTZIN
 70
     0
  9
$DIMALTZ
 70
     0
  9
$DIMALTTZ
 70
     0
  9
$DIMUPT
 70
     0
  9
$DIMDEC
 70
     2
  9
$DIMTDEC
 70
     2
  9
$DIMALTU
 70
     2
  9
$DIMALTTD
 70
     3
  9
$DIMTXSTY
  7
Standard
  9
$DIMAUNIT
 70
     0
  9
$DIMADEC
 70
     2
  9
$DIMALTRND
 40
0.0
  9
$DIMAZIN
 70
     0
  9
$DIMDSEP
 70
    44
  9
$DIMATFIT
 70
     3
  9
$DIMFRAC
 70
     0
  9
$DIMLDRBLK
  1

  9
$DIMLUNIT
 70
     2
  9
$DIMLWD
 70
    -2
  9
$DIMLWE
 70
    -2
  9
$DIMTMOVE
 70
     0
  9
$LUNITS
 70
     2
  9
$LUPREC
 70
     2
  9
$SKETCHINC
 40
1.0
  9
$FILLETRAD
 40
10.0
  9
$AUNITS
 70
     0
  9
$AUPREC
 70
     2
  9
$MENU
  1
.
  9
$ELEVATION
 40
0.0
  9
$PELEVATION
 40
0.0
  9
$THICKNESS
 40
0.0
  9
$LIMCHECK
 70
     0
  9
$CHAMFERA
 40
0.0
  9
$CHAMFERB
 40
0.0
  9
$CHAMFERC
 40
0.0
  9
$CHAMFERD
 40
0.0
  9
$SKPOLY
 70
     0
  9
$TDCREATE
 40
2458788.371631389
  9
$TDUCREATE
 40
2458788.329964722
  9
$TDUPDATE
 40
2458788.377239954
  9
$TDUUPDATE
 40
2458788.335573287
  9
$TDINDWG
 40
0.0001822685
  9
$TDUSRTIMER
 40
0.0001822685
  9
$USRTIMER
 70
     1
  9
$ANGBASE
 50
0.0
  9
$ANGDIR
 70
     0
  9
$PDMODE
 70
     0
  9
$PDSIZE
 40
-1.0
  9
$PLINEWID
 40
0.0
  9
$SPLFRAME
 70
     0
  9
$SPLINETYPE
 70
     6
  9
$SPLINESEGS
 70
     8
  9
$HANDSEED
  5
310
  9
$SURFTAB1
 70
     6
  9
$SURFTAB2
 70
     6
  9
$SURFTYPE
 70
     6
  9
$SURFU
 70
     6
  9
$SURFV
 70
     6
  9
$UCSBASE
  2

  9
$UCSNAME
  2

  9
$UCSORG
 10
0.0
 20
0.0
 30
0.0
  9
$UCSXDIR
 10
1.0
 20
0.0
 30
0.0
  9
$UCSYDIR
 10
0.0
 20
1.0
 30
0.0
  9
$UCSORTHOREF
  2

  9
$UCSORTHOVIEW
 70
     0
  9
$UCSORGTOP
 10
0.0
 20
0.0
 30
0.0
  9
$UCSORGBOTTOM
 10
0.0
 20
0.0
 30
0.0
  9
$UCSORGLEFT
 10
0.0
 20
0.0
 30
0.0
  9
$UCSORGRIGHT
 10
0.0
 20
0.0
 30
0.0
  9
$UCSORGFRONT
 10
0.0
 20
0.0
 30
0.0
  9
$UCSORGBACK
 10
0.0
 20
0.0
 30
0.0
  9
$PUCSBASE
  2

  9
$PUCSNAME
  2

  9
$PUCSORG
 10
0.0
 20
0.0
 30
0.0
  9
$PUCSXDIR
 10
1.0
 20
0.0
 30
0.0
  9
$PUCSYDIR
 10
0.0
 20
1.0
 30
0.0
  9
$PUCSORTHOREF
  2

  9
$PUCSORTHOVIEW
 70
     0
  9
$PUCSORGTOP
 10
0.0
 20
0.0
 30
0.0
  9
$PUCSORGBOTTOM
 10
0.0
 20
0.0
 30
0.0
  9
$PUCSORGLEFT
 10
0.0
 20
0.0
 30
0.0
  9
$PUCSORGRIGHT
 10
0.0
 20
0.0
 30
0.0
  9
$PUCSORGFRONT
 10
0.0
 20
0.0
 30
0.0
  9
$PUCSORGBACK
 10
0.0
 20
0.0
 30
0.0
  9
$USERI1
 70
     0
  9
$USERI2
 70
     0
  9
$USERI3
 70
     0
  9
$USERI4
 70
     0
  9
$USERI5
 70
     0
  9
$USERR1
 40
0.0
  9
$USERR2
 40
0.0
  9
$USERR3
 40
0.0
  9
$USERR4
 40
0.0
  9
$USERR5
 40
0.0
  9
$WORLDVIEW
 70
     1
  9
$SHADEDGE
 70
     3
  9
$SHADEDIF
 70
    70
  9
$TILEMODE
 70
     1
  9
$MAXACTVP
 70
    64
  9
$PINSBASE
 10
0.0
 20
0.0
 30
0.0
  9
$PLIMCHECK
 70
     0
  9
$PEXTMIN
 10
1.000000000000000E+20
 20
1.000000000000000E+20
 30
1.000000000000000E+20
  9
$PEXTMAX
 10
-1.000000000000000E+20
 20
-1.000000000000000E+20
 30
-1.000000000000000E+20
  9
$PLIMMIN
 10
0.0
 20
0.0
  9
$PLIMMAX
 10
0.0
 20
0.0
  9
$UNITMODE
 70
     0
  9
$VISRETAIN
 70
     1
  9
$PLINEGEN
 70
     0
  9
$PSLTSCALE
 70
     1
  9
$TREEDEPTH
 70
  3020
  9
$CMLSTYLE
  2
Standard
  9
$CMLJUST
 70
     0
  9
$CMLSCALE
 40
20.0
  9
$PROXYGRAPHICS
 70
     1
  9
$MEASUREMENT
 70
     1
  9
$CELWEIGHT
370
    -1
  9
$ENDCAPS
280
     0
  9
$JOINSTYLE
280
     0
  9
$LWDISPLAY
290
     1
  9
$INSUNITS
 70
     4
  9
$HYPERLINKBASE
  1

  9
$STYLESHEET
  1

  9
$XEDIT
290
     1
  9
$CEPSNTYPE
380
     0
  9
$PSTYLEMODE
290
     1
  9
$FINGERPRINTGUID
  2
{1B0B7E20-8992-4D26-9CCD-89C9DEB53FF6}
  9
$VERSIONGUID
  2
{FAEB1C32-E019-11D5-929B-00C0DF256EC4}
  9
$EXTNAMES
290
     1
  9
$PSVPSCALE
 40
0.0
  9
$OLESTARTUP
290
     0
  9
$SORTENTS
280
   127
  9
$INDEXCTL
280
     0
  9
$HIDETEXT
280
     1
  9
$XCLIPFRAME
290
     0
  9
$HALOGAP
280
     0
  9
$OBSCOLOR
 70
   257
  9
$OBSLTYPE
280
     0
  9
$INTERSECTIONDISPLAY
280
     0
  9
$INTERSECTIONCOLOR
 70
   257
  9
$DIMASSOC
280
     2
  9
$PROJECTNAME
  1

  0
ENDSEC
  0
SECTION
  2
CLASSES
  0
CLASS
  1
ACDBDICTIONARYWDFLT
  2
AcDbDictionaryWithDefault
  3
ObjectDBX Classes
 90
        0
 91
        5
280
     0
281
     0
  0
CLASS
  1
VISUALSTYLE
  2
AcDbVisualStyle
  3
ObjectDBX Classes
 90
     4095
 91
        5
280
     0
281
     0
  0
CLASS
  1
MATERIAL
  2
AcDbMaterial
  3
ObjectDBX Classes
 90
     1153
 91
        5
280
     0
281
     0
  0
CLASS
  1
SCALE
  2
AcDbScale
  3
ObjectDBX Classes
 90
     1153
 91
        5
280
     0
281
     0
  0
CLASS
  1
TABLESTYLE
  2
AcDbTableStyle
  3
ObjectDBX Classes
 90
     4095
 91
        5
280
     0
281
     0
  0
CLASS
  1
MLEADERSTYLE
  2
AcDbMLeaderStyle
  3
ACDB_MLEADERSTYLE_CLASS
 90
     4095
 91
        5
280
     0
281
     0
  0
CLASS
  1
SUN
  2
AcDbSun
  3
SCENEOE
 90
     1153
 91
        5
280
     0
281
     0
  0
CLASS
  1
ACDBPLACEHOLDER
  2
AcDbPlaceHolder
  3
ObjectDBX Classes
 90
        0
 91
        1
280
     0
281
     0
  0
CLASS
  1
LAYOUT
  2
AcDbLayout
  3
ObjectDBX Classes
 90
        0
 91
        1
280
     0
281
     0
  0
CLASS
  1
DICTIONARYVAR
  2
AcDbDictionaryVar
  3
ObjectDBX Classes
 90
        0
 91
        4
280
     0
281
     0
  0
CLASS
  1
CELLSTYLEMAP
  2
AcDbCellStyleMap
  3
ObjectDBX Classes
 90
     1152
 91
        4
280
     0
281
     0
  0
ENDSEC
  0
SECTION
  2
TABLES
  0
TABLE
  2
VPORT
  5
8
330
0
100
AcDbSymbolTable
 70
     1
  0
VPORT
  5
29
330
8
100
AcDbSymbolTableRecord
100
AcDbViewportTableRecord
  2
*Active
 70
     0
 10
0.0
 20
0.0
 11
1.0
 21
1.0
 12
336.0611195119498
 22
365.3520224735772
 13
0.0
 23
0.0
 14
10.0
 24
10.0
 15
10.0
 25
10.0
 16
0.0
 26
0.0
 36
1.0
 17
0.0
 27
0.0
 37
0.0
 40
229.597200483453
 41
2.584131326949384
 42
50.0
 43
0.0
 44
0.0
 50
0.0
 51
0.0
 71
    16
 72
  2000
 73
     1
 74
     3
 75
     0
 76
     0
 77
     0
 78
     0
281
     0
 65
     1
110
0.0
120
0.0
130
0.0
111
1.0
121
0.0
131
0.0
112
0.0
122
1.0
132
0.0
 79
     0
146
0.0
  0
ENDTAB
  0
TABLE
  2
LTYPE
  5
5
330
0
100
AcDbSymbolTable
 70
     6
  0
LTYPE
  5
14
330
5
100
AcDbSymbolTableRecord
100
AcDbLinetypeTableRecord
  2
ByBlock
 70
     0
  3

 72
    65
 73
     0
 40
0.0
  0
LTYPE
  5
15
330
5
100
AcDbSymbolTableRecord
100
AcDbLinetypeTableRecord
  2
ByLayer
 70
     0
  3

 72
    65
 73
     0
 40
0.0
  0
LTYPE
  5
16
330
5
100
AcDbSymbolTableRecord
100
AcDbLinetypeTableRecord
  2
Continuous
 70
     0
  3
Solid line
 72
    65
 73
     0
 40
0.0
  0
LTYPE
  5
6E
330
5
100
AcDbSymbolTableRecord
100
AcDbLinetypeTableRecord
  2
HIDDEN
 70
     0
  3
Hidden __ __ __ __ __ __ __ __ __ __ __ __ __ __
 72
    65
 73
     2
 40
1.905
 49
1.27
 74
     0
 49
-0.635
 74
     0
  0
LTYPE
  5
6F
330
5
100
AcDbSymbolTableRecord
100
AcDbLinetypeTableRecord
  2
PHANTOM
 70
     0
  3
Phantom ______  __  __  ______  __  __  ______
 72
    65
 73
     6
 40
12.7
 49
6.35
 74
     0
 49
-1.27
 74
     0
 49
1.27
 74
     0
 49
-1.27
 74
     0
 49
1.27
 74
     0
 49
-1.27
 74
     0
  0
LTYPE
  5
70
330
5
100
AcDbSymbolTableRecord
100
AcDbLinetypeTableRecord
  2
CENTER
 70
     0
  3
Center ____ _ ____ _ ____ _ ____ _ ____ _ ____
 72
    65
 73
     4
 40
10.16
 49
6.35
 74
     0
 49
-1.27
 74
     0
 49
1.27
 74
     0
 49
-1.27
 74
     0
  0
LTYPE
  5
71
330
5
100
AcDbSymbolTableRecord
100
AcDbLinetypeTableRecord
  2
CENTERX2
 70
     0
  3
Center (2x) ________  __  ________  __  _____
 72
    65
 73
     4
 40
20.32
 49
12.7
 74
     0
 49
-2.54
 74
     0
 49
2.54
 74
     0
 49
-2.54
 74
     0
  0
LTYPE
  5
72
330
5
100
AcDbSymbolTableRecord
100
AcDbLinetypeTableRecord
  2
DOT2
 70
     0
  3
Dot (.5x) ........................................
 72
    65
 73
     2
 40
0.635
 49
0.0
 74
     0
 49
-0.635
 74
     0
  0
ENDTAB
  0
TABLE
  2
LAYER
  5
2
330
0
100
AcDbSymbolTable
 70
     2
  0
LAYER
  5
10
330
2
100
AcDbSymbolTableRecord
100
AcDbLayerTableRecord
  2
0
 70
     0
 62
     7
  6
Continuous
370
    -3
390
F
  0
LAYER
  5
73
330
2
100
AcDbSymbolTableRecord
100
AcDbLayerTableRecord
  2
FORMAT
 70
     0
 62
     7
  6
Continuous
370
    -3
390
F
  0
ENDTAB
  0
TABLE
  2
STYLE
  5
3
330
0
100
AcDbSymbolTable
 70
     5
  0
STYLE
  5
11
330
3
100
AcDbSymbolTableRecord
100
AcDbTextStyleTableRecord
  2
Standard
 70
     0
 40
0.0
 41
1.0
 50
0.0
 71
     0
 42
5.6
  3
txt
  4

  0
STYLE
  5
ED
330
3
100
AcDbSymbolTableRecord
100
AcDbTextStyleTableRecord
  2
SLDTEXTSTYLE0
 70
     0
 40
0.0
 41
0.605
 50
0.0
 71
     0
 42
5.6
  3
TXT
  4

  0
STYLE
  5
EF
330
3
100
AcDbSymbolTableRecord
100
AcDbTextStyleTableRecord
  2
SLDTEXTSTYLE1
 70
     0
 40
0.0
 41
0.75
 50
0.0
 71
     0
 42
5.6
  3
TXT
  4

  0
STYLE
  5
FE
330
3
100
AcDbSymbolTableRecord
100
AcDbTextStyleTableRecord
  2
SLDTEXTSTYLE2
 70
     0
 40
0.0
 41
0.7
 50
0.0
 71
     0
 42
5.6
  3
TXT
  4

  0
STYLE
  5
104
330
3
100
AcDbSymbolTableRecord
100
AcDbTextStyleTableRecord
  2
SLDTEXTSTYLE3
 70
     0
 40
0.0
 41
0.57
 50
0.0
 71
     0
 42
5.6
  3
TXT
  4

  0
ENDTAB
  0
TABLE
  2
VIEW
  5
6
330
0
100
AcDbSymbolTable
 70
     0
  0
ENDTAB
  0
TABLE
  2
UCS
  5
7
330
0
100
AcDbSymbolTable
 70
     0
  0
ENDTAB
  0
TABLE
  2
APPID
  5
9
330
0
100
AcDbSymbolTable
 70
     2
  0
APPID
  5
12
330
9
100
AcDbSymbolTableRecord
100
AcDbRegAppTableRecord
  2
ACAD
 70
     0
  0
APPID
  5
309
330
9
100
AcDbSymbolTableRecord
100
AcDbRegAppTableRecord
  2
ACAD_MLEADERVER
 70
     0
  0
ENDTAB
  0
TABLE
  2
DIMSTYLE
  5
A
330
0
100
AcDbSymbolTable
 70
     1
100
AcDbDimStyleTable
  0
DIMSTYLE
105
27
330
A
100
AcDbSymbolTableRecord
100
AcDbDimStyleTableRecord
  2
ISO-25
 70
     0
 41
2.5
 42
0.625
 43
3.75
 44
1.25
 73
     0
 74
     0
 77
     1
 78
     8
140
2.5
141
2.5
143
0.03937007874016
147
0.625
171
     3
172
     1
178
     0
271
     2
272
     2
274
     3
278
    44
283
     0
284
     8
340
11
  0
ENDTAB
  0
TABLE
  2
BLOCK_RECORD
  5
1
330
0
100
AcDbSymbolTable
 70
    15
  0
BLOCK_RECORD
  5
1F
330
1
100
AcDbSymbolTableRecord
100
AcDbBlockTableRecord
  2
*Model_Space
340
22
  0
BLOCK_RECORD
  5
1B
330
1
100
AcDbSymbolTableRecord
100
AcDbBlockTableRecord
  2
*Paper_Space
340
1E
  0
BLOCK_RECORD
  5
23
330
1
100
AcDbSymbolTableRecord
100
AcDbBlockTableRecord
  2
*Paper_Space0
340
26
  0
BLOCK_RECORD
  5
74
330
1
100
AcDbSymbolTableRecord
100
AcDbBlockTableRecord
  2
Blocco2
340
0
  0
BLOCK_RECORD
  5
D5
330
1
100
AcDbSymbolTableRecord
100
AcDbBlockTableRecord
  2
Blocco6
340
0
  0
BLOCK_RECORD
  5
112
330
1
100
AcDbSymbolTableRecord
100
AcDbBlockTableRecord
  2
Blocco7
340
0
  0
BLOCK_RECORD
  5
12D
330
1
100
AcDbSymbolTableRecord
100
AcDbBlockTableRecord
  2
Blocco8
340
0
  0
BLOCK_RECORD
  5
134
330
1
100
AcDbSymbolTableRecord
100
AcDbBlockTableRecord
  2
Blocco9
340
0
  0
BLOCK_RECORD
  5
13B
330
1
100
AcDbSymbolTableRecord
100
AcDbBlockTableRecord
  2
Blocco10
340
0
  0
BLOCK_RECORD
  5
190
330
1
100
AcDbSymbolTableRecord
100
AcDbBlockTableRecord
  2
SW_NOTE_0
340
0
  0
BLOCK_RECORD
  5
19D
330
1
100
AcDbSymbolTableRecord
100
AcDbBlockTableRecord
  2
SW_NOTE_1
340
0
  0
BLOCK_RECORD
  5
1A6
330
1
100
AcDbSymbolTableRecord
100
AcDbBlockTableRecord
  2
SW_NOTE_2
340
0
  0
BLOCK_RECORD
  5
1AD
330
1
100
AcDbSymbolTableRecord
100
AcDbBlockTableRecord
  2
SW_NOTE_3
340
0
  0
BLOCK_RECORD
  5
1B6
330
1
100
AcDbSymbolTableRecord
100
AcDbBlockTableRecord
  2
SW_NOTE_4
340
0
  0
BLOCK_RECORD
  5
1BE
330
1
100
AcDbSymbolTableRecord
100
AcDbBlockTableRecord
  2
SW_NOTE_5
340
0
  0
BLOCK_RECORD
  5
1C4
330
1
100
AcDbSymbolTableRecord
100
AcDbBlockTableRecord
  2
SW_NOTE_6
340
0
  0
BLOCK_RECORD
  5
1CE
330
1
100
AcDbSymbolTableRecord
100
AcDbBlockTableRecord
  2
SW_NOTE_7
340
0
  0
ENDTAB
  0
ENDSEC
  0
SECTION
  2
BLOCKS
  0
BLOCK
  5
20
330
1F
100
AcDbEntity
  8
0
100
AcDbBlockBegin
  2
*Model_Space
 70
     0
 10
0.0
 20
0.0
 30
0.0
  3
*Model_Space
  1

  0
ENDBLK
  5
21
330
1F
100
AcDbEntity
  8
0
100
AcDbBlockEnd
  0
BLOCK
  5
1C
330
1B
100
AcDbEntity
 67
     1
  8
0
100
AcDbBlockBegin
  2
*Paper_Space
 70
     0
 10
0.0
 20
0.0
 30
0.0
  3
*Paper_Space
  1

  0
ENDBLK
  5
1D
330
1B
100
AcDbEntity
 67
     1
  8
0
100
AcDbBlockEnd
  0
BLOCK
  5
24
330
23
100
AcDbEntity
  8
0
100
AcDbBlockBegin
  2
*Paper_Space0
 70
     0
 10
0.0
 20
0.0
 30
0.0
  3
*Paper_Space0
  1

  0
ENDBLK
  5
25
330
23
100
AcDbEntity
  8
0
100
AcDbBlockEnd
  0
BLOCK
  5
75
330
74
100
AcDbEntity
  8
0
100
AcDbBlockBegin
  2
Blocco2
 70
     0
 10
0.0
 20
0.0
 30
0.0
  3
Blocco2
  1

  0
ARC
  5
77
330
74
100
AcDbEntity
  8
0
  6
Continuous
 62
     7
370
    18
100
AcDbCircle
 10
22.70488261619369
 20
-71.45529214739321
 30
0.0
 40
90.07400542188049
100
AcDbArc
 50
87.2552811744551
 51
90.41914511601576
  0
ARC
  5
78
330
74
100
AcDbEntity
  8
0
  6
Continuous
 62
     7
370
    18
100
AcDbCircle
 10
20.8694231701527
 20
-38.41954231965738
 30
0.0
 40
57.26598100181018
100
AcDbArc
 50
83.83616935229334
 51
88.8227726300255
  0
ARC
  5
79
330
74
100
AcDbEntity
  8
0
  6
Continuous
 62
     7
370
    18
100
AcDbCircle
 10
37.85141101012568
 20
8.948164772188377
 30
0.0
 40
6.079040313172297
100
AcDbArc
 50
5.466852980265045
 51
51.93851290770347
  0
ARC
  5
7A
330
74
100
AcDbEntity
  8
0
  6
Continuous
 62
     7
370
    18
100
AcDbCircle
 10
38.06726489176471
 20
8.801959252665275
 30
0.0
 40
6.066657612951513
100
AcDbArc
 50
6.866950742808953
 51
54.39564514541152
  0
ARC
  5
7B
330
74
100
AcDbEntity
  8
0
  6
Continuous
 62
     7
370
    18
100
AcDbCircle
 10
8.867341877718427
 20
9.554874380247934
 30
0.0
 40
2.556983865548966
100
AcDbArc
 50
87.52069606470542
 51
180.6175688017483
  0
ARC
  5
7C
330
74
100
AcDbEntity
  8
0
  6
Continuous
 62
     7
370
    18
100
AcDbCircle
 10
9.08431827638162
 20
9.572860087688928
 30
0.0
 40
2.105851678846169
100
AcDbArc
 50
137.9952467217038
 51
181.2393045224698
  0
ARC
  5
7D
330
74
100
AcDbEntity
  8
0
  6
Continuous
 62
     7
370
    18
100
AcDbCircle
 10
8.900918027992782
 20
9.469811944332884
 30
0.0
 40
2.048247597847132
100
AcDbArc
 50
87.84531341852427
 51
132.4112659358824
  0
ARC
  5
7E
330
74
100
AcDbEntity
  8
0
  6
Continuous
 62
     7
370
    18
100
AcDbCircle
 10
8.818675853355968
 20
9.180868757958482
 30
0.0
 40
2.460828129183486
100
AcDbArc
 50
219.6881491102096
 51
269.4792649484676
  0
ARC
  5
7F
330
74
100
AcDbEntity
  8
0
  6
Continuous
 62
     7
370
    18
100
AcDbCircle
 10
9.483005420727498
 20
9.48632553544504
 30
0.0
 40
3.172763652226549
100
AcDbArc
 50
179.2597803679969
 51
216.269645090453
  0
ARC
  5
80
330
74
100
AcDbEntity
  8
0
  6
Continuous
 62
     7
370
    18
100
AcDbCircle
 10
8.894619219416366
 20
9.278334540996164
 30
0.0
 40
1.969139868309649
100
AcDbArc
 50
216.6836460145909
 51
272.6640485798765
  0
ARC
  5
81
330
74
100
AcDbEntity
  8
0
  6
Continuous
 62
     7
370
    18
100
AcDbCircle
 10
9.698139632116881
 20
9.416907791220453
 30
0.0
 40
2.721420920128597
100
AcDbArc
 50
177.6749069313867
 51
208.8931530518081
  0
ARC
  5
82
330
74
100
AcDbEntity
  8
0
  6
Continuous
 62
     7
370
    18
100
AcDbCircle
 10
22.75209304979456
 20
9.572860087688928
 30
0.0
 40
2.105851678846163
100
AcDbArc
 50
137.9952467217034
 51
181.2393045224698
  0
ARC
  5
83
330
74
100
AcDbEntity
  8
0
  6
Continuous
 62
     7
370
    18
100
AcDbCircle
 10
22.56869280140572
 20
9.469811944332884
 30
0.0
 40
2.048247597847132
100
AcDbArc
 50
87.84531341852431
 51
132.4112659358819
  0
ARC
  5
84
330
74
100
AcDbEntity
  8
0
  6
Continuous
 62
     7
370
    18
100
AcDbCircle
 10
22.48645062676891
 20
9.180868757958482
 30
0.0
 40
2.460828129183414
100
AcDbArc
 50
219.6881491102146
 51
269.479264948464
  0
ARC
  5
85
330
74
100
AcDbEntity
  8
0
  6
Continuous
 62
     7
370
    18
100
AcDbCircle
 10
22.56239399282928
 20
9.278334540996191
 30
0.0
 40
1.969139868309634
100
AcDbArc
 50
216.6836460146055
 51
272.6640485798683
  0
ARC
  5
86
330
74
100
AcDbEntity
  8
0
  6
Continuous
 62
     7
370
    18
100
AcDbCircle
 10
23.36591440552982
 20
9.41690779122048
 30
0.0
 40
2.721420920128585
100
AcDbArc
 50
177.6749069313872
 51
208.8931530518182
  0
ARC
  5
87
330
74
100
AcDbEntity
  8
0
  6
Continuous
 62
     7
370
    18
100
AcDbCircle
 10
22.53511665113139
 20
9.554874380247963
 30
0.0
 40
2.556983865548962
100
AcDbArc
 50
87.52069606470606
 51
180.6175688016945
  0
ARC
  5
88
330
74
100
AcDbEntity
  8
0
  6
Continuous
 62
     7
370
    18
100
AcDbCircle
 10
23.15078019414043
 20
9.486325535445095
 30
0.0
 40
3.172763652226548
100
AcDbArc
 50
179.259780367954
 51
216.2696450904577
  0
ARC
  5
89
330
74
100
AcDbEntity
  8
0
  6
Continuous
 62
     7
370
    18
100
AcDbCircle
 10
13.59052619047161
 20
9.572860087688925
 30
0.0
 40
2.105851678846165
100
AcDbArc
 50
137.9952467217035
 51
181.2393045224671
  0
ARC
  5
8A
330
74
100
AcDbEntity
  8
0
  6
Continuous
 62
     7
370
    18
100
AcDbCircle
 10
13.40815212945627
 20
9.468122155346377
 30
0.0
 40
2.050187352658353
100
AcDbArc
 50
89.1052832126247
 51
132.4005898678421
  0
ARC
  5
8B
330
74
100
AcDbEntity
  8
0
  6
Continuous
 62
     7
370
    18
100
AcDbCircle
 10
13.32488376744551
 20
9.180868757958482
 30
0.0
 40
2.460828129183388
100
AcDbArc
 50
219.688149110216
 51
269.4792649485132
  0
ARC
  5
8C
330
74
100
AcDbEntity
  8
0
  6
Continuous
 62
     7
370
    18
100
AcDbCircle
 10
13.98921333481709
 20
9.486325535445012
 30
0.0
 40
3.172763652226529
100
AcDbArc
 50
179.2597803679926
 51
216.2696450904569
  0
ARC
  5
8D
330
74
100
AcDbEntity
  8
0
  6
Continuous
 62
     7
370
    18
100
AcDbCircle
 10
13.40201641468378
 20
9.27978645949626
 30
0.0
 40
1.970961030782166
100
AcDbArc
 50
216.6968405364061
 51
271.1090780216605
  0
ARC
  5
8E
330
74
100
AcDbEntity
  8
0
  6
Continuous
 62
     7
370
    18
100
AcDbCircle
 10
14.20434754620684
 20
9.416907791219867
 30
0.0
 40
2.721420920128653
100
AcDbArc
 50
177.6749069313724
 51
208.8931530518005
  0
ARC
  5
8F
330
74
100
AcDbEntity
  8
0
  6
Continuous
 62
     7
370
    18
100
AcDbCircle
 10
13.37354979180802
 20
9.554874380247934
 30
0.0
 40
2.556983865548979
100
AcDbArc
 50
90.0
 51
180.6175688017436
  0
ARC
  5
90
330
74
100
AcDbEntity
  8
0
  6
Continuous
 62
     7
370
    18
100
AcDbCircle
 10
13.28980590808745
 20
9.572860087688845
 30
0.0
 40
2.105851678846154
100
AcDbArc
 50
358.7606954775349
 51
42.00475327829771
  0
ARC
  5
91
330
74
100
AcDbEntity
  8
0
  6
Continuous
 62
     7
370
    18
100
AcDbCircle
 10
13.47217996910255
 20
9.468122155346482
 30
0.0
 40
2.050187352658319
100
AcDbArc
 50
47.59941013215057
 51
90.89471678736956
  0
ARC
  5
92
330
74
100
AcDbEntity
  8
0
  6
Continuous
 62
     7
370
    18
100
AcDbCircle
 10
13.55544833111311
 20
9.180868757958482
 30
0.0
 40
2.46082812918341
100
AcDbArc
 50
270.5207350515375
 51
320.3118508897865
  0
ARC
  5
93
330
74
100
AcDbEntity
  8
0
  6
Continuous
 62
     7
370
    18
100
AcDbCircle
 10
12.89111876374158
 20
9.486325535445067
 30
0.0
 40
3.172763652226528
100
AcDbArc
 50
323.730354909544
 51
0.74021963200365
  0
ARC
  5
94
330
74
100
AcDbEntity
  8
0
  6
Continuous
 62
     7
370
    18
100
AcDbCircle
 10
13.47831568387484
 20
9.27978645949626
 30
0.0
 40
1.970961030782185
100
AcDbArc
 50
268.8909219783428
 51
323.3031594635914
  0
ARC
  5
95
330
74
100
AcDbEntity
  8
0
  6
Continuous
 62
     7
370
    18
100
AcDbCircle
 10
12.67598455235219
 20
9.416907791220536
 30
0.0
 40
2.721420920128604
100
AcDbArc
 50
331.1068469481814
 51
2.325093068612123
  0
ARC
  5
96
330
74
100
AcDbEntity
  8
0
  6
Continuous
 62
     7
370
    18
100
AcDbCircle
 10
13.50678230675062
 20
9.554874380247934
 30
0.0
 40
2.556983865548994
100
AcDbArc
 50
359.3824311982546
 51
90.0
  0
ARC
  5
97
330
74
100
AcDbEntity
  8
0
  6
Continuous
 62
     7
370
    18
100
AcDbCircle
 10
27.25794154513891
 20
9.572860087689147
 30
0.0
 40
2.105851678846168
100
AcDbArc
 50
137.9952467217041
 51
181.239304522464
  0
ARC
  5
98
330
74
100
AcDbEntity
  8
0
  6
Continuous
 62
     7
370
    18
100
AcDbCircle
 10
27.07556748412349
 20
9.468122155346467
 30
0.0
 40
2.050187352658364
100
AcDbArc
 50
89.10528321262393
 51
132.4005898678386
  0
ARC
  5
99
330
74
100
AcDbEntity
  8
0
  6
Continuous
 62
     7
370
    18
100
AcDbCircle
 10
26.99229912211229
 20
9.180868757958482
 30
0.0
 40
2.460828129183413
100
AcDbArc
 50
219.6881491102147
 51
269.4792649484489
  0
ARC
  5
9A
330
74
100
AcDbEntity
  8
0
  6
Continuous
 62
     7
370
    18
100
AcDbCircle
 10
27.65662868948382
 20
9.48632553544504
 30
0.0
 40
3.172763652226516
100
AcDbArc
 50
179.2597803679969
 51
216.2696450904569
  0
ARC
  5
9B
330
74
100
AcDbEntity
  8
0
  6
Continuous
 62
     7
370
    18
100
AcDbCircle
 10
27.06943176935053
 20
9.27978645949626
 30
0.0
 40
1.970961030782139
100
AcDbArc
 50
216.6968405364056
 51
271.1090780216597
  0
ARC
  5
9C
330
74
100
AcDbEntity
  8
0
  6
Continuous
 62
     7
370
    18
100
AcDbCircle
 10
27.87176290087405
 20
9.41690779121889
 30
0.0
 40
2.721420920128561
100
AcDbArc
 50
177.6749069313447
 51
208.8931530517776
  0
ARC
  5
9D
330
74
100
AcDbEntity
  8
0
  6
Continuous
 62
     7
370
    18
100
AcDbCircle
 10
27.04096514647475
 20
9.554874380247934
 30
0.0
 40
2.556983865548979
100
AcDbArc
 50
90.0
 51
180.6175688017483
  0
ARC
  5
9E
330
74
100
AcDbEntity
  8
0
  6
Continuous
 62
     7
370
    18
100
AcDbCircle
 10
26.95722126275424
 20
9.572860087688845
 30
0.0
 40
2.105851678846181
100
AcDbArc
 50
358.7606954775349
 51
42.0047532782943
  0
ARC
  5
9F
330
74
100
AcDbEntity
  8
0
  6
Continuous
 62
     7
370
    18
100
AcDbCircle
 10
27.13959532376933
 20
9.468122155346482
 30
0.0
 40
2.050187352658341
100
AcDbArc
 50
47.59941013214704
 51
90.89471678735671
  0
ARC
  5
A0
330
74
100
AcDbEntity
  8
0
  6
Continuous
 62
     7
370
    18
100
AcDbCircle
 10
27.22286368577986
 20
9.180868757958482
 30
0.0
 40
2.460828129183412
100
AcDbArc
 50
270.5207350515375
 51
320.3118508897865
  0
ARC
  5
A1
330
74
100
AcDbEntity
  8
0
  6
Continuous
 62
     7
370
    18
100
AcDbCircle
 10
26.55853411840831
 20
9.48632553544504
 30
0.0
 40
3.172763652226537
100
AcDbArc
 50
323.7303549095446
 51
0.7402196320041288
  0
ARC
  5
A2
330
74
100
AcDbEntity
  8
0
  6
Continuous
 62
     7
370
    18
100
AcDbCircle
 10
27.14573103854162
 20
9.27978645949626
 30
0.0
 40
1.970961030782164
100
AcDbArc
 50
268.8909219783412
 51
323.3031594636031
  0
ARC
  5
A3
330
74
100
AcDbEntity
  8
0
  6
Continuous
 62
     7
370
    18
100
AcDbCircle
 10
26.34339990701898
 20
9.416907791220536
 30
0.0
 40
2.721420920128639
100
AcDbArc
 50
331.1068469481898
 51
2.325093068612099
  0
ARC
  5
A4
330
74
100
AcDbEntity
  8
0
  6
Continuous
 62
     7
370
    18
100
AcDbCircle
 10
27.17419766141738
 20
9.554874380247934
 30
0.0
 40
2.556983865548979
100
AcDbArc
 50
359.3824311982546
 51
90.0
  0
ELLIPSE
  5
A5
330
74
100
AcDbEntity
  8
0
  6
Continuous
 62
     7
370
    18
100
AcDbEllipse
 10
22.04595550062599
 20
9.417175724946825
 30
0.0
 11
22.04595550062599
 21
0.0
 31
0.0
210
0.0
220
0.0
230
1.0
 40
0.4271611509276351
 41
1.570796326794897
 42
6.294881061196233
  0
ELLIPSE
  5
A6
330
74
100
AcDbEntity
  8
0
  6
Continuous
 62
     7
370
    18
100
AcDbEllipse
 10
22.23890849094504
 20
9.527314184731795
 30
0.0
 11
21.66389220148704
 21
0.0
 31
0.0
210
0.0
220
0.0
230
1.0
 40
0.419562161142665
 41
1.579703107693041
 42
6.283185307179586
  0
LINE
  5
A7
330
74
100
AcDbEntity
  8
0
  6
Continuous
 62
     7
370
    18
100
AcDbLine
 10
10.14384176266664
 20
12.11203839351938
 30
0.0
 11
10.14384176266664
 21
11.51661135658194
 31
0.0
  0
LINE
  5
A8
330
74
100
AcDbEntity
  8
0
  6
Continuous
 62
     7
370
    18
100
AcDbLine
 10
10.14384176266664
 20
11.51661135658194
 30
0.0
 11
8.97792704112413
 21
11.51661135658194
 31
0.0
  0
LINE
  5
A9
330
74
100
AcDbEntity
  8
0
  6
Continuous
 62
     7
370
    18
100
AcDbLine
 10
10.14384176266664
 20
12.11203839351938
 30
0.0
 11
8.977953199686556
 21
12.10946468480367
 31
0.0
  0
LINE
  5
AA
330
74
100
AcDbEntity
  8
0
  6
Continuous
 62
     7
370
    18
100
AcDbLine
 10
10.42592658602019
 20
7.311322847705977
 30
0.0
 11
10.42592658602019
 21
6.720142262222148
 31
0.0
  0
LINE
  5
AB
330
74
100
AcDbEntity
  8
0
  6
Continuous
 62
     7
370
    18
100
AcDbLine
 10
10.42592658602019
 20
6.720142262222148
 30
0.0
 11
8.79631082346825
 21
6.720142262222148
 31
0.0
  0
LINE
  5
AC
330
74
100
AcDbEntity
  8
0
  6
Continuous
 62
     7
370
    18
100
AcDbLine
 10
10.42592658602019
 20
7.311322847705977
 30
0.0
 11
8.986144185552297
 21
7.31132284770597
 31
0.0
  0
LINE
  5
AD
330
74
100
AcDbEntity
  8
0
  6
Continuous
 62
     7
370
    18
100
AcDbLine
 10
23.81161653607958
 20
12.11203839351938
 30
0.0
 11
23.81161653607958
 21
11.51661135658194
 31
0.0
  0
LINE
  5
AE
330
74
100
AcDbEntity
  8
0
  6
Continuous
 62
     7
370
    18
100
AcDbLine
 10
23.81161653607958
 20
11.51661135658194
 30
0.0
 11
22.64570181453707
 21
11.51661135658194
 31
0.0
  0
LINE
  5
AF
330
74
100
AcDbEntity
  8
0
  6
Continuous
 62
     7
370
    18
100
AcDbLine
 10
23.81161653607958
 20
12.11203839351938
 30
0.0
 11
22.64572797309949
 21
12.1094646848037
 31
0.0
  0
LINE
  5
B0
330
74
100
AcDbEntity
  8
0
  6
Continuous
 62
     7
370
    18
100
AcDbLine
 10
24.09370135943298
 20
7.31132284770597
 30
0.0
 11
24.09370135943298
 21
6.720142262222229
 31
0.0
  0
LINE
  5
B1
330
74
100
AcDbEntity
  8
0
  6
Continuous
 62
     7
370
    18
100
AcDbLine
 10
24.09370135943298
 20
6.720142262222229
 30
0.0
 11
22.46408559688104
 21
6.720142262222229
 31
0.0
  0
LINE
  5
B2
330
74
100
AcDbEntity
  8
0
  6
Continuous
 62
     7
370
    18
100
AcDbLine
 10
24.09370135943298
 20
7.31132284770597
 30
0.0
 11
22.65391895896492
 21
7.311322847706112
 31
0.0
  0
LINE
  5
B3
330
74
100
AcDbEntity
  8
0
  6
Continuous
 62
     7
370
    18
100
AcDbLine
 10
13.37354979180802
 20
12.11185824579691
 30
0.0
 11
13.44016604927931
 21
12.11185824579691
 31
0.0
  0
LINE
  5
B4
330
74
100
AcDbEntity
  8
0
  6
Continuous
 62
     7
370
    18
100
AcDbLine
 10
13.30251873755975
 20
6.720142262222229
 30
0.0
 11
13.44016604927931
 21
6.720142262222229
 31
0.0
  0
LINE
  5
B5
330
74
100
AcDbEntity
  8
0
  6
Continuous
 62
     7
370
    18
100
AcDbLine
 10
13.50678230675062
 20
12.11185824579691
 30
0.0
 11
13.44016604927931
 21
12.11185824579691
 31
0.0
  0
LINE
  5
B6
330
74
100
AcDbEntity
  8
0
  6
Continuous
 62
     7
370
    18
100
AcDbLine
 10
13.57781336100097
 20
6.720142262222229
 30
0.0
 11
13.44016604927931
 21
6.720142262222229
 31
0.0
  0
LINE
  5
B7
330
74
100
AcDbEntity
  8
0
  6
Continuous
 62
     7
370
    18
100
AcDbLine
 10
27.04096514647475
 20
12.11185824579691
 30
0.0
 11
27.10758140394609
 21
12.11185824579691
 31
0.0
  0
LINE
  5
B8
330
74
100
AcDbEntity
  8
0
  6
Continuous
 62
     7
370
    18
100
AcDbLine
 10
26.96993409222377
 20
6.720142262222229
 30
0.0
 11
27.10758140394606
 21
6.720142262222229
 31
0.0
  0
LINE
  5
B9
330
74
100
AcDbEntity
  8
0
  6
Continuous
 62
     7
370
    18
100
AcDbLine
 10
27.17419766141738
 20
12.11185824579691
 30
0.0
 11
27.10758140394609
 21
12.11185824579691
 31
0.0
  0
LINE
  5
BA
330
74
100
AcDbEntity
  8
0
  6
Continuous
 62
     7
370
    18
100
AcDbLine
 10
27.24522871566773
 20
6.720142262222229
 30
0.0
 11
27.10758140394606
 21
6.720142262222229
 31
0.0
  0
LINE
  5
BB
330
74
100
AcDbEntity
  8
0
  6
Continuous
 62
     7
370
    18
100
AcDbLine
 10
17.32806434817299
 20
12.10952060876419
 30
0.0
 11
17.32806434817299
 21
7.313289507902998
 31
0.0
  0
LINE
  5
BC
330
74
100
AcDbEntity
  8
0
  6
Continuous
 62
     7
370
    18
100
AcDbLine
 10
17.32806434817299
 20
7.313289507902998
 30
0.0
 11
19.58753117645801
 21
7.313289507902998
 31
0.0
  0
LINE
  5
BD
330
74
100
AcDbEntity
  8
0
  6
Continuous
 62
     7
370
    18
100
AcDbLine
 10
19.58753117645801
 20
7.313289507902998
 30
0.0
 11
19.58753117645801
 21
6.719579641035617
 31
0.0
  0
LINE
  5
BE
330
74
100
AcDbEntity
  8
0
  6
Continuous
 62
     7
370
    18
100
AcDbLine
 10
19.58753117645801
 20
6.719579641035617
 30
0.0
 11
16.73691717081566
 21
6.719579641035617
 31
0.0
  0
LINE
  5
BF
330
74
100
AcDbEntity
  8
0
  6
Continuous
 62
     7
370
    18
100
AcDbLine
 10
16.73691717081566
 20
6.719579641035617
 30
0.0
 11
16.73691717081566
 21
12.10952060876419
 31
0.0
  0
LINE
  5
C0
330
74
100
AcDbEntity
  8
0
  6
Continuous
 62
     7
370
    18
100
AcDbLine
 10
16.73691717081566
 20
12.10952060876419
 30
0.0
 11
17.32806434817299
 21
12.10952060876419
 31
0.0
  0
LINE
  5
C1
330
74
100
AcDbEntity
  8
0
  6
Continuous
 62
     7
370
    18
100
AcDbLine
 10
31.89102499447113
 20
12.10812113522533
 30
0.0
 11
32.33330283001531
 21
12.10812113522533
 31
0.0
  0
LINE
  5
C2
330
74
100
AcDbEntity
  8
0
  6
Continuous
 62
     7
370
    18
100
AcDbLine
 10
32.33330283001531
 20
12.10812113522533
 30
0.0
 11
33.68863611030392
 21
8.963621131817812
 31
0.0
  0
LINE
  5
C3
330
74
100
AcDbEntity
  8
0
  6
Continuous
 62
     7
370
    18
100
AcDbLine
 10
32.10081610446782
 20
11.09821748782089
 30
0.0
 11
33.39651110976344
 21
8.106246129126527
 31
0.0
  0
LINE
  5
C4
330
74
100
AcDbEntity
  8
0
  6
Continuous
 62
     7
370
    18
100
AcDbLine
 10
35.48624722613669
 20
12.10812113522533
 30
0.0
 11
35.04396939059254
 21
12.10812113522533
 31
0.0
  0
LINE
  5
C5
330
74
100
AcDbEntity
  8
0
  6
Continuous
 62
     7
370
    18
100
AcDbLine
 10
35.04396939059254
 20
12.10812113522533
 30
0.0
 11
33.68863611030392
 21
8.963621131817812
 31
0.0
  0
LINE
  5
C6
330
74
100
AcDbEntity
  8
0
  6
Continuous
 62
     7
370
    18
100
AcDbLine
 10
37.09768888078724
 20
6.721025384335139
 30
0.0
 11
35.27645611614
 21
11.09821748782089
 31
0.0
  0
LINE
  5
C7
330
74
100
AcDbEntity
  8
0
  6
Continuous
 62
     7
370
    18
100
AcDbLine
 10
35.27645611614
 20
11.09821748782089
 30
0.0
 11
33.98076111084439
 21
8.106246129126527
 31
0.0
  0
LINE
  5
C8
330
74
100
AcDbEntity
  8
0
  6
Continuous
 62
     7
370
    18
100
AcDbLine
 10
37.74870274358607
 20
6.721025384335139
 30
0.0
 11
35.48624722613669
 21
12.10812113522533
 31
0.0
  0
LINE
  5
C9
330
74
100
AcDbEntity
  8
0
  6
Continuous
 62
     7
370
    18
100
AcDbLine
 10
37.09768888078724
 20
6.721025384335139
 30
0.0
 11
37.74870274358607
 21
6.721025384335139
 31
0.0
  0
LINE
  5
CA
330
74
100
AcDbEntity
  8
0
  6
Continuous
 62
     7
370
    18
100
AcDbLine
 10
33.39651110976344
 20
8.106246129126527
 30
0.0
 11
33.98076111084439
 21
8.106246129126527
 31
0.0
  0
LINE
  5
CB
330
74
100
AcDbEntity
  8
0
  6
Continuous
 62
     7
370
    18
100
AcDbLine
 10
30.27958333982061
 20
6.721025384335139
 30
0.0
 11
29.62856947702176
 21
6.721025384335139
 31
0.0
  0
LINE
  5
CC
330
74
100
AcDbEntity
  8
0
  6
Continuous
 62
     7
370
    18
100
AcDbLine
 10
29.62856947702176
 20
6.721025384335139
 30
0.0
 11
31.89102499447113
 21
12.10812113522533
 31
0.0
  0
LINE
  5
CD
330
74
100
AcDbEntity
  8
0
  6
Continuous
 62
     7
370
    18
100
AcDbLine
 10
30.27958333982061
 20
6.721025384335139
 30
0.0
 11
32.10081610446782
 21
11.09821748782089
 31
0.0
  0
HATCH
  5
CE
330
74
100
AcDbEntity
  8
0
  6
Continuous
 62
     7
100
AcDbHatch
 10
0.0
 20
0.0
 30
0.0
210
0.0
220
0.0
230
1.0
  2
SOLID
 70
     1
 71
     0
 91
        1
 92
        0
 93
        6
 72
     3
 10
22.23890849094504
 20
9.527314184731793
 11
21.66389220148704
 21
0.0
 40
0.4195621611426649
 50
0.0
 51
268.7838326447011
 73
     0
 72
     2
 10
22.70488261619369
 20
-71.45529214739321
 40
90.07400542188047
 50
269.5808548839851
 51
272.7447188255457
 73
     0
 72
     2
 10
20.8694231701527
 20
-38.41954231965738
 40
57.26598100181017
 50
83.83616935229334
 51
88.8227726300255
 73
     1
 72
     3
 10
22.04595550062599
 20
9.417175724946823
 11
22.04595550062599
 21
0.0
 40
0.4271611509276351
 50
90.0
 51
360.2862587665418
 73
     1
 72
     2
 10
38.06726489176472
 20
8.801959252665274
 40
6.066657612951499
 50
6.866950742808937
 51
54.39564514541159
 73
     1
 72
     2
 10
37.85141101012569
 20
8.948164772188376
 40
6.079040313172288
 50
308.0614870922973
 51
354.5331470197357
 73
     0
 97
        0
 75
     0
 76
     1
 98
        1
 10
0.0
 20
0.0
  0
HATCH
  5
CF
330
74
100
AcDbEntity
  8
0
  6
Continuous
 62
     7
100
AcDbHatch
 10
0.0
 20
0.0
 30
0.0
210
0.0
220
0.0
230
1.0
  2
SOLID
 70
     1
 71
     0
 91
        2
 92
        0
 93
       10
 72
     2
 10
13.50678230675062
 20
9.554874380247934
 40
2.556983865548986
 50
359.3824311982546
 51
450.0000000000008
 73
     1
 72
     1
 10
13.50678230675062
 20
12.11185824579691
 11
13.44016604927931
 21
12.11185824579691
 72
     1
 10
13.44016604927931
 20
12.11185824579691
 11
13.37354979180802
 21
12.11185824579691
 72
     2
 10
13.37354979180802
 20
9.554874380247934
 40
2.556983865548971
 50
90.0
 51
180.6175688017436
 73
     1
 72
     2
 10
13.98921333481709
 20
9.486325535445012
 40
3.172763652226523
 50
179.2597803679926
 51
216.2696450904569
 73
     1
 72
     2
 10
13.32488376744551
 20
9.180868757958482
 40
2.460828129183388
 50
219.688149110216
 51
269.4792649485132
 73
     1
 72
     1
 10
13.30251873755975
 20
6.720142262222229
 11
13.44016604927931
 21
6.720142262222229
 72
     1
 10
13.44016604927931
 20
6.720142262222229
 11
13.57781336100097
 21
6.720142262222227
 72
     2
 10
13.55544833111311
 20
9.180868757958482
 40
2.46082812918341
 50
270.5207350515375
 51
320.3118508897865
 73
     1
 72
     2
 10
12.89111876374158
 20
9.486325535445067
 40
3.172763652226527
 50
323.730354909544
 51
360.7402196320045
 73
     1
 97
        0
 92
        0
 93
        8
 72
     2
 10
12.67598455235219
 20
9.416907791220536
 40
2.721420920128593
 50
357.6749069313887
 51
388.8931530518201
 73
     0
 72
     2
 10
13.47831568387484
 20
9.27978645949626
 40
1.970961030782171
 50
36.6968405364094
 51
91.10907802165805
 73
     0
 72
     2
 10
13.40201641468378
 20
9.27978645949626
 40
1.970961030782162
 50
88.89092197834036
 51
143.3031594635947
 73
     0
 72
     2
 10
14.20434754620684
 20
9.416907791219867
 40
2.721420920128621
 50
151.1068469482003
 51
182.3250930686284
 73
     0
 72
     2
 10
13.59052619047161
 20
9.572860087688925
 40
2.105851678846165
 50
178.7606954775337
 51
222.0047532782973
 73
     0
 72
     2
 10
13.40815212945627
 20
9.468122155346377
 40
2.050187352658339
 50
227.5994101321587
 51
270.8947167873762
 73
     0
 72
     2
 10
13.47217996910255
 20
9.468122155346482
 40
2.050187352658282
 50
269.1052832126313
 51
312.4005898678502
 73
     0
 72
     2
 10
13.28980590808745
 20
9.572860087688845
 40
2.105851678846137
 50
317.9952467217032
 51
361.2393045224668
 73
     0
 97
        0
 75
     0
 76
     1
 98
        1
 10
0.0
 20
0.0
  0
HATCH
  5
D0
330
74
100
AcDbEntity
  8
0
  6
Continuous
 62
     7
100
AcDbHatch
 10
0.0
 20
0.0
 30
0.0
210
0.0
220
0.0
230
1.0
  2
SOLID
 70
     1
 71
     0
 91
        1
 92
        0
 93
       13
 72
     2
 10
9.698139632116881
 20
9.416907791220453
 40
2.721420920128592
 50
177.6749069313867
 51
208.8931530518081
 73
     1
 72
     2
 10
8.894619219416366
 20
9.278334540996164
 40
1.969139868309642
 50
216.6836460145909
 51
272.6640485798765
 73
     1
 72
     1
 10
8.986144185552297
 20
7.31132284770597
 11
10.42592658602019
 21
7.311322847705977
 72
     1
 10
10.42592658602019
 20
7.311322847705977
 11
10.42592658602019
 21
6.720142262222148
 72
     1
 10
10.42592658602019
 20
6.720142262222148
 11
8.796310823468248
 21
6.720142262222175
 72
     2
 10
8.818675853355968
 20
9.180868757958482
 40
2.46082812918346
 50
90.52073505153331
 51
140.3118508897912
 73
     0
 72
     2
 10
9.483005420727498
 20
9.48632553544504
 40
3.172763652226537
 50
143.7303549095478
 51
180.740219632004
 73
     0
 72
     2
 10
8.867341877718427
 20
9.554874380247934
 40
2.556983865548963
 50
179.3824311982526
 51
272.4793039352954
 73
     0
 72
     1
 10
8.977953199686556
 20
12.10946468480367
 11
10.14384176266664
 21
12.11203839351938
 72
     1
 10
10.14384176266664
 20
12.11203839351938
 11
10.14384176266664
 21
11.51661135658194
 72
     1
 10
10.14384176266664
 20
11.51661135658194
 11
8.97792704112413
 21
11.51661135658194
 72
     2
 10
8.900918027992782
 20
9.469811944332884
 40
2.048247597847131
 50
87.84531341852427
 51
132.4112659358824
 73
     1
 72
     2
 10
9.08431827638162
 20
9.572860087688928
 40
2.105851678846166
 50
137.9952467217038
 51
181.2393045224698
 73
     1
 97
        0
 75
     0
 76
     1
 98
        1
 10
0.0
 20
0.0
  0
HATCH
  5
D1
330
74
100
AcDbEntity
  8
0
  6
Continuous
 62
     7
100
AcDbHatch
 10
0.0
 20
0.0
 30
0.0
210
0.0
220
0.0
230
1.0
  2
SOLID
 70
     1
 71
     0
 91
        1
 92
        0
 93
        6
 72
     1
 10
16.73691717081566
 20
12.10952060876419
 11
17.32806434817299
 21
12.10952060876419
 72
     1
 10
17.32806434817299
 20
12.10952060876419
 11
17.32806434817299
 21
7.313289507902998
 72
     1
 10
17.32806434817299
 20
7.313289507902998
 11
19.58753117645801
 21
7.313289507902998
 72
     1
 10
19.58753117645801
 20
7.313289507902998
 11
19.58753117645801
 21
6.719579641035617
 72
     1
 10
19.58753117645801
 20
6.719579641035617
 11
16.73691717081566
 21
6.719579641035617
 72
     1
 10
16.73691717081566
 20
6.719579641035617
 11
16.73691717081566
 21
12.10952060876419
 97
        0
 75
     0
 76
     1
 98
        1
 10
0.0
 20
0.0
  0
HATCH
  5
D2
330
74
100
AcDbEntity
  8
0
  6
Continuous
 62
     7
100
AcDbHatch
 10
0.0
 20
0.0
 30
0.0
210
0.0
220
0.0
230
1.0
  2
SOLID
 70
     1
 71
     0
 91
        1
 92
        0
 93
       13
 72
     2
 10
23.15078019414043
 20
9.486325535445095
 40
3.172763652226538
 50
179.259780367954
 51
216.2696450904577
 73
     1
 72
     2
 10
22.48645062676891
 20
9.180868757958482
 40
2.46082812918341
 50
219.6881491102147
 51
269.479264948464
 73
     1
 72
     1
 10
22.46408559688104
 20
6.720142262222229
 11
24.09370135943298
 21
6.720142262222229
 72
     1
 10
24.09370135943298
 20
6.720142262222229
 11
24.09370135943298
 21
7.31132284770597
 72
     1
 10
24.09370135943298
 20
7.31132284770597
 11
22.65391895896493
 21
7.311322847706057
 72
     2
 10
22.56239399282928
 20
9.278334540996191
 40
1.969139868309576
 50
87.33595142013252
 51
143.3163539853954
 73
     0
 72
     2
 10
23.36591440552982
 20
9.41690779122048
 40
2.72142092012856
 50
151.1068469481826
 51
182.3250930686136
 73
     0
 72
     2
 10
22.75209304979456
 20
9.572860087688928
 40
2.105851678846159
 50
178.760695477531
 51
222.0047532782974
 73
     0
 72
     2
 10
22.56869280140572
 20
9.469811944332884
 40
2.048247597847132
 50
227.588734064119
 51
272.1546865814765
 73
     0
 72
     1
 10
22.64570181453707
 20
11.51661135658194
 11
23.81161653607958
 21
11.51661135658194
 72
     1
 10
23.81161653607958
 20
11.51661135658194
 11
23.81161653607958
 21
12.11203839351938
 72
     1
 10
23.81161653607958
 20
12.11203839351938
 11
22.64572797309949
 21
12.10946468480369
 72
     2
 10
22.53511665113139
 20
9.554874380247963
 40
2.55698386554895
 50
87.52069606470603
 51
180.6175688016945
 73
     1
 97
        0
 75
     0
 76
     1
 98
        1
 10
0.0
 20
0.0
  0
HATCH
  5
D3
330
74
100
AcDbEntity
  8
0
  6
Continuous
 62
     7
100
AcDbHatch
 10
0.0
 20
0.0
 30
0.0
210
0.0
220
0.0
230
1.0
  2
SOLID
 70
     1
 71
     0
 91
        2
 92
        0
 93
       10
 72
     2
 10
27.17419766141738
 20
9.554874380247934
 40
2.556983865548978
 50
359.3824311982546
 51
450.0000000000008
 73
     1
 72
     1
 10
27.17419766141738
 20
12.11185824579691
 11
27.10758140394609
 21
12.11185824579691
 72
     1
 10
27.10758140394609
 20
12.11185824579691
 11
27.04096514647475
 21
12.1118582457969
 72
     2
 10
27.04096514647475
 20
9.554874380247934
 40
2.556983865548965
 50
90.0
 51
180.6175688017483
 73
     1
 72
     2
 10
27.65662868948382
 20
9.48632553544504
 40
3.172763652226513
 50
179.2597803679969
 51
216.2696450904569
 73
     1
 72
     2
 10
26.99229912211229
 20
9.180868757958482
 40
2.460828129183413
 50
219.6881491102147
 51
269.4792649484489
 73
     1
 72
     1
 10
26.96993409222377
 20
6.720142262222229
 11
27.10758140394606
 21
6.720142262222229
 72
     1
 10
27.10758140394606
 20
6.720142262222229
 11
27.24522871566773
 21
6.720142262222227
 72
     2
 10
27.22286368577986
 20
9.180868757958482
 40
2.46082812918341
 50
270.5207350515375
 51
320.3118508897865
 73
     1
 72
     2
 10
26.55853411840831
 20
9.48632553544504
 40
3.172763652226537
 50
323.7303549095446
 51
360.7402196320049
 73
     1
 97
        0
 92
        0
 93
        8
 72
     2
 10
26.34339990701898
 20
9.416907791220536
 40
2.721420920128623
 50
357.6749069313887
 51
388.8931530518118
 73
     0
 72
     2
 10
27.14573103854162
 20
9.27978645949626
 40
1.970961030782147
 50
36.69684053639779
 51
91.10907802165963
 73
     0
 72
     2
 10
27.06943176935053
 20
9.27978645949626
 40
1.970961030782134
 50
88.89092197834113
 51
143.3031594635951
 73
     0
 72
     2
 10
27.87176290087405
 20
9.41690779121889
 40
2.721420920128556
 50
151.1068469482233
 51
182.3250930686561
 73
     0
 72
     2
 10
27.25794154513891
 20
9.572860087689147
 40
2.105851678846165
 50
178.7606954775368
 51
222.0047532782968
 73
     0
 72
     2
 10
27.07556748412349
 20
9.468122155346467
 40
2.050187352658364
 50
227.5994101321623
 51
270.8947167873769
 73
     0
 72
     2
 10
27.13959532376933
 20
9.468122155346482
 40
2.05018735265834
 50
269.1052832126441
 51
312.4005898678537
 73
     0
 72
     2
 10
26.95722126275424
 20
9.572860087688845
 40
2.105851678846169
 50
317.9952467217066
 51
361.2393045224668
 73
     0
 97
        0
 75
     0
 76
     1
 98
        1
 10
0.0
 20
0.0
  0
HATCH
  5
D4
330
74
100
AcDbEntity
  8
0
  6
Continuous
 62
     7
100
AcDbHatch
 10
0.0
 20
0.0
 30
0.0
210
0.0
220
0.0
230
1.0
  2
SOLID
 70
     1
 71
     0
 91
        1
 92
        0
 93
       13
 72
     1
 10
30.27958333982061
 20
6.721025384335139
 11
32.10081610446782
 21
11.09821748782089
 72
     1
 10
32.10081610446782
 20
11.09821748782089
 11
33.39651110976344
 21
8.106246129126527
 72
     1
 10
33.39651110976344
 20
8.106246129126527
 11
33.98076111084439
 21
8.106246129126527
 72
     1
 10
33.98076111084439
 20
8.106246129126527
 11
35.27645611614
 21
11.09821748782089
 72
     1
 10
35.27645611614
 20
11.09821748782089
 11
37.09768888078724
 21
6.721025384335139
 72
     1
 10
37.09768888078724
 20
6.721025384335139
 11
37.74870274358607
 21
6.721025384335139
 72
     1
 10
37.74870274358607
 20
6.721025384335139
 11
35.48624722613669
 21
12.10812113522533
 72
     1
 10
35.48624722613669
 20
12.10812113522533
 11
35.04396939059254
 21
12.10812113522533
 72
     1
 10
35.04396939059254
 20
12.10812113522533
 11
33.68863611030392
 21
8.963621131817812
 72
     1
 10
33.68863611030392
 20
8.963621131817812
 11
32.33330283001531
 21
12.10812113522533
 72
     1
 10
32.33330283001531
 20
12.10812113522533
 11
31.89102499447113
 21
12.10812113522533
 72
     1
 10
31.89102499447113
 20
12.10812113522533
 11
29.62856947702176
 21
6.721025384335139
 72
     1
 10
29.62856947702176
 20
6.721025384335139
 11
30.27958333982061
 21
6.721025384335139
 97
        0
 75
     0
 76
     1
 98
        1
 10
0.0
 20
0.0
  0
ENDBLK
  5
76
330
74
100
AcDbEntity
  8
0
100
AcDbBlockEnd
  0
BLOCK
  5
D6
330
D5
100
AcDbEntity
  8
0
100
AcDbBlockBegin
  2
Blocco6
 70
     0
 10
0.0
 20
0.0
 30
0.0
  3
Blocco6
  1

  0
LINE
  5
D8
330
D5
100
AcDbEntity
  8
0
  6
Continuous
 62
     7
370
    18
100
AcDbLine
 10
523.4967794611654
 20
90.67874246244916
 30
0.0
 11
523.4967794611654
 21
69.24239557607609
 31
0.0
  0
LINE
  5
D9
330
D5
100
AcDbEntity
  8
0
  6
Continuous
 62
     7
370
    18
100
AcDbLine
 10
435.5773598894917
 20
90.67874246244916
 30
0.0
 11
551.4967794611654
 21
90.67874246244916
 31
0.0
  0
LINE
  5
DA
330
D5
100
AcDbEntity
  8
0
  6
Continuous
 62
     7
370
    18
100
AcDbLine
 10
509.4967794611653
 20
90.67874246244916
 30
0.0
 11
509.4967794611653
 21
69.24239557607609
 31
0.0
  0
LINE
  5
DB
330
D5
100
AcDbEntity
  8
0
  6
Continuous
 62
     7
370
    18
100
AcDbLine
 10
495.4967794611653
 20
90.67874246244916
 30
0.0
 11
495.4967794611653
 21
69.24239557607609
 31
0.0
  0
LINE
  5
DC
330
D5
100
AcDbEntity
  8
0
  6
Continuous
 62
     7
370
    18
100
AcDbLine
 10
481.4967794611653
 20
90.67874246244916
 30
0.0
 11
481.4967794611653
 21
69.24634303783195
 31
0.0
  0
LINE
  5
DD
330
D5
100
AcDbEntity
  8
0
  6
Continuous
 62
     7
370
    18
100
AcDbLine
 10
450.7869570026112
 20
82.58614366551528
 30
0.0
 11
450.7869570026112
 21
69.24239557607609
 31
0.0
  0
LINE
  5
DE
330
D5
100
AcDbEntity
  8
0
  6
Continuous
 62
     7
370
    18
100
AcDbLine
 10
435.5773598894917
 20
75.4400283057779
 30
0.0
 11
551.4967794611654
 21
75.4400283057779
 31
0.0
  0
LINE
  5
DF
330
D5
100
AcDbEntity
  8
0
  6
Continuous
 62
     7
370
    18
100
AcDbLine
 10
537.4967794611654
 20
90.67823128373853
 30
0.0
 11
537.4967794611654
 21
69.24239557607609
 31
0.0
  0
LINE
  5
E0
330
D5
100
AcDbEntity
  8
0
  6
Continuous
 62
     7
370
    18
100
AcDbLine
 10
435.5773598894917
 20
95.25676320269505
 30
0.0
 11
551.4967794611654
 21
95.25676320269505
 31
0.0
  0
LINE
  5
E1
330
D5
100
AcDbEntity
  8
0
  6
Continuous
 62
     7
370
    18
100
AcDbLine
 10
435.5773598894917
 20
95.25676320269505
 30
0.0
 11
435.5773598894917
 21
69.24239557607609
 31
0.0
  0
LINE
  5
E2
330
D5
100
AcDbEntity
  8
0
  6
Continuous
 62
     7
370
    18
100
AcDbLine
 10
435.5773598894917
 20
69.24239557607609
 30
0.0
 11
551.4967794611654
 21
69.24239557607609
 31
0.0
  0
LINE
  5
E3
330
D5
100
AcDbEntity
  8
0
  6
Continuous
 62
     7
370
    18
100
AcDbLine
 10
551.4967794611654
 20
95.25676320269505
 30
0.0
 11
551.4967794611654
 21
69.24239557607609
 31
0.0
  0
LINE
  5
E4
330
D5
100
AcDbEntity
  8
0
  6
Continuous
 62
     7
370
    18
100
AcDbLine
 10
594.6556576459714
 20
90.67863833572761
 30
0.0
 11
594.6556576459714
 21
69.24229144935454
 31
0.0
  0
LINE
  5
E5
330
D5
100
AcDbEntity
  8
0
  6
Continuous
 62
     7
370
    18
100
AcDbLine
 10
552.6556576459712
 20
90.67863833572761
 30
0.0
 11
608.6556576459714
 21
90.67863833572761
 31
0.0
  0
LINE
  5
E6
330
D5
100
AcDbEntity
  8
0
  6
Continuous
 62
     7
370
    18
100
AcDbLine
 10
580.6556576459714
 20
90.67863833572761
 30
0.0
 11
580.6556576459714
 21
69.24229144935454
 31
0.0
  0
LINE
  5
E7
330
D5
100
AcDbEntity
  8
0
  6
Continuous
 62
     7
370
    18
100
AcDbLine
 10
566.6556576459712
 20
90.67863833572761
 30
0.0
 11
566.6556576459712
 21
69.24229144935454
 31
0.0
  0
LINE
  5
E8
330
D5
100
AcDbEntity
  8
0
  6
Continuous
 62
     7
370
    18
100
AcDbLine
 10
552.6556576459712
 20
75.43992417905635
 30
0.0
 11
608.6556576459714
 21
75.43992417905635
 31
0.0
  0
LINE
  5
E9
330
D5
100
AcDbEntity
  8
0
  6
Continuous
 62
     7
370
    18
100
AcDbLine
 10
552.6556576459712
 20
95.2566590759735
 30
0.0
 11
608.6556576459714
 21
95.25665907597353
 31
0.0
  0
LINE
  5
EA
330
D5
100
AcDbEntity
  8
0
  6
Continuous
 62
     7
370
    18
100
AcDbLine
 10
552.6556576459712
 20
95.2566590759735
 30
0.0
 11
552.6556576459712
 21
69.24229144935454
 31
0.0
  0
LINE
  5
EB
330
D5
100
AcDbEntity
  8
0
  6
Continuous
 62
     7
370
    18
100
AcDbLine
 10
552.6556576459712
 20
69.24229144935454
 30
0.0
 11
608.6556576459714
 21
69.24229144935454
 31
0.0
  0
LINE
  5
EC
330
D5
100
AcDbEntity
  8
0
  6
Continuous
 62
     7
370
    18
100
AcDbLine
 10
608.6556576459714
 20
95.25665907597353
 30
0.0
 11
608.6556576459714
 21
69.24229144935454
 31
0.0
  0
MTEXT
  5
EE
330
D5
100
AcDbEntity
  8
0
  6
Continuous
 62
     7
370
     0
100
AcDbMText
 10
553.5151973008692
 20
89.51978669160175
 30
0.0
 40
3.704166666666666
 41
0.0
 71
     1
 72
     1
  1
fino
  7
SLDTEXTSTYLE0
 73
     1
 44
1.0
  0
MTEXT
  5
F0
330
D5
100
AcDbEntity
  8
0
  6
Continuous
 62
     7
370
     0
100
AcDbMText
 10
567.9750926633561
 20
74.35945679160334
 30
0.0
 40
3.174999999999999
 41
0.0
 71
     1
 72
     1
  1
±0°30'
  7
SLDTEXTSTYLE1
 73
     1
 44
1.0
  0
MTEXT
  5
F1
330
D5
100
AcDbEntity
  8
0
  6
Continuous
 62
     7
370
     0
100
AcDbMText
 10
553.5151973008692
 20
82.03859005213333
 30
0.0
 40
3.704166666666666
 41
0.0
 71
     1
 72
     1
  1
a 10
  7
SLDTEXTSTYLE0
 73
     1
 44
1.0
  0
MTEXT
  5
F2
330
D5
100
AcDbEntity
  8
0
  6
Continuous
 62
     7
370
     0
100
AcDbMText
 10
557.7072111652376
 20
74.35945679160331
 30
0.0
 40
3.174999999999999
 41
0.0
 71
     1
 72
     1
  1
±1°
  7
SLDTEXTSTYLE1
 73
     1
 44
1.0
  0
MTEXT
  5
F3
330
D5
100
AcDbEntity
  8
0
  6
Continuous
 62
     7
370
     0
100
AcDbMText
 10
581.8925385263221
 20
81.97344785600332
 30
0.0
 40
3.704166666666666
 41
0.0
 71
     1
 72
     1
  1
a 120
  7
SLDTEXTSTYLE0
 73
     1
 44
1.0
  0
MTEXT
  5
F4
330
D5
100
AcDbEntity
  8
0
  6
Continuous
 62
     7
370
     0
100
AcDbMText
 10
581.8925385263221
 20
89.51978669160174
 30
0.0
 40
3.704166666666666
 41
0.0
 71
     1
 72
     1
  1
> 50
  7
SLDTEXTSTYLE0
 73
     1
 44
1.0
  0
MTEXT
  5
F5
330
D5
100
AcDbEntity
  8
0
  6
Continuous
 62
     7
370
     0
100
AcDbMText
 10
581.892538526322
 20
74.35945679160331
 30
0.0
 40
3.174999999999999
 41
0.0
 71
     1
 72
     1
  1
±0°20'
  7
SLDTEXTSTYLE1
 73
     1
 44
1.0
  0
MTEXT
  5
F6
330
D5
100
AcDbEntity
  8
0
  6
Continuous
 62
     7
370
     0
100
AcDbMText
 10
595.9517174418103
 20
74.35945679160331
 30
0.0
 40
3.174999999999999
 41
0.0
 71
     1
 72
     1
  1
±0°10'
  7
SLDTEXTSTYLE1
 73
     1
 44
1.0
  0
MTEXT
  5
F7
330
D5
100
AcDbEntity
  8
0
  6
Continuous
 62
     7
370
     0
100
AcDbMText
 10
554.5673997527016
 20
94.74244623524247
 30
0.0
 40
2.645833333333333
 41
0.0
 71
     1
 72
     1
  1
Dim. Angolari UNI EN 22768-mK
  7
SLDTEXTSTYLE0
 73
     1
 44
1.0
  0
MTEXT
  5
F8
330
D5
100
AcDbEntity
  8
0
  6
Continuous
 62
     7
370
     0
100
AcDbMText
 10
595.3441561217438
 20
89.5197866916017
 30
0.0
 40
3.704166666666666
 41
0.0
 71
     1
 72
     1
  1
> 120
  7
SLDTEXTSTYLE0
 73
     1
 44
1.0
  0
MTEXT
  5
F9
330
D5
100
AcDbEntity
  8
0
  6
Continuous
 62
     7
370
     0
100
AcDbMText
 10
567.4632664080921
 20
89.51978669160175
 30
0.0
 40
3.704166666666666
 41
0.0
 71
     1
 72
     1
  1
> 10
  7
SLDTEXTSTYLE0
 73
     1
 44
1.0
  0
MTEXT
  5
FA
330
D5
100
AcDbEntity
  8
0
  6
Continuous
 62
     7
370
     0
100
AcDbMText
 10
567.6004576739133
 20
82.03859005213333
 30
0.0
 40
3.704166666666666
 41
0.0
 71
     1
 72
     1
  1
a 50
  7
SLDTEXTSTYLE0
 73
     1
 44
1.0
  0
MTEXT
  5
FB
330
D5
100
AcDbEntity
  8
0
  6
Continuous
 62
     7
370
     0
100
AcDbMText
 10
524.916055884727
 20
89.51186840074439
 30
0.0
 40
3.704166666666666
 41
0.0
 71
     1
 72
     1
  1
> 30
  7
SLDTEXTSTYLE0
 73
     1
 44
1.0
  0
MTEXT
  5
FC
330
D5
100
AcDbEntity
  8
0
  6
Continuous
 62
     7
370
     0
100
AcDbMText
 10
524.9160558847269
 20
82.12936809134449
 30
0.0
 40
3.704166666666666
 41
0.0
 71
     1
 72
     1
  1
a 120
  7
SLDTEXTSTYLE0
 73
     1
 44
1.0
  0
MTEXT
  5
FD
330
D5
100
AcDbEntity
  8
0
  6
Continuous
 62
     7
370
     0
100
AcDbMText
 10
453.2744593048945
 20
94.2510598082067
 30
0.0
 40
2.645833333333333
 41
0.0
 71
     1
 72
     1
  1
Tolleranze generali Norma UNI EN 22768-mK
  7
SLDTEXTSTYLE0
 73
     1
 44
1.0
  0
MTEXT
  5
FF
330
D5
100
AcDbEntity
  8
0
  6
Continuous
 62
     7
370
     0
100
AcDbMText
 10
525.3021514905176
 20
74.35945679160331
 30
0.0
 40
3.174999999999999
 41
0.0
 71
     1
 72
     1
  1
± 0.3
  7
SLDTEXTSTYLE2
 73
     1
 44
1.0
  0
MTEXT
  5
100
330
D5
100
AcDbEntity
  8
0
  6
Continuous
 62
     7
370
     0
100
AcDbMText
 10
540.0395485234498
 20
74.35945679160331
 30
0.0
 40
3.174999999999999
 41
0.0
 71
     1
 72
     1
  1
± 0.5
  7
SLDTEXTSTYLE2
 73
     1
 44
1.0
  0
MTEXT
  5
101
330
D5
100
AcDbEntity
  8
0
  6
Continuous
 62
     7
370
     0
100
AcDbMText
 10
538.5431827639281
 20
81.78084363803039
 30
0.0
 40
3.704166666666666
 41
0.0
 71
     1
 72
     1
  1
a 400
  7
SLDTEXTSTYLE0
 73
     1
 44
1.0
  0
MTEXT
  5
102
330
D5
100
AcDbEntity
  8
0
  6
Continuous
 62
     7
370
     0
100
AcDbMText
 10
538.4745871310175
 20
89.16334394743026
 30
0.0
 40
3.704166666666666
 41
0.0
 71
     1
 72
     1
  1
> 120
  7
SLDTEXTSTYLE0
 73
     1
 44
1.0
  0
MTEXT
  5
103
330
D5
100
AcDbEntity
  8
0
  6
Continuous
 62
     7
370
     0
100
AcDbMText
 10
511.5973570956728
 20
74.35945679160331
 30
0.0
 40
3.174999999999999
 41
0.0
 71
     1
 72
     1
  1
± 0.2
  7
SLDTEXTSTYLE2
 73
     1
 44
1.0
  0
MTEXT
  5
105
330
D5
100
AcDbEntity
  8
0
  6
Continuous
 62
     7
370
     0
100
AcDbMText
 10
511.4043092927777
 20
89.0471691296589
 30
0.0
 40
3.704166666666666
 41
0.0
 71
     1
 72
     1
  1
> 6
  7
SLDTEXTSTYLE3
 73
     1
 44
1.0
  0
MTEXT
  5
106
330
D5
100
AcDbEntity
  8
0
  6
Continuous
 62
     7
370
     0
100
AcDbMText
 10
511.4729049256882
 20
81.66466882025898
 30
0.0
 40
3.704166666666666
 41
0.0
 71
     1
 72
     1
  1
a 30
  7
SLDTEXTSTYLE0
 73
     1
 44
1.0
  0
MTEXT
  5
107
330
D5
100
AcDbEntity
  8
0
  6
Continuous
 62
     7
370
     0
100
AcDbMText
 10
484.5235848610801
 20
74.35945679160331
 30
0.0
 40
3.174999999999999
 41
0.0
 71
     1
 72
     1
  1
± 0.1
  7
SLDTEXTSTYLE2
 73
     1
 44
1.0
  0
MTEXT
  5
108
330
D5
100
AcDbEntity
  8
0
  6
Continuous
 62
     7
370
     0
100
AcDbMText
 10
484.5235848610802
 20
81.92251936108349
 30
0.0
 40
3.704166666666666
 41
0.0
 71
     1
 72
     1
  1
a 3
  7
SLDTEXTSTYLE3
 73
     1
 44
1.0
  0
MTEXT
  5
109
330
D5
100
AcDbEntity
  8
0
  6
Continuous
 62
     7
370
     0
100
AcDbMText
 10
484.5235848610802
 20
89.40371600055192
 30
0.0
 40
3.704166666666666
 41
0.0
 71
     1
 72
     1
  1
fino
  7
SLDTEXTSTYLE0
 73
     1
 44
1.0
  0
MTEXT
  5
10A
330
D5
100
AcDbEntity
  8
0
  6
Continuous
 62
     7
370
     0
100
AcDbMText
 10
437.8750651008984
 20
74.35945679160331
 30
0.0
 40
3.174999999999999
 41
0.0
 71
     1
 72
     1
  1
m
  7
SLDTEXTSTYLE1
 73
     1
 44
1.0
  0
MTEXT
  5
10B
330
D5
100
AcDbEntity
  8
0
  6
Continuous
 62
     7
370
     0
100
AcDbMText
 10
437.9637270296868
 20
81.78825985092185
 30
0.0
 40
3.704166666666666
 41
0.0
 71
     1
 72
     1
  1
Des.
  7
SLDTEXTSTYLE0
 73
     1
 44
1.0
  0
MTEXT
  5
10C
330
D5
100
AcDbEntity
  8
0
  6
Continuous
 62
     7
370
     0
100
AcDbMText
 10
437.8951313967761
 20
89.26945649039033
 30
0.0
 40
3.704166666666666
 41
0.0
 71
     1
 72
     1
  1
Classe di tolleranza
  7
SLDTEXTSTYLE0
 73
     1
 44
1.0
  0
MTEXT
  5
10D
330
D5
100
AcDbEntity
  8
0
  6
Continuous
 62
     7
370
     0
100
AcDbMText
 10
452.7549120659885
 20
74.35945679160331
 30
0.0
 40
3.174999999999999
 41
0.0
 71
     1
 72
     1
  1
media
  7
SLDTEXTSTYLE1
 73
     1
 44
1.0
  0
MTEXT
  5
10E
330
D5
100
AcDbEntity
  8
0
  6
Continuous
 62
     7
370
     0
100
AcDbMText
 10
453.2744593048945
 20
81.61192754277306
 30
0.0
 40
3.704166666666666
 41
0.0
 71
     1
 72
     1
  1
Denom.
  7
SLDTEXTSTYLE0
 73
     1
 44
1.0
  0
MTEXT
  5
10F
330
D5
100
AcDbEntity
  8
0
  6
Continuous
 62
     7
370
     0
100
AcDbMText
 10
496.2643324306467
 20
89.5198908183233
 30
0.0
 40
3.704166666666666
 41
0.0
 71
     1
 72
     1
  1
> 3
  7
SLDTEXTSTYLE3
 73
     1
 44
1.0
  0
MTEXT
  5
110
330
D5
100
AcDbEntity
  8
0
  6
Continuous
 62
     7
370
     0
100
AcDbMText
 10
496.4015236964682
 20
82.03869417885488
 30
0.0
 40
3.704166666666666
 41
0.0
 71
     1
 72
     1
  1
a 6
  7
SLDTEXTSTYLE3
 73
     1
 44
1.0
  0
MTEXT
  5
111
330
D5
100
AcDbEntity
  8
0
  6
Continuous
 62
     7
370
     0
100
AcDbMText
 10
497.7624343981435
 20
74.35945679160331
 30
0.0
 40
3.174999999999999
 41
0.0
 71
     1
 72
     1
  1
± 0.1
  7
SLDTEXTSTYLE2
 73
     1
 44
1.0
  0
ENDBLK
  5
D7
330
D5
100
AcDbEntity
  8
0
100
AcDbBlockEnd
  0
BLOCK
  5
113
330
112
100
AcDbEntity
  8
0
100
AcDbBlockBegin
  2
Blocco7
 70
     2
 10
0.0
 20
0.0
 30
0.0
  3
Blocco7
  1

  0
CIRCLE
  5
115
330
112
100
AcDbEntity
  8
0
  6
Continuous
 62
     7
370
    18
100
AcDbCircle
 10
282.4414795679629
 20
188.9857640758488
 30
0.0
 40
1.240843537155461
  0
CIRCLE
  5
116
330
112
100
AcDbEntity
  8
0
  6
Continuous
 62
     7
370
    18
100
AcDbCircle
 10
282.4414795679629
 20
188.9857640758488
 30
0.0
 40
2.488642403242338
  0
LINE
  5
117
330
112
100
AcDbEntity
  8
0
  6
Continuous
 62
     7
370
    18
100
AcDbLine
 10
311.0507308126309
 20
194.3870775189074
 30
0.0
 11
391.5646227390826
 21
194.3870775189074
 31
0.0
  0
LINE
  5
118
330
112
100
AcDbEntity
  8
0
  6
Continuous
 62
     7
370
    18
100
AcDbLine
 10
311.0507308126309
 20
194.3870775189074
 30
0.0
 11
311.0507308126309
 21
183.8704356008489
 31
0.0
  0
LINE
  5
119
330
112
100
AcDbEntity
  8
0
  6
Continuous
 62
     7
370
    18
100
AcDbLine
 10
311.0507308126309
 20
183.8704356008489
 30
0.0
 11
391.5646227390826
 21
183.8704356008489
 31
0.0
  0
LINE
  5
11A
330
112
100
AcDbEntity
  8
0
  6
Continuous
 62
     7
370
    18
100
AcDbLine
 10
391.5646227390826
 20
194.3870775189074
 30
0.0
 11
391.5646227390826
 21
183.8704356008489
 31
0.0
  0
LINE
  5
11B
330
112
100
AcDbEntity
  8
0
  6
Continuous
 62
     7
370
    18
100
AcDbLine
 10
287.343718234717
 20
191.4744064790911
 30
0.0
 11
287.343718234717
 21
186.4971216726065
 31
0.0
  0
LINE
  5
11C
330
112
100
AcDbEntity
  8
0
  6
Continuous
 62
     7
370
    18
100
AcDbLine
 10
287.343718234717
 20
186.4971216726065
 30
0.0
 11
292.9437399931242
 21
187.7449205386933
 31
0.0
  0
LINE
  5
11D
330
112
100
AcDbEntity
  8
0
  6
Continuous
 62
     7
370
    18
100
AcDbLine
 10
292.9437399931242
 20
187.7449205386933
 30
0.0
 11
292.9437399931242
 21
190.2266076130043
 31
0.0
  0
LINE
  5
11E
330
112
100
AcDbEntity
  8
0
  6
Continuous
 62
     7
370
    18
100
AcDbLine
 10
292.9437399931242
 20
190.2266076130043
 30
0.0
 11
287.343718234717
 21
191.4744064790911
 31
0.0
  0
LINE
  5
11F
330
112
100
AcDbEntity
  8
0
  6
CENTER
 62
     7
370
    18
100
AcDbLine
 10
278.3459304655908
 20
188.9857640758488
 30
0.0
 11
294.3280150345282
 21
188.9857640758488
 31
0.0
  0
LINE
  5
120
330
112
100
AcDbEntity
  8
0
  6
CENTER
 62
     7
370
    18
100
AcDbLine
 10
282.4414795679629
 20
193.514473910757
 30
0.0
 11
282.4414795679629
 21
184.7998333091906
 31
0.0
  0
LINE
  5
121
330
112
100
AcDbEntity
  8
0
  6
Continuous
 62
     7
370
    18
100
AcDbLine
 10
275.6332062107958
 20
194.244085034878
 30
0.0
 11
275.6332062107958
 21
183.7274431168196
 31
0.0
  0
LINE
  5
122
330
112
100
AcDbEntity
  8
0
  6
Continuous
 62
     7
370
    18
100
AcDbLine
 10
231.2820798291685
 20
194.244085034878
 30
0.0
 11
271.9954304519778
 21
194.244085034878
 31
0.0
  0
LINE
  5
123
330
112
100
AcDbEntity
  8
0
  6
Continuous
 62
     7
370
    18
100
AcDbLine
 10
231.2820798291685
 20
194.244085034878
 30
0.0
 11
231.2820798291685
 21
183.7274431168196
 31
0.0
  0
LINE
  5
124
330
112
100
AcDbEntity
  8
0
  6
Continuous
 62
     7
370
    18
100
AcDbLine
 10
231.2820798291685
 20
183.7274431168196
 30
0.0
 11
271.9954304519778
 21
183.7274431168196
 31
0.0
  0
LINE
  5
125
330
112
100
AcDbEntity
  8
0
  6
Continuous
 62
     7
370
    18
100
AcDbLine
 10
271.9954304519778
 20
194.244085034878
 30
0.0
 11
271.9954304519778
 21
183.7274431168196
 31
0.0
  0
LINE
  5
126
330
112
100
AcDbEntity
  8
0
  6
Continuous
 62
     7
370
    18
100
AcDbLine
 10
309.6737697278768
 20
194.244085034878
 30
0.0
 11
309.6737697278768
 21
183.7274431168196
 31
0.0
  0
LINE
  5
127
330
112
100
AcDbEntity
  8
0
  6
Continuous
 62
     7
370
    18
100
AcDbLine
 10
275.6332062107958
 20
183.7274431168196
 30
0.0
 11
309.6737697278768
 21
183.7274431168196
 31
0.0
  0
LINE
  5
128
330
112
100
AcDbEntity
  8
0
  6
Continuous
 62
     7
370
    18
100
AcDbLine
 10
275.6332062107958
 20
194.244085034878
 30
0.0
 11
309.6737697278768
 21
194.244085034878
 31
0.0
  0
MTEXT
  5
129
330
112
100
AcDbEntity
  8
0
  6
Continuous
 62
     7
370
     0
100
AcDbMText
 10
300.7293005721111
 20
190.1867301769981
 30
0.0
 40
3.704166666666666
 41
0.0
 71
     1
 72
     1
  1
A4
  7
SLDTEXTSTYLE2
 73
     1
 44
1.0
  0
MTEXT
  5
12A
330
112
100
AcDbEntity
  8
0
  6
Continuous
 62
     7
370
     0
100
AcDbMText
 10
232.7354403506803
 20
190.7476815455834
 30
0.0
 40
4.233333333333333
 41
0.0
 71
     1
 72
     1
  1
SCALA
  7
SLDTEXTSTYLE0
 73
     1
 44
1.0
  0
MTEXT
  5
12B
330
112
100
AcDbEntity
  8
0
  6
Continuous
 62
     7
370
     0
100
AcDbMText
 10
312.1574469551867
 20
191.2324448962265
 30
0.0
 40
3.704166666666666
 41
0.0
 71
     1
 72
     1
  1
Tolleranze non valide per assiemi
  7
SLDTEXTSTYLE0
 73
     1
 44
1.0
  0
ATTDEF
  5
12C
330
112
100
AcDbEntity
  8
0
  6
Continuous
 62
     7
370
     0
100
AcDbText
 10
256.3376091732449
 20
186.8230984478695
 30
0.0
 40
4.762499999999999
  1
1:2
 41
0.605
  7
SLDTEXTSTYLE0
 11
256.3376091732449
 21
185.1406974029778
 31
0.0
100
AcDbAttributeDefinition
  3

  2
AUTOATTR0
 70
     0
 74
     1
  0
ENDBLK
  5
114
330
112
100
AcDbEntity
  8
0
100
AcDbBlockEnd
  0
BLOCK
  5
12E
330
12D
100
AcDbEntity
  8
0
100
AcDbBlockBegin
  2
Blocco8
 70
     0
 10
0.0
 20
0.0
 30
0.0
  3
Blocco8
  1

  0
LINE
  5
130
330
12D
100
AcDbEntity
  8
0
  6
Continuous
 62
     7
370
    18
100
AcDbLine
 10
753.5472003285508
 20
189.6753314205824
 30
0.0
 11
741.7183764069415
 21
169.7772322656272
 31
0.0
  0
LINE
  5
131
330
12D
100
AcDbEntity
  8
0
  6
Continuous
 62
     7
370
    18
100
AcDbLine
 10
741.7183764069415
 20
169.7772322656272
 30
0.0
 11
736.0332052198115
 21
179.7262818431048
 31
0.0
  0
LINE
  5
132
330
12D
100
AcDbEntity
  8
0
  6
Continuous
 62
     7
370
    18
100
AcDbLine
 10
736.0332052198115
 20
179.7262818431048
 30
0.0
 11
747.6327883677461
 21
179.7262818431048
 31
0.0
  0
MTEXT
  5
133
330
12D
100
AcDbEntity
  8
0
  6
Continuous
 62
     7
370
     0
100
AcDbMText
 10
736.7957961157286
 20
188.0578490745498
 30
0.0
 40
5.6
 41
0.0
 71
     1
 72
     1
  1
1.6
  7
SLDTEXTSTYLE1
 73
     1
 44
1.0
  0
ENDBLK
  5
12F
330
12D
100
AcDbEntity
  8
0
100
AcDbBlockEnd
  0
BLOCK
  5
135
330
134
100
AcDbEntity
  8
0
100
AcDbBlockBegin
  2
Blocco9
 70
     0
 10
0.0
 20
0.0
 30
0.0
  3
Blocco9
  1

  0
LINE
  5
137
330
134
100
AcDbEntity
  8
0
  6
Continuous
 62
     7
370
    18
100
AcDbLine
 10
784.3571603104172
 20
189.6753314205824
 30
0.0
 11
772.344943769868
 21
169.2270544088081
 31
0.0
  0
LINE
  5
138
330
134
100
AcDbEntity
  8
0
  6
Continuous
 62
     7
370
    18
100
AcDbLine
 10
772.344943769868
 20
169.2270544088081
 30
0.0
 11
766.4763799637983
 21
179.4511929146952
 31
0.0
  0
LINE
  5
139
330
134
100
AcDbEntity
  8
0
  6
Continuous
 62
     7
370
    18
100
AcDbLine
 10
766.4763799637983
 20
179.4511929146952
 30
0.0
 11
778.3510520401426
 21
179.4511929146952
 31
0.0
  0
MTEXT
  5
13A
330
134
100
AcDbEntity
  8
0
  6
Continuous
 62
     7
370
     0
100
AcDbMText
 10
767.8499126984822
 20
188.0578490745498
 30
0.0
 40
5.6
 41
0.0
 71
     1
 72
     1
  1
0.8
  7
SLDTEXTSTYLE1
 73
     1
 44
1.0
  0
ENDBLK
  5
136
330
134
100
AcDbEntity
  8
0
100
AcDbBlockEnd
  0
BLOCK
  5
13C
330
13B
100
AcDbEntity
  8
0
100
AcDbBlockBegin
  2
Blocco10
 70
     0
 10
0.0
 20
0.0
 30
0.0
  3
Blocco10
  1

  0
CIRCLE
  5
13E
330
13B
100
AcDbEntity
  8
0
  6
Continuous
 62
     7
370
    18
100
AcDbCircle
 10
5.901726167857557
 20
7.109229938992212
 30
0.0
 40
3.518481244003751
  0
LINE
  5
13F
330
13B
100
AcDbEntity
  8
0
  6
Continuous
 62
     7
370
    18
100
AcDbLine
 10
17.78908403714907
 20
20.2364426225034
 30
0.0
 11
5.901726167857557
 21
0.0000000000000278
 31
0.0
  0
LINE
  5
140
330
13B
100
AcDbEntity
  8
0
  6
Continuous
 62
     7
370
    18
100
AcDbLine
 10
5.901726167857557
 20
0.0000000000000278
 30
0.0
 11
0.0
 21
10.01230411661627
 31
0.0
  0
ENDBLK
  5
13D
330
13B
100
AcDbEntity
  8
0
100
AcDbBlockEnd
  0
BLOCK
  5
191
330
190
100
AcDbEntity
  8
0
100
AcDbBlockBegin
  2
SW_NOTE_0
 70
     0
 10
0.0
 20
0.0
 30
0.0
  3
SW_NOTE_0
  1

  0
MTEXT
  5
193
330
190
100
AcDbEntity
  8
0
  6
Continuous
 62
     0
370
     0
100
AcDbMText
 10
0.0
 20
8.867711826514642
 30
0.0
 40
6.879166666666666
 41
0.0
 71
     1
 72
     1
  1
SQUADRETTA DI
  7
SLDTEXTSTYLE0
 73
     1
 44
1.0
  0
MTEXT
  5
194
330
190
100
AcDbEntity
  8
0
  6
Continuous
 62
     0
370
     0
100
AcDbMText
 10
0.0
 20
-0.3045107505207853
 30
0.0
 40
6.879166666666666
 41
0.0
 71
     1
 72
     1
  1
COLLEGAMENTO P20E CON
  7
SLDTEXTSTYLE0
 73
     1
 44
1.0
  0
MTEXT
  5
195
330
190
100
AcDbEntity
  8
0
  6
Continuous
 62
     0
370
     0
100
AcDbMText
 10
0.0
 20
-9.476733327556213
 30
0.0
 40
6.879166666666666
 41
0.0
 71
     1
 72
     1
  1
PROFILO P35E
  7
SLDTEXTSTYLE0
 73
     1
 44
1.0
  0
ENDBLK
  5
192
330
190
100
AcDbEntity
  8
0
100
AcDbBlockEnd
  0
BLOCK
  5
19E
330
19D
100
AcDbEntity
  8
0
100
AcDbBlockBegin
  2
SW_NOTE_1
 70
     0
 10
0.0
 20
0.0
 30
0.0
  3
SW_NOTE_1
  1

  0
MTEXT
  5
1A0
330
19D
100
AcDbEntity
  8
0
  6
Continuous
 62
     0
370
     0
100
AcDbMText
 10
0.0
 20
4.898457411133456
 30
0.0
 40
3.8
 41
0.0
 71
     1
 72
     1
  1
Dimensioni in mm   -
  7
SLDTEXTSTYLE0
 73
     1
 44
1.0
  0
MTEXT
  5
1A1
330
19D
100
AcDbEntity
  8
0
  6
Continuous
 62
     0
370
     0
100
AcDbMText
 10
51.93333327770233
 20
4.898457411133456
 30
0.0
 40
3.8
 41
0.0
 71
     1
 72
     1
  1
NB
  7
SLDTEXTSTYLE0
 73
     1
 44
1.0
  0
MTEXT
  5
1A2
330
19D
100
AcDbEntity
  8
0
  6
Continuous
 62
     0
370
     0
100
AcDbMText
 10
59.47000160813332
 20
4.898457411133456
 30
0.0
 40
3.8
 41
0.0
 71
     1
 72
     1
  1
:  LE QUOTE INDICATE A DISEGNO SI RIFERISCONO ALLA LAVORAZIONE MECCANICA. - PRIMA DEI TRATTAMENTI SUPERFICIALI
  7
SLDTEXTSTYLE0
 73
     1
 44
1.0
  0
ENDBLK
  5
19F
330
19D
100
AcDbEntity
  8
0
100
AcDbBlockEnd
  0
BLOCK
  5
1A7
330
1A6
100
AcDbEntity
  8
0
100
AcDbBlockBegin
  2
SW_NOTE_2
 70
     0
 10
0.0
 20
0.0
 30
0.0
  3
SW_NOTE_2
  1

  0
MTEXT
  5
1A9
330
1A6
100
AcDbEntity
  8
0
  6
Continuous
 62
     0
370
     0
100
AcDbMText
 10
0.0
 20
7.218779342722997
 30
0.0
 40
5.6
 41
0.0
 71
     1
 72
     1
  1
Raggi non quotati: 0.2 mm
  7
SLDTEXTSTYLE1
 73
     1
 44
1.0
  0
MTEXT
  5
1AA
330
1A6
100
AcDbEntity
  8
0
  6
Continuous
 62
     0
370
     0
100
AcDbMText
 10
0.0
 20
-0.3812207854269889
 30
0.0
 40
5.6
 41
0.0
 71
     1
 72
     1
  1
Smussi non quotati: 0.5 mm
  7
SLDTEXTSTYLE1
 73
     1
 44
1.0
  0
MTEXT
  5
1AB
330
1A6
100
AcDbEntity
  8
0
  6
Continuous
 62
     0
370
     0
100
AcDbMText
 10
0.0
 20
-7.981220913576975
 30
0.0
 40
5.6
 41
0.0
 71
     1
 72
     1
  1
EX RS......
  7
SLDTEXTSTYLE1
 73
     1
 44
1.0
  0
ENDBLK
  5
1A8
330
1A6
100
AcDbEntity
  8
0
100
AcDbBlockEnd
  0
BLOCK
  5
1AE
330
1AD
100
AcDbEntity
  8
0
100
AcDbBlockBegin
  2
SW_NOTE_3
 70
     0
 10
0.0
 20
0.0
 30
0.0
  3
SW_NOTE_3
  1

  0
MTEXT
  5
1B0
330
1AD
100
AcDbEntity
  8
0
  6
Continuous
 62
     0
370
     0
100
AcDbMText
 10
0.0
 20
7.218779342722997
 30
0.0
 40
5.6
 41
0.0
 71
     1
 72
     1
  1
Quote di controllo n°:
  7
SLDTEXTSTYLE1
 73
     1
 44
1.0
  0
MTEXT
  5
1B1
330
1AD
100
AcDbEntity
  8
0
  6
Continuous
 62
     0
370
     0
100
AcDbMText
 10
79.62889224290848
 20
14.27282685531425
 30
0.0
 40
12.7
 41
0.0
 71
     1
 72
     1
  1
XX
  7
SLDTEXTSTYLE1
 73
     1
 44
1.0
  0
ENDBLK
  5
1AF
330
1AD
100
AcDbEntity
  8
0
100
AcDbBlockEnd
  0
BLOCK
  5
1B7
330
1B6
100
AcDbEntity
  8
0
100
AcDbBlockBegin
  2
SW_NOTE_4
 70
     0
 10
0.0
 20
0.0
 30
0.0
  3
SW_NOTE_4
  1

  0
MTEXT
  5
1B9
330
1B6
100
AcDbEntity
  8
0
  6
Continuous
 62
     0
370
     0
100
AcDbMText
 10
0.0
 20
5.457053431701317
 30
0.0
 40
4.233333333333333
 41
0.0
 71
     1
 72
     1
  1
Approvato:
  7
SLDTEXTSTYLE0
 73
     1
 44
1.0
  0
MTEXT
  5
1BA
330
1B6
100
AcDbEntity
  8
0
  6
Continuous
 62
     0
370
     0
100
AcDbMText
 10
31.69120396077629
 20
5.457053431701317
 30
0.0
 40
4.233333333333333
 41
0.0
 71
     1
 72
     1
  1
L. Benedetti
  7
SLDTEXTSTYLE0
 73
     1
 44
1.0
  0
ENDBLK
  5
1B8
330
1B6
100
AcDbEntity
  8
0
100
AcDbBlockEnd
  0
BLOCK
  5
1BF
330
1BE
100
AcDbEntity
  8
0
100
AcDbBlockBegin
  2
SW_NOTE_5
 70
     0
 10
0.0
 20
0.0
 30
0.0
  3
SW_NOTE_5
  1

  0
MTEXT
  5
1C1
330
1BE
100
AcDbEntity
  8
0
  6
Continuous
 62
     0
370
     0
100
AcDbMText
 10
0.0
 20
4.774921752738651
 30
0.0
 40
3.704166666666666
 41
0.0
 71
     1
 72
     1
  1
FINITURA
  7
SLDTEXTSTYLE0
 73
     1
 44
1.0
  0
MTEXT
  5
1C2
330
1BE
100
AcDbEntity
  8
0
  6
Continuous
 62
     0
370
     0
100
AcDbMText
 10
0.0
 20
-0.1639670764628093
 30
0.0
 40
3.704166666666666
 41
0.0
 71
     1
 72
     1
  1
SECONDO OPR:
  7
SLDTEXTSTYLE0
 73
     1
 44
1.0
  0
ENDBLK
  5
1C0
330
1BE
100
AcDbEntity
  8
0
100
AcDbBlockEnd
  0
BLOCK
  5
1C5
330
1C4
100
AcDbEntity
  8
0
100
AcDbBlockBegin
  2
SW_NOTE_6
 70
     0
 10
0.0
 20
0.0
 30
0.0
  3
SW_NOTE_6
  1

  0
MTEXT
  5
1C7
330
1C4
100
AcDbEntity
  8
0
  6
Continuous
 62
     0
370
     0
100
AcDbMText
 10
0.0
 20
4.774921752738651
 30
0.0
 40
3.704166666666666
 41
0.0
 71
     1
 72
     1
  1
FINITURA
  7
SLDTEXTSTYLE0
 73
     1
 44
1.0
  0
MTEXT
  5
1C8
330
1C4
100
AcDbEntity
  8
0
  6
Continuous
 62
     0
370
     0
100
AcDbMText
 10
0.0
 20
-0.1639670764628093
 30
0.0
 40
3.704166666666666
 41
0.0
 71
     1
 72
     1
  1
SPECIFICA:
  7
SLDTEXTSTYLE0
 73
     1
 44
1.0
  0
ENDBLK
  5
1C6
330
1C4
100
AcDbEntity
  8
0
100
AcDbBlockEnd
  0
BLOCK
  5
1CF
330
1CE
100
AcDbEntity
  8
0
100
AcDbBlockBegin
  2
SW_NOTE_7
 70
     0
 10
0.0
 20
0.0
 30
0.0
  3
SW_NOTE_7
  1

  0
MTEXT
  5
1D1
330
1CE
100
AcDbEntity
  8
0
  6
Continuous
 62
     0
370
     0
100
AcDbMText
 10
0.0
 20
7.218779342722997
 30
0.0
 40
5.6
 41
0.0
 71
     1
 72
     1
  1
\LNota pulizia:
  7
SLDTEXTSTYLE1
 73
     1
 44
1.0
  0
MTEXT
  5
1D2
330
1CE
100
AcDbEntity
  8
0
  6
Continuous
 62
     0
370
     0
100
AcDbMText
 10
0.0
 20
-0.3812207854269889
 30
0.0
 40
5.6
 41
0.0
 71
     1
 72
     1
  1
pezzo esente da bave e residui di
  7
SLDTEXTSTYLE1
 73
     1
 44
1.0
  0
MTEXT
  5
1D3
330
1CE
100
AcDbEntity
  8
0
  6
Continuous
 62
     0
370
     0
100
AcDbMText
 10
0.0
 20
-7.981220913576975
 30
0.0
 40
5.6
 41
0.0
 71
     1
 72
     1
  1
lavorazione
  7
SLDTEXTSTYLE1
 73
     1
 44
1.0
  0
ENDBLK
  5
1D0
330
1CE
100
AcDbEntity
  8
0
100
AcDbBlockEnd
  0
ENDSEC
  0
SECTION
  2
ENTITIES
  0
LINE
  5
1D5
330
1F
100
AcDbEntity
  8
0
  6
Continuous
 62
     7
370
    25
100
AcDbLine
 10
234.0487383268475
 20
441.481737062255
 30
0.0
 11
231.548738326849
 21
438.9817370622565
 31
0.0
  0
LINE
  5
1D6
330
1F
100
AcDbEntity
  8
0
  6
Continuous
 62
     7
370
    25
100
AcDbLine
 10
231.5487383268488
 20
438.9817370622562
 30
0.0
 11
234.0487383268475
 21
436.4817370622575
 31
0.0
  0
LINE
  5
1D7
330
1F
100
AcDbEntity
  8
0
  6
Continuous
 62
     7
370
    25
100
AcDbLine
 10
239.1742383268474
 20
441.4817370622567
 30
0.0
 11
237.5492383268475
 21
441.4817370622567
 31
0.0
  0
LINE
  5
1D8
330
1F
100
AcDbEntity
  8
0
  6
Continuous
 62
     7
370
    25
100
AcDbLine
 10
235.0492383268475
 20
441.4817370622567
 30
0.0
 11
234.0487383268475
 21
441.4817370622567
 31
0.0
  0
LINE
  5
1D9
330
1F
100
AcDbEntity
  8
0
  6
Continuous
 62
     7
370
    25
100
AcDbLine
 10
234.0487383268475
 20
436.4817370622567
 30
0.0
 11
235.0492383268475
 21
436.4817370622567
 31
0.0
  0
LINE
  5
1DA
330
1F
100
AcDbEntity
  8
0
  6
Continuous
 62
     7
370
    25
100
AcDbLine
 10
237.5492383268475
 20
436.4817370622567
 30
0.0
 11
239.1742383268474
 21
436.4817370622567
 31
0.0
  0
LINE
  5
1DB
330
1F
100
AcDbEntity
  8
0
  6
Continuous
 62
     7
370
    25
100
AcDbLine
 10
239.1742383268475
 20
436.4817370622647
 30
0.0
 11
239.549238326836
 21
437.2817370622287
 31
0.0
  0
LINE
  5
1DC
330
1F
100
AcDbEntity
  8
0
  6
Continuous
 62
     7
370
    25
100
AcDbLine
 10
239.549238326836
 20
440.6817370622847
 30
0.0
 11
239.1742383268475
 21
441.4817370622487
 31
0.0
  0
LINE
  5
1DD
330
1F
100
AcDbEntity
  8
0
  6
Continuous
 62
     7
370
    25
100
AcDbLine
 10
239.1742383268474
 20
401.4817370622567
 30
0.0
 11
237.5492383268476
 21
401.4817370622567
 31
0.0
  0
LINE
  5
1DE
330
1F
100
AcDbEntity
  8
0
  6
Continuous
 62
     7
370
    25
100
AcDbLine
 10
235.0492383268475
 20
401.4817370622567
 30
0.0
 11
234.0487383268475
 21
401.4817370622567
 31
0.0
  0
LINE
  5
1DF
330
1F
100
AcDbEntity
  8
0
  6
Continuous
 62
     7
370
    25
100
AcDbLine
 10
234.0487383268475
 20
396.4817370622567
 30
0.0
 11
235.0492383268475
 21
396.4817370622567
 31
0.0
  0
LINE
  5
1E0
330
1F
100
AcDbEntity
  8
0
  6
Continuous
 62
     7
370
    25
100
AcDbLine
 10
237.5492383268476
 20
396.4817370622567
 30
0.0
 11
239.1742383268474
 21
396.4817370622567
 31
0.0
  0
LINE
  5
1E1
330
1F
100
AcDbEntity
  8
0
  6
Continuous
 62
     7
370
    25
100
AcDbLine
 10
234.0487383268475
 20
401.4817370622551
 30
0.0
 11
231.548738326849
 21
398.9817370622565
 31
0.0
  0
LINE
  5
1E2
330
1F
100
AcDbEntity
  8
0
  6
Continuous
 62
     7
370
    25
100
AcDbLine
 10
231.5487383268488
 20
398.9817370622563
 30
0.0
 11
234.0487383268475
 21
396.4817370622576
 31
0.0
  0
LINE
  5
1E3
330
1F
100
AcDbEntity
  8
0
  6
Continuous
 62
     7
370
    25
100
AcDbLine
 10
239.1742383268475
 20
396.4817370622647
 30
0.0
 11
239.549238326836
 21
397.2817370622287
 31
0.0
  0
LINE
  5
1E4
330
1F
100
AcDbEntity
  8
0
  6
Continuous
 62
     7
370
    25
100
AcDbLine
 10
239.549238326836
 20
400.6817370622847
 30
0.0
 11
239.1742383268475
 21
401.4817370622488
 31
0.0
  0
LINE
  5
1E5
330
1F
100
AcDbEntity
  8
0
  6
Continuous
 62
     7
370
    25
100
AcDbLine
 10
234.0487383268475
 20
441.481737062255
 30
0.0
 11
234.0487383268475
 21
436.4817370622575
 31
0.0
  0
LINE
  5
1E6
330
1F
100
AcDbEntity
  8
0
  6
Continuous
 62
     7
370
    25
100
AcDbLine
 10
239.1742383268475
 20
436.4817370622567
 30
0.0
 11
239.1742383268475
 21
441.4817370622567
 31
0.0
  0
LINE
  5
1E7
330
1F
100
AcDbEntity
  8
0
  6
Continuous
 62
     7
370
    25
100
AcDbLine
 10
239.549238326836
 20
437.2817370622287
 30
0.0
 11
239.549238326836
 21
440.6817370622847
 31
0.0
  0
LINE
  5
1E8
330
1F
100
AcDbEntity
  8
0
  6
Continuous
 62
     7
370
    25
100
AcDbLine
 10
239.1742383268475
 20
396.4817370622567
 30
0.0
 11
239.1742383268475
 21
401.4817370622567
 31
0.0
  0
LINE
  5
1E9
330
1F
100
AcDbEntity
  8
0
  6
Continuous
 62
     7
370
    25
100
AcDbLine
 10
234.0487383268475
 20
401.4817370622563
 30
0.0
 11
234.0487383268475
 21
396.4817370622563
 31
0.0
  0
LINE
  5
1EA
330
1F
100
AcDbEntity
  8
0
  6
Continuous
 62
     7
370
    25
100
AcDbLine
 10
239.549238326836
 20
397.2817370622287
 30
0.0
 11
239.549238326836
 21
400.6817370622847
 31
0.0
  0
LINE
  5
1EB
330
1F
100
AcDbEntity
  8
0
  6
Continuous
 62
     7
370
    25
100
AcDbLine
 10
275.0492383268475
 20
368.9817370622567
 30
0.0
 11
275.0492383268475
 21
371.4817370622567
 31
0.0
  0
LINE
  5
1EC
330
1F
100
AcDbEntity
  8
0
  6
Continuous
 62
     7
370
    25
100
AcDbLine
 10
276.5492383268475
 20
371.4817370622567
 30
0.0
 11
276.5492383268475
 21
368.9817370622567
 31
0.0
  0
LINE
  5
1ED
330
1F
100
AcDbEntity
  8
0
  6
Continuous
 62
     7
370
    25
100
AcDbLine
 10
275.0492383268476
 20
371.4817370622567
 30
0.0
 11
276.5492383268475
 21
371.4817370622567
 31
0.0
  0
LINE
  5
1EE
330
1F
100
AcDbEntity
  8
0
  6
Continuous
 62
     7
370
    25
100
AcDbLine
 10
276.5492383268475
 20
368.9817370622567
 30
0.0
 11
275.0492383268476
 21
368.9817370622567
 31
0.0
  0
LINE
  5
1EF
330
1F
100
AcDbEntity
  8
0
  6
Continuous
 62
     7
370
    25
100
AcDbLine
 10
317.5492383268475
 20
368.9817370622567
 30
0.0
 11
317.5492383268475
 21
371.4817370622567
 31
0.0
  0
LINE
  5
1F0
330
1F
100
AcDbEntity
  8
0
  6
Continuous
 62
     7
370
    25
100
AcDbLine
 10
276.5492383268475
 20
371.4817370622567
 30
0.0
 11
317.5492383268475
 21
371.4817370622567
 31
0.0
  0
LINE
  5
1F1
330
1F
100
AcDbEntity
  8
0
  6
Continuous
 62
     7
370
    25
100
AcDbLine
 10
317.5492383268475
 20
368.9817370622567
 30
0.0
 11
276.5492383268475
 21
368.9817370622567
 31
0.0
  0
LINE
  5
1F2
330
1F
100
AcDbEntity
  8
0
  6
Continuous
 62
     7
370
    25
100
AcDbLine
 10
320.0492383268475
 20
371.4817370622567
 30
0.0
 11
320.0492383268475
 21
368.9817370622567
 31
0.0
  0
LINE
  5
1F3
330
1F
100
AcDbEntity
  8
0
  6
Continuous
 62
     7
370
    25
100
AcDbLine
 10
317.5492383268475
 20
371.4817370622567
 30
0.0
 11
320.0492383268475
 21
371.4817370622567
 31
0.0
  0
LINE
  5
1F4
330
1F
100
AcDbEntity
  8
0
  6
Continuous
 62
     7
370
    25
100
AcDbLine
 10
320.0492383268475
 20
368.9817370622567
 30
0.0
 11
317.5492383268475
 21
368.9817370622567
 31
0.0
  0
LINE
  5
1F5
330
1F
100
AcDbEntity
  8
0
  6
Continuous
 62
     7
370
    25
100
AcDbLine
 10
247.0492383268475
 20
368.9817370622567
 30
0.0
 11
247.0492383268475
 21
371.4817370622567
 31
0.0
  0
LINE
  5
1F6
330
1F
100
AcDbEntity
  8
0
  6
Continuous
 62
     7
370
    25
100
AcDbLine
 10
275.0492383268475
 20
371.4817370622567
 30
0.0
 11
247.0492383268475
 21
371.4817370622567
 31
0.0
  0
LINE
  5
1F7
330
1F
100
AcDbEntity
  8
0
  6
Continuous
 62
     7
370
    25
100
AcDbLine
 10
247.0492383268475
 20
368.9817370622567
 30
0.0
 11
275.0492383268475
 21
368.9817370622567
 31
0.0
  0
LINE
  5
1F8
330
1F
100
AcDbEntity
  8
0
  6
Continuous
 62
     7
370
    25
100
AcDbLine
 10
237.5492383268476
 20
374.9817370622567
 30
0.0
 11
235.0492383268475
 21
374.9817370622567
 31
0.0
  0
LINE
  5
1F9
330
1F
100
AcDbEntity
  8
0
  6
Continuous
 62
     7
370
    25
100
AcDbLine
 10
235.0492383268475
 20
446.4817370622567
 30
0.0
 11
235.0492383268475
 21
374.9817370622567
 31
0.0
  0
LINE
  5
1FA
330
1F
100
AcDbEntity
  8
0
  6
Continuous
 62
     7
370
    25
100
AcDbLine
 10
237.5492383268475
 20
446.4817370622567
 30
0.0
 11
235.0492383268475
 21
446.4817370622567
 31
0.0
  0
LINE
  5
1FB
330
1F
100
AcDbEntity
  8
0
  6
Continuous
 62
     7
370
    25
100
AcDbLine
 10
237.5492383268476
 20
374.9817370622567
 30
0.0
 11
237.5492383268475
 21
446.4817370622567
 31
0.0
  0
LINE
  5
1FC
330
1F
100
AcDbEntity
  8
0
  6
Continuous
 62
     7
370
    25
100
AcDbLine
 10
235.0492383268475
 20
448.9817370622567
 30
0.0
 11
237.5492383268475
 21
448.9817370622567
 31
0.0
  0
LINE
  5
1FD
330
1F
100
AcDbEntity
  8
0
  6
Continuous
 62
     7
370
    25
100
AcDbLine
 10
235.0492383268475
 20
446.4817370622567
 30
0.0
 11
235.0492383268475
 21
448.9817370622567
 31
0.0
  0
LINE
  5
1FE
330
1F
100
AcDbEntity
  8
0
  6
Continuous
 62
     7
370
    25
100
AcDbLine
 10
237.5492383268475
 20
448.9817370622567
 30
0.0
 11
237.5492383268475
 21
446.4817370622567
 31
0.0
  0
ARC
  5
1FF
330
1F
100
AcDbEntity
  8
0
  6
Continuous
 62
     7
370
    25
100
AcDbCircle
 10
237.0492383268476
 20
370.9817370622567
 30
0.0
 40
2.000000000000028
100
AcDbArc
 50
180.0
 51
270.0000000000008
  0
ARC
  5
200
330
1F
100
AcDbEntity
  8
0
  6
Continuous
 62
     7
370
    25
100
AcDbCircle
 10
238.5492383268476
 20
372.4817370622567
 30
0.0
 40
1.0
100
AcDbArc
 50
180.0
 51
270.0000000000008
  0
LINE
  5
201
330
1F
100
AcDbEntity
  8
0
  6
Continuous
 62
     7
370
    25
100
AcDbLine
 10
235.0492383268475
 20
374.9817370622567
 30
0.0
 11
235.0492383268475
 21
370.9817370622567
 31
0.0
  0
LINE
  5
202
330
1F
100
AcDbEntity
  8
0
  6
Continuous
 62
     7
370
    25
100
AcDbLine
 10
237.5492383268476
 20
372.4817370622567
 30
0.0
 11
237.5492383268476
 21
374.9817370622567
 31
0.0
  0
LINE
  5
203
330
1F
100
AcDbEntity
  8
0
  6
Continuous
 62
     7
370
    25
100
AcDbLine
 10
247.0492383268475
 20
371.4817370622567
 30
0.0
 11
238.5492383268476
 21
371.4817370622567
 31
0.0
  0
LINE
  5
204
330
1F
100
AcDbEntity
  8
0
  6
Continuous
 62
     7
370
    25
100
AcDbLine
 10
237.0492383268476
 20
368.9817370622567
 30
0.0
 11
247.0492383268475
 21
368.9817370622567
 31
0.0
  0
CIRCLE
  5
205
330
1F
100
AcDbEntity
  8
0
  6
Continuous
 62
     7
370
    25
100
AcDbCircle
 10
421.9645914396886
 20
438.9817370622562
 30
0.0
 40
2.500000000000061
  0
CIRCLE
  5
206
330
1F
100
AcDbEntity
  8
0
  6
Continuous
 62
     7
370
    25
100
AcDbCircle
 10
421.9645914396888
 20
398.9817370622563
 30
0.0
 40
2.499999999999991
  0
LINE
  5
207
330
1F
100
AcDbEntity
  8
0
  6
Continuous
 62
     7
370
    25
100
AcDbLine
 10
428.4645914396886
 20
446.4817370622567
 30
0.0
 11
425.9645914396885
 21
448.9817370622567
 31
0.0
  0
LINE
  5
208
330
1F
100
AcDbEntity
  8
0
  6
Continuous
 62
     7
370
    25
100
AcDbLine
 10
428.4645914396886
 20
446.4817370622567
 30
0.0
 11
428.4645914396886
 21
374.9817370622567
 31
0.0
  0
LINE
  5
209
330
1F
100
AcDbEntity
  8
0
  6
Continuous
 62
     7
370
    25
100
AcDbLine
 10
428.4645914396886
 20
374.9817370622567
 30
0.0
 11
425.7145914396886
 21
374.9817370622567
 31
0.0
  0
LINE
  5
20A
330
1F
100
AcDbEntity
  8
0
  6
Continuous
 62
     7
370
    25
100
AcDbLine
 10
425.7145914396886
 20
374.9817370622567
 30
0.0
 11
425.7145914396886
 21
370.9817370622567
 31
0.0
  0
LINE
  5
20B
330
1F
100
AcDbEntity
  8
0
  6
Continuous
 62
     7
370
    25
100
AcDbLine
 10
418.2145914396887
 20
370.9817370622567
 30
0.0
 11
425.7145914396886
 21
370.9817370622567
 31
0.0
  0
LINE
  5
20C
330
1F
100
AcDbEntity
  8
0
  6
Continuous
 62
     7
370
    25
100
AcDbLine
 10
418.2145914396887
 20
374.9817370622567
 30
0.0
 11
418.2145914396887
 21
370.9817370622567
 31
0.0
  0
LINE
  5
20D
330
1F
100
AcDbEntity
  8
0
  6
Continuous
 62
     7
370
    25
100
AcDbLine
 10
415.4645914396886
 20
374.9817370622567
 30
0.0
 11
418.2145914396887
 21
374.9817370622567
 31
0.0
  0
LINE
  5
20E
330
1F
100
AcDbEntity
  8
0
  6
Continuous
 62
     7
370
    25
100
AcDbLine
 10
415.4645914396886
 20
446.4817370622567
 30
0.0
 11
415.4645914396886
 21
374.9817370622567
 31
0.0
  0
LINE
  5
20F
330
1F
100
AcDbEntity
  8
0
  6
Continuous
 62
     7
370
    25
100
AcDbLine
 10
417.9645914396886
 20
448.9817370622567
 30
0.0
 11
415.4645914396886
 21
446.4817370622567
 31
0.0
  0
LINE
  5
210
330
1F
100
AcDbEntity
  8
0
  6
Continuous
 62
     7
370
    25
100
AcDbLine
 10
425.9645914396885
 20
448.9817370622567
 30
0.0
 11
417.9645914396886
 21
448.9817370622567
 31
0.0
  0
LINE
  5
211
330
1F
100
AcDbEntity
  8
0
  6
Continuous
 62
     7
370
    25
100
AcDbLine
 10
425.7145914396886
 20
368.9817370622567
 30
0.0
 11
418.2145914396887
 21
368.9817370622567
 31
0.0
  0
LINE
  5
212
330
1F
100
AcDbEntity
  8
0
  6
Continuous
 62
     7
370
    25
100
AcDbLine
 10
425.7145914396886
 20
368.9817370622567
 30
0.0
 11
425.7145914396886
 21
370.9817370622567
 31
0.0
  0
LINE
  5
213
330
1F
100
AcDbEntity
  8
0
  6
Continuous
 62
     7
370
    25
100
AcDbLine
 10
418.2145914396887
 20
370.9817370622567
 30
0.0
 11
418.2145914396887
 21
368.9817370622567
 31
0.0
  0
LINE
  5
214
330
1F
100
AcDbEntity
  8
0
  6
Continuous
 62
     7
370
    25
100
AcDbLine
 10
428.4645914396886
 20
368.9817370622567
 30
0.0
 11
428.4645914396886
 21
371.4817370622567
 31
0.0
  0
LINE
  5
215
330
1F
100
AcDbEntity
  8
0
  6
Continuous
 62
     7
370
    25
100
AcDbLine
 10
428.4645914396886
 20
371.4817370622567
 30
0.0
 11
425.7145914396886
 21
371.4817370622567
 31
0.0
  0
LINE
  5
216
330
1F
100
AcDbEntity
  8
0
  6
Continuous
 62
     7
370
    25
100
AcDbLine
 10
428.4645914396886
 20
368.9817370622567
 30
0.0
 11
425.7145914396886
 21
368.9817370622567
 31
0.0
  0
LINE
  5
217
330
1F
100
AcDbEntity
  8
0
  6
Continuous
 62
     7
370
    25
100
AcDbLine
 10
415.4645914396886
 20
368.9817370622567
 30
0.0
 11
415.4645914396886
 21
371.4817370622567
 31
0.0
  0
LINE
  5
218
330
1F
100
AcDbEntity
  8
0
  6
Continuous
 62
     7
370
    25
100
AcDbLine
 10
415.4645914396886
 20
371.4817370622567
 30
0.0
 11
418.2145914396887
 21
371.4817370622567
 31
0.0
  0
LINE
  5
219
330
1F
100
AcDbEntity
  8
0
  6
Continuous
 62
     7
370
    25
100
AcDbLine
 10
415.4645914396886
 20
368.9817370622567
 30
0.0
 11
418.2145914396887
 21
368.9817370622567
 31
0.0
  0
LINE
  5
21A
330
1F
100
AcDbEntity
  8
0
  6
Continuous
 62
     7
370
    25
100
AcDbLine
 10
429.9645914396886
 20
371.4817370622567
 30
0.0
 11
429.9645914396886
 21
368.9817370622567
 31
0.0
  0
LINE
  5
21B
330
1F
100
AcDbEntity
  8
0
  6
Continuous
 62
     7
370
    25
100
AcDbLine
 10
428.4645914396886
 20
371.4817370622567
 30
0.0
 11
429.9645914396886
 21
371.4817370622567
 31
0.0
  0
LINE
  5
21C
330
1F
100
AcDbEntity
  8
0
  6
Continuous
 62
     7
370
    25
100
AcDbLine
 10
429.9645914396886
 20
368.9817370622567
 30
0.0
 11
428.4645914396886
 21
368.9817370622567
 31
0.0
  0
LINE
  5
21D
330
1F
100
AcDbEntity
  8
0
  6
Continuous
 62
     7
370
    25
100
AcDbLine
 10
413.9645914396886
 20
368.9817370622567
 30
0.0
 11
413.9645914396886
 21
371.4817370622567
 31
0.0
  0
LINE
  5
21E
330
1F
100
AcDbEntity
  8
0
  6
Continuous
 62
     7
370
    25
100
AcDbLine
 10
413.9645914396886
 20
371.4817370622567
 30
0.0
 11
415.4645914396886
 21
371.4817370622567
 31
0.0
  0
LINE
  5
21F
330
1F
100
AcDbEntity
  8
0
  6
Continuous
 62
     7
370
    25
100
AcDbLine
 10
415.4645914396886
 20
368.9817370622567
 30
0.0
 11
413.9645914396886
 21
368.9817370622567
 31
0.0
  0
LINE
  5
220
330
1F
100
AcDbEntity
  8
0
  6
Continuous
 62
     7
370
    25
100
AcDbLine
 10
239.1742383268475
 20
288.6062256809419
 30
0.0
 11
239.549238326836
 21
289.4062256809059
 31
0.0
  0
LINE
  5
221
330
1F
100
AcDbEntity
  8
0
  6
Continuous
 62
     7
370
    25
100
AcDbLine
 10
239.549238326836
 20
292.806225680962
 30
0.0
 11
239.1742383268475
 21
293.606225680926
 31
0.0
  0
LINE
  5
222
330
1F
100
AcDbEntity
  8
0
  6
Continuous
 62
     7
370
    25
100
AcDbLine
 10
239.1742383268473
 20
293.606225680934
 30
0.0
 11
237.5492383268476
 21
293.606225680934
 31
0.0
  0
LINE
  5
223
330
1F
100
AcDbEntity
  8
0
  6
Continuous
 62
     7
370
    25
100
AcDbLine
 10
235.0492383268475
 20
293.606225680934
 30
0.0
 11
234.0487383268475
 21
293.606225680934
 31
0.0
  0
LINE
  5
224
330
1F
100
AcDbEntity
  8
0
  6
Continuous
 62
     7
370
    25
100
AcDbLine
 10
234.0487383268475
 20
288.606225680934
 30
0.0
 11
235.0492383268475
 21
288.606225680934
 31
0.0
  0
LINE
  5
225
330
1F
100
AcDbEntity
  8
0
  6
Continuous
 62
     7
370
    25
100
AcDbLine
 10
237.5492383268476
 20
288.606225680934
 30
0.0
 11
239.1742383268473
 21
288.606225680934
 31
0.0
  0
LINE
  5
226
330
1F
100
AcDbEntity
  8
0
  6
Continuous
 62
     7
370
    25
100
AcDbLine
 10
234.0487383268475
 20
293.6062256809327
 30
0.0
 11
231.5487383268488
 21
291.1062256809339
 31
0.0
  0
LINE
  5
227
330
1F
100
AcDbEntity
  8
0
  6
Continuous
 62
     7
370
    25
100
AcDbLine
 10
231.5487383268488
 20
291.1062256809339
 30
0.0
 11
234.0487383268475
 21
288.6062256809352
 31
0.0
  0
LINE
  5
228
330
1F
100
AcDbEntity
  8
0
  6
Continuous
 62
     7
370
    25
100
AcDbLine
 10
239.549238326836
 20
291.1919427324676
 30
0.0
 11
239.549238326836
 21
292.806225680962
 31
0.0
  0
LINE
  5
229
330
1F
100
AcDbEntity
  8
0
  6
Continuous
 62
     7
370
    25
100
AcDbLine
 10
239.549238326836
 20
289.4062256809059
 30
0.0
 11
239.549238326836
 21
291.1919427324676
 31
0.0
  0
LINE
  5
22A
330
1F
100
AcDbEntity
  8
0
  6
Continuous
 62
     7
370
    25
100
AcDbLine
 10
239.1742383268475
 20
291.2322801684814
 30
0.0
 11
239.1742383268475
 21
293.606225680926
 31
0.0
  0
LINE
  5
22B
330
1F
100
AcDbEntity
  8
0
  6
Continuous
 62
     7
370
    25
100
AcDbLine
 10
239.1742383268475
 20
288.6062256809419
 30
0.0
 11
239.1742383268475
 21
291.2322801684814
 31
0.0
  0
LINE
  5
22C
330
1F
100
AcDbEntity
  8
0
  6
Continuous
 62
     7
370
    25
100
AcDbLine
 10
234.0487383268475
 20
291.2322801684814
 30
0.0
 11
234.0487383268475
 21
288.6062256809339
 31
0.0
  0
LINE
  5
22D
330
1F
100
AcDbEntity
  8
0
  6
Continuous
 62
     7
370
    25
100
AcDbLine
 10
234.0487383268475
 20
293.6062256809339
 30
0.0
 11
234.0487383268475
 21
291.2322801684814
 31
0.0
  0
LINE
  5
22E
330
1F
100
AcDbEntity
  8
0
  6
Continuous
 62
     7
370
    25
100
AcDbLine
 10
237.5492383268475
 20
295.1062256809339
 30
0.0
 11
235.0492383268475
 21
295.1062256809339
 31
0.0
  0
LINE
  5
22F
330
1F
100
AcDbEntity
  8
0
  6
Continuous
 62
     7
370
    25
100
AcDbLine
 10
235.0492383268475
 20
297.606225680934
 30
0.0
 11
237.5492383268475
 21
297.606225680934
 31
0.0
  0
LINE
  5
230
330
1F
100
AcDbEntity
  8
0
  6
Continuous
 62
     7
370
    25
100
AcDbLine
 10
237.5492383268475
 20
297.606225680934
 30
0.0
 11
237.5492383268475
 21
295.1062256809339
 31
0.0
  0
LINE
  5
231
330
1F
100
AcDbEntity
  8
0
  6
Continuous
 62
     7
370
    25
100
AcDbLine
 10
235.0492383268475
 20
295.1062256809339
 30
0.0
 11
235.0492383268475
 21
297.606225680934
 31
0.0
  0
LINE
  5
232
330
1F
100
AcDbEntity
  8
0
  6
Continuous
 62
     7
370
    25
100
AcDbLine
 10
235.0492383268475
 20
287.106225680934
 30
0.0
 11
237.5492383268475
 21
287.106225680934
 31
0.0
  0
LINE
  5
233
330
1F
100
AcDbEntity
  8
0
  6
Continuous
 62
     7
370
    25
100
AcDbLine
 10
237.5492383268475
 20
287.106225680934
 30
0.0
 11
237.5492383268475
 21
295.1062256809339
 31
0.0
  0
LINE
  5
234
330
1F
100
AcDbEntity
  8
0
  6
Continuous
 62
     7
370
    25
100
AcDbLine
 10
235.0492383268475
 20
287.106225680934
 30
0.0
 11
235.0492383268475
 21
295.1062256809339
 31
0.0
  0
LINE
  5
235
330
1F
100
AcDbEntity
  8
0
  6
Continuous
 62
     7
370
    25
100
AcDbLine
 10
237.5492383268475
 20
284.606225680934
 30
0.0
 11
235.0492383268475
 21
284.606225680934
 31
0.0
  0
LINE
  5
236
330
1F
100
AcDbEntity
  8
0
  6
Continuous
 62
     7
370
    25
100
AcDbLine
 10
237.5492383268475
 20
287.106225680934
 30
0.0
 11
237.5492383268475
 21
284.606225680934
 31
0.0
  0
LINE
  5
237
330
1F
100
AcDbEntity
  8
0
  6
Continuous
 62
     7
370
    25
100
AcDbLine
 10
235.0492383268475
 20
284.606225680934
 30
0.0
 11
235.0492383268475
 21
287.106225680934
 31
0.0
  0
LINE
  5
238
330
1F
100
AcDbEntity
  8
0
  6
Continuous
 62
     7
370
    25
100
AcDbLine
 10
238.5492383268476
 20
287.356225680934
 30
0.0
 11
237.5492383268476
 21
287.356225680934
 31
0.0
  0
LINE
  5
239
330
1F
100
AcDbEntity
  8
0
  6
Continuous
 62
     7
370
    25
100
AcDbLine
 10
237.5492383268476
 20
294.856225680934
 30
0.0
 11
238.5492383268476
 21
294.856225680934
 31
0.0
  0
LINE
  5
23A
330
1F
100
AcDbEntity
  8
0
  6
Continuous
 62
     7
370
    25
100
AcDbLine
 10
247.0492383268475
 20
284.606225680934
 30
0.0
 11
247.0492383268475
 21
287.356225680934
 31
0.0
  0
LINE
  5
23B
330
1F
100
AcDbEntity
  8
0
  6
Continuous
 62
     7
370
    25
100
AcDbLine
 10
247.0492383268475
 20
297.606225680934
 30
0.0
 11
247.0492383268475
 21
294.856225680934
 31
0.0
  0
LINE
  5
23C
330
1F
100
AcDbEntity
  8
0
  6
Continuous
 62
     7
370
    25
100
AcDbLine
 10
275.0492383268475
 20
297.606225680934
 30
0.0
 11
247.0492383268475
 21
297.606225680934
 31
0.0
  0
LINE
  5
23D
330
1F
100
AcDbEntity
  8
0
  6
Continuous
 62
     7
370
    25
100
AcDbLine
 10
317.5492383268476
 20
299.1062256809339
 30
0.0
 11
276.5492383268475
 21
299.1062256809339
 31
0.0
  0
LINE
  5
23E
330
1F
100
AcDbEntity
  8
0
  6
Continuous
 62
     7
370
    25
100
AcDbLine
 10
320.0492383268475
 20
296.6062256809339
 30
0.0
 11
317.5492383268476
 21
299.1062256809339
 31
0.0
  0
LINE
  5
23F
330
1F
100
AcDbEntity
  8
0
  6
Continuous
 62
     7
370
    25
100
AcDbLine
 10
320.0492383268475
 20
285.606225680934
 30
0.0
 11
320.0492383268475
 21
296.6062256809339
 31
0.0
  0
LINE
  5
240
330
1F
100
AcDbEntity
  8
0
  6
Continuous
 62
     7
370
    25
100
AcDbLine
 10
317.5492383268475
 20
283.106225680934
 30
0.0
 11
320.0492383268475
 21
285.606225680934
 31
0.0
  0
LINE
  5
241
330
1F
100
AcDbEntity
  8
0
  6
Continuous
 62
     7
370
    25
100
AcDbLine
 10
276.5492383268475
 20
283.106225680934
 30
0.0
 11
317.5492383268475
 21
283.106225680934
 31
0.0
  0
LINE
  5
242
330
1F
100
AcDbEntity
  8
0
  6
Continuous
 62
     7
370
    25
100
AcDbLine
 10
275.0492383268476
 20
284.606225680934
 30
0.0
 11
276.5492383268475
 21
283.106225680934
 31
0.0
  0
LINE
  5
243
330
1F
100
AcDbEntity
  8
0
  6
Continuous
 62
     7
370
    25
100
AcDbLine
 10
275.0492383268475
 20
284.606225680934
 30
0.0
 11
247.0492383268475
 21
284.606225680934
 31
0.0
  0
CIRCLE
  5
244
330
1F
100
AcDbEntity
  8
0
  6
Continuous
 62
     7
370
    25
100
AcDbCircle
 10
282.0492383268475
 20
291.106225680934
 30
0.0
 40
5.199999999999932
  0
CIRCLE
  5
245
330
1F
100
AcDbEntity
  8
0
  6
Continuous
 62
     7
370
    25
100
AcDbCircle
 10
310.0492383268476
 20
291.106225680934
 30
0.0
 40
5.200000000000045
  0
LINE
  5
246
330
1F
100
AcDbEntity
  8
0
  6
Continuous
 62
     7
370
    25
100
AcDbLine
 10
276.5492383268475
 20
299.1062256809339
 30
0.0
 11
275.0492383268475
 21
297.606225680934
 31
0.0
  0
LINE
  5
247
330
1F
100
AcDbEntity
  8
0
  6
Continuous
 62
     7
370
    25
100
AcDbLine
 10
247.0492383268475
 20
287.356225680934
 30
0.0
 11
238.5492383268476
 21
287.356225680934
 31
0.0
  0
LINE
  5
248
330
1F
100
AcDbEntity
  8
0
  6
Continuous
 62
     7
370
    25
100
AcDbLine
 10
238.5492383268476
 20
294.856225680934
 30
0.0
 11
247.0492383268475
 21
294.856225680934
 31
0.0
  0
CIRCLE
  5
249
330
1F
100
AcDbEntity
  8
0
  6
Continuous
 62
     7
370
    25
100
AcDbCircle
 10
282.0492383268475
 20
291.106225680934
 30
0.0
 40
2.699999999999932
  0
CIRCLE
  5
24A
330
1F
100
AcDbEntity
  8
0
  6
Continuous
 62
     7
370
    25
100
AcDbCircle
 10
310.0492383268476
 20
291.106225680934
 30
0.0
 40
2.699999999999989
  0
LINE
  5
24B
330
1F
100
AcDbEntity
  8
0
  6
Continuous
 62
     8
370
    25
100
AcDbLine
 10
238.5492383268476
 20
294.856225680934
 30
0.0
 11
238.5492383268476
 21
293.6062256809338
 31
0.0
  0
LINE
  5
24C
330
1F
100
AcDbEntity
  8
0
  6
Continuous
 62
     8
370
    25
100
AcDbLine
 10
238.5492383268476
 20
288.6062256809338
 30
0.0
 11
238.5492383268476
 21
287.356225680934
 31
0.0
  0
LINE
  5
24D
330
1F
100
AcDbEntity
  8
0
  6
Continuous
 62
     7
370
    25
100
AcDbLine
 10
380.7470508878578
 20
347.3859794950645
 30
0.0
 11
379.5980023684298
 21
348.0493110859204
 31
0.0
  0
LINE
  5
24E
330
1F
100
AcDbEntity
  8
0
  6
Continuous
 62
     7
370
    25
100
AcDbLine
 10
377.0982055368397
 20
343.719066774017
 30
0.0
 11
378.2472540562676
 21
343.0557351831611
 31
0.0
  0
LINE
  5
24F
330
1F
100
AcDbEntity
  8
0
  6
Continuous
 62
     7
370
    25
100
AcDbLine
 10
380.7470508878578
 20
314.7243470196345
 30
0.0
 11
379.5980023684298
 21
315.3876786104904
 31
0.0
  0
LINE
  5
250
330
1F
100
AcDbEntity
  8
0
  6
Continuous
 62
     7
370
    25
100
AcDbLine
 10
377.0982055368397
 20
311.0574342985869
 30
0.0
 11
378.2472540562676
 21
310.3941027077311
 31
0.0
  0
LWPOLYLINE
  5
251
330
1F
100
AcDbEntity
  8
0
  6
Continuous
 62
     7
370
    25
100
AcDbPolyline
 90
       25
 70
   128
 43
0.0
 10
379.8229286234024
 20
346.4891245757223
 10
380.1315892003534
 20
346.6019565512286
 10
380.4150845221978
 20
346.610236985871
 10
380.6540948512501
 20
346.5134015817126
 10
380.8323320285687
 20
346.3180495115188
 10
380.9376494850702
 20
346.0374936960386
 10
380.9628700101392
 20
345.6908535504566
 10
380.9062748666713
 20
345.3017520278444
 10
380.7717209201659
 20
344.8967057539472
 10
380.5683777997164
 20
344.5033179629606
 10
380.3101030029411
 20
344.1483973827362
 10
380.0144975304209
 20
343.8561312642824
 10
379.7017064065968
 20
343.6464370605791
 10
379.3930458296459
 20
343.5336050850727
 10
379.1095505078015
 20
343.5253246504303
 10
378.8705401787492
 20
343.6221600545887
 10
378.6923030014306
 20
343.8175121247826
 10
378.5869855449291
 20
344.0980679402628
 10
378.5617650198601
 20
344.4447080858448
 10
378.618360163328
 20
344.833809608457
 10
378.7529141098334
 20
345.2388558823541
 10
378.9562572302829
 20
345.6322436733407
 10
379.2145320270582
 20
345.9871642535651
 10
379.5101374995784
 20
346.279430372019
 10
379.8229286234024
 20
346.4891245757223
  0
LWPOLYLINE
  5
252
330
1F
100
AcDbEntity
  8
0
  6
Continuous
 62
     7
370
    25
100
AcDbPolyline
 90
       30
 70
   128
 43
0.0
 10
379.5862864550067
 20
347.3110687472717
 10
379.9637368143304
 20
347.4591746183727
 10
380.3193702083809
 20
347.5026192612065
 10
380.6365576149105
 20
347.4393712525594
 10
380.9004677033186
 20
347.2723879990206
 10
381.0987603311858
 20
347.0094774519372
 10
381.2221635556198
 20
346.6629330162865
 10
381.2649071789988
 20
346.2489587247231
 10
381.2249925569998
 20
345.7869115550213
 10
381.1042860529853
 20
345.2983963193076
 10
380.9084317689277
 20
344.8062554470584
 10
380.6465876334729
 20
344.3335008984848
 10
380.330997187376
 20
343.9022381508491
 10
379.9764170891429
 20
343.5326325709166
 10
379.5994271100795
 20
343.2419665048179
 10
379.2176548826126
 20
343.0438311747516
 10
378.848951651789
 20
342.9474911685401
 10
378.5105575708981
 20
342.9574512377995
 10
378.2182955710641
 20
343.0732456607611
 10
377.9858314985735
 20
343.2894600189035
 10
377.8240351150906
 20
343.595984369145
 10
377.7404718396833
 20
343.9784859735454
 10
377.7390489982358
 20
344.4190794822034
 10
377.8198331212328
 20
344.8971632323382
 10
377.9790468328681
 20
345.3903825591457
 10
378.2092454769389
 20
345.8756750750782
 10
378.4996652206958
 20
346.3303490414546
 10
378.8367263596992
 20
346.7331444089409
 10
379.2046682897059
 20
347.0652269138284
 10
379.5862864550067
 20
347.3110687472717
  0
LINE
  5
253
330
1F
100
AcDbEntity
  8
0
  6
Continuous
 62
     7
370
    25
100
AcDbLine
 10
379.297223251896
 20
345.8483782797874
 30
0.0
 11
378.7429950058406
 21
344.5387643332701
 31
0.0
  0
LINE
  5
254
330
1F
100
AcDbEntity
  8
0
  6
Continuous
 62
     7
370
    25
100
AcDbLine
 10
378.7429950058406
 20
344.5387643332701
 30
0.0
 11
379.2080892689523
 21
343.7581668716285
 31
0.0
  0
LINE
  5
255
330
1F
100
AcDbEntity
  8
0
  6
Continuous
 62
     7
370
    25
100
AcDbLine
 10
379.2080892689523
 20
343.7581668716285
 30
0.0
 11
380.2274117781195
 21
344.2871833565044
 31
0.0
  0
LINE
  5
256
330
1F
100
AcDbEntity
  8
0
  6
Continuous
 62
     7
370
    25
100
AcDbLine
 10
380.2274117781195
 20
344.2871833565044
 30
0.0
 11
380.781640024175
 21
345.5967973030219
 31
0.0
  0
LINE
  5
257
330
1F
100
AcDbEntity
  8
0
  6
Continuous
 62
     7
370
    25
100
AcDbLine
 10
380.3165457610631
 20
346.3773947646634
 30
0.0
 11
380.781640024175
 21
345.5967973030219
 31
0.0
  0
LINE
  5
258
330
1F
100
AcDbEntity
  8
0
  6
Continuous
 62
     7
370
    25
100
AcDbLine
 10
380.3165457610631
 20
346.3773947646634
 30
0.0
 11
379.297223251896
 21
345.8483782797874
 31
0.0
  0
LINE
  5
259
330
1F
100
AcDbEntity
  8
0
  6
Continuous
 62
     7
370
    25
100
AcDbLine
 10
379.849415002211
 20
346.1349593531004
 30
0.0
 11
380.781640024175
 21
345.5967973030219
 31
0.0
  0
LINE
  5
25A
330
1F
100
AcDbEntity
  8
0
  6
Continuous
 62
     7
370
    25
100
AcDbLine
 10
378.9488812397692
 20
345.0252633258202
 30
0.0
 11
380.2274117781195
 21
344.2871833565044
 31
0.0
  0
LWPOLYLINE
  5
25B
330
1F
100
AcDbEntity
  8
0
  6
Continuous
 62
     7
370
    25
100
AcDbPolyline
 90
       25
 70
   128
 43
0.0
 10
380.4236294228511
 20
313.9470967502746
 10
380.6609050427789
 20
313.8469255244228
 10
380.8369434076746
 20
313.6485677146349
 10
380.9397477938877
 20
313.3655410778461
 10
380.9623122523902
 20
313.0171334116299
 10
380.9030990526246
 20
312.6270881226682
 10
380.7661434763005
 20
312.2219861528233
 10
380.5607788196145
 20
311.8294345318774
 10
380.3010003445388
 20
311.476185004076
 10
380.0045115248454
 20
311.1863109409661
 10
379.6915175836256
 20
310.9795667809091
 10
379.3833485407264
 20
310.8700417967521
 10
379.1010056071482
 20
310.8651999351667
 10
378.8637299872204
 20
310.9653711610186
 10
378.6876916223247
 20
311.1637289708065
 10
378.5848872361116
 20
311.4467556075953
 10
378.5623227776091
 20
311.7951632738115
 10
378.6215359773747
 20
312.1852085627732
 10
378.7584915536988
 20
312.5903105326181
 10
378.9638562103848
 20
312.9828621535639
 10
379.2236346854606
 20
313.3361116813654
 10
379.5201235051539
 20
313.6259857444753
 10
379.8331174463738
 20
313.8327299045322
 10
380.1412864892729
 20
313.9422548886893
 10
380.4236294228511
 20
313.9470967502746
  0
LWPOLYLINE
  5
25C
330
1F
100
AcDbEntity
  8
0
  6
Continuous
 62
     7
370
    25
100
AcDbPolyline
 90
       30
 70
   128
 43
0.0
 10
380.4696699835931
 20
314.8253254629894
 10
380.7642755775415
 20
314.7141255446376
 10
380.9996319033839
 20
314.5021648654443
 10
381.1647339609037
 20
314.1993544711914
 10
381.251861761389
 20
313.8198534393646
 10
381.2569413057248
 20
313.3814068164269
 10
381.1797350800632
 20
312.9045158791685
 10
381.0238531617079
 20
312.4114795177894
 10
380.7965844159107
 20
311.9253515645771
 10
380.508555676634
 20
311.4688628223313
 10
380.1732348476056
 20
311.0633581972889
 10
379.8063011581083
 20
310.7277986350306
 10
379.4249120196456
 20
310.47787452774
 10
379.0469007644485
 20
310.3252720489033
 10
378.6899427786806
 20
310.2771267208256
 10
378.3707290210261
 20
310.3356897655379
 10
378.1041855720123
 20
310.4982228401577
 10
377.9027757070735
 20
310.7571260787583
 10
377.775917127643
 20
311.100293453653
 10
377.7295415999018
 20
311.5116788397949
 10
377.7658175919846
 20
311.97204631375
 10
377.8830488788193
 20
312.4598696040979
 10
378.0757538557268
 20
312.9523386359585
 10
378.334921852163
 20
313.4264261047421
 10
378.6484344606592
 20
313.8599642073187
 10
379.0016321800863
 20
314.2326811838549
 10
379.3779998776351
 20
314.5271492027729
 10
379.7599390180706
 20
314.7295992667858
 10
380.1295905516811
 20
314.8305650359076
 10
380.4696699835931
 20
314.8253254629894
  0
LINE
  5
25D
330
1F
100
AcDbEntity
  8
0
  6
Continuous
 62
     7
370
    25
100
AcDbLine
 10
379.822429808297
 20
313.6173795908326
 30
0.0
 11
378.9100245900563
 21
312.5625102396426
 31
0.0
  0
LINE
  5
25E
330
1F
100
AcDbEntity
  8
0
  6
Continuous
 62
     7
370
    25
100
AcDbLine
 10
378.9100245900563
 20
312.5625102396426
 30
0.0
 11
378.8499122967669
 21
311.3512789915259
 31
0.0
  0
LINE
  5
25F
330
1F
100
AcDbEntity
  8
0
  6
Continuous
 62
     7
370
    25
100
AcDbLine
 10
378.8499122967669
 20
311.3512789915259
 30
0.0
 11
379.7022052217185
 21
311.1949170945994
 31
0.0
  0
LINE
  5
260
330
1F
100
AcDbEntity
  8
0
  6
Continuous
 62
     7
370
    25
100
AcDbLine
 10
379.7022052217185
 20
311.1949170945994
 30
0.0
 11
380.6146104399593
 21
312.2497864457894
 31
0.0
  0
LINE
  5
261
330
1F
100
AcDbEntity
  8
0
  6
Continuous
 62
     7
370
    25
100
AcDbLine
 10
380.6747227332486
 20
313.4610176939062
 30
0.0
 11
380.6146104399593
 21
312.2497864457894
 31
0.0
  0
LINE
  5
262
330
1F
100
AcDbEntity
  8
0
  6
Continuous
 62
     7
370
    25
100
AcDbLine
 10
380.6747227332486
 20
313.4610176939062
 30
0.0
 11
379.822429808297
 21
313.6173795908326
 31
0.0
  0
LINE
  5
263
330
1F
100
AcDbEntity
  8
0
  6
Continuous
 62
     7
370
    25
100
AcDbLine
 10
378.8661066400032
 20
311.6775865319157
 30
0.0
 11
379.7022052217185
 21
311.1949170945994
 31
0.0
  0
LINE
  5
264
330
1F
100
AcDbEntity
  8
0
  6
Continuous
 62
     7
370
    25
100
AcDbLine
 10
379.2972989857705
 20
313.0102541612821
 30
0.0
 11
380.6146104399593
 21
312.2497864457894
 31
0.0
  0
LINE
  5
265
330
1F
100
AcDbEntity
  8
0
  6
Continuous
 62
     7
370
    25
100
AcDbLine
 10
380.4694242961943
 20
284.2364192330988
 30
0.0
 11
382.4139679444573
 21
285.3589803868551
 31
0.0
  0
LINE
  5
266
330
1F
100
AcDbEntity
  8
0
  6
Continuous
 62
     7
370
    25
100
AcDbLine
 10
382.4139679444573
 20
285.3589803868551
 30
0.0
 11
376.4035603043717
 21
288.8287148621016
 31
0.0
  0
LINE
  5
267
330
1F
100
AcDbEntity
  8
0
  6
Continuous
 62
     7
370
    25
100
AcDbLine
 10
381.7068611632708
 20
291.8902452814368
 30
0.0
 11
376.4035603043717
 21
288.8287148621016
 31
0.0
  0
LINE
  5
268
330
1F
100
AcDbEntity
  8
0
  6
Continuous
 62
     7
370
    25
100
AcDbLine
 10
381.7068611632708
 20
291.8902452814368
 30
0.0
 11
387.7172688033565
 21
288.4205108061902
 31
0.0
  0
LINE
  5
269
330
1F
100
AcDbEntity
  8
0
  6
Continuous
 62
     7
370
    25
100
AcDbLine
 10
389.6618124516195
 20
289.5430719599464
 30
0.0
 11
387.7172688033565
 21
288.4205108061902
 31
0.0
  0
LINE
  5
26A
330
1F
100
AcDbEntity
  8
0
  6
Continuous
 62
     7
370
    25
100
AcDbLine
 10
409.4608023248429
 20
278.1133583944285
 30
0.0
 11
389.6618124516195
 21
289.5430719599464
 31
0.0
  0
LINE
  5
26B
330
1F
100
AcDbEntity
  8
0
  6
Continuous
 62
     7
370
    25
100
AcDbLine
 10
411.5821226684025
 20
278.1133583944285
 30
0.0
 11
409.4608023248429
 21
278.1133583944285
 31
0.0
  0
LINE
  5
26C
330
1F
100
AcDbEntity
  8
0
  6
Continuous
 62
     7
370
    25
100
AcDbLine
 10
440.5735006970508
 20
261.376992102063
 30
0.0
 11
411.5821226684025
 21
278.1133583944285
 31
0.0
  0
LINE
  5
26D
330
1F
100
AcDbEntity
  8
0
  6
Continuous
 62
     7
370
    25
100
AcDbLine
 10
440.5735006970508
 20
259.3359718225062
 30
0.0
 11
440.5735006970508
 21
261.376992102063
 31
0.0
  0
LINE
  5
26E
330
1F
100
AcDbEntity
  8
0
  6
Continuous
 62
     7
370
    25
100
AcDbLine
 10
432.7953261039988
 20
254.8457272074813
 30
0.0
 11
440.5735006970508
 21
259.3359718225062
 31
0.0
  0
LINE
  5
26F
330
1F
100
AcDbEntity
  8
0
  6
Continuous
 62
     7
370
    25
100
AcDbLine
 10
429.259792198066
 20
254.8457272074813
 30
0.0
 11
432.7953261039988
 21
254.8457272074813
 31
0.0
  0
LINE
  5
270
330
1F
100
AcDbEntity
  8
0
  6
Continuous
 62
     7
370
    25
100
AcDbLine
 10
400.2684141694177
 20
271.5820934998468
 30
0.0
 11
429.259792198066
 21
254.8457272074813
 31
0.0
  0
LINE
  5
271
330
1F
100
AcDbEntity
  8
0
  6
Continuous
 62
     7
370
    25
100
AcDbLine
 10
400.2684141694177
 20
272.8067056675809
 30
0.0
 11
400.2684141694177
 21
271.5820934998468
 31
0.0
  0
LINE
  5
272
330
1F
100
AcDbEntity
  8
0
  6
Continuous
 62
     7
370
    25
100
AcDbLine
 10
400.2684141694177
 20
272.8067056675809
 30
0.0
 11
380.4694242961943
 21
284.2364192330988
 31
0.0
  0
LWPOLYLINE
  5
273
330
1F
100
AcDbEntity
  8
0
  6
Continuous
 62
     7
370
    25
100
AcDbPolyline
 90
       43
 70
   128
 43
0.0
 10
406.137400453266
 20
274.7252647303643
 10
405.6304472606494
 20
274.3851901404889
 10
405.2169556692121
 20
274.0052955138198
 10
404.9061623978325
 20
273.5940670685597
 10
404.705010054623
 20
273.1606909686412
 10
404.6179920505364
 20
272.714848120004
 10
404.6470522239912
 20
272.2664979151536
 10
404.7915414187329
 20
271.82565575679
 10
405.0482319849122
 20
271.4021693302611
 10
405.411389879449
 20
271.0054986225454
 10
405.8729027550797
 20
270.6445046017747
 10
406.4224611767898
 20
270.3272512778483
 10
407.0477889175563
 20
270.0608255657774
 10
407.7349171889734
 20
269.8511789757145
 10
408.4684966809029
 20
269.7029946660509
 10
409.2321404396989
 20
269.6195828293974
 10
410.0087899256729
 20
269.6028067483509
 10
410.7810960726833
 20
269.6530411728402
 10
411.531806837603
 20
269.7691639488323
 10
412.244152582456
 20
269.9485810853986
 10
412.9022206804183
 20
270.1872847001861
 10
413.4913109776062
 20
270.4799425488862
 10
413.9982641702228
 20
270.8200171387616
 10
414.4117557616601
 20
271.1999117654307
 10
414.7225490330396
 20
271.6111402106908
 10
414.9237013762492
 20
272.0445163106093
 10
415.0107193803357
 20
272.4903591592465
 10
414.981659206881
 20
272.9387093640968
 10
414.8371700121392
 20
273.3795515224605
 10
414.58047944596
 20
273.8030379489894
 10
414.2173215514231
 20
274.1997086567051
 10
413.7558086757924
 20
274.5607026774758
 10
413.2062502540822
 20
274.8779560014021
 10
412.5809225133158
 20
275.144381713473
 10
411.8937942418987
 20
275.354028303536
 10
411.1602147499691
 20
275.5022126131996
 10
410.3965709911732
 20
275.5856244498531
 10
409.6199215051991
 20
275.6024005308996
 10
408.8476153581889
 20
275.5521661064102
 10
408.0969045932691
 20
275.4360433304181
 10
407.3845588484161
 20
275.2566261938518
 10
406.7264907504538
 20
275.0179225790644
 10
406.137400453266
 20
274.7252647303643
  0
LWPOLYLINE
  5
274
330
1F
100
AcDbEntity
  8
0
  6
Continuous
 62
     7
370
    25
100
AcDbPolyline
 90
       43
 70
   128
 43
0.0
 10
425.9363903264893
 20
263.2955511648463
 10
425.4294371338727
 20
262.955476574971
 10
425.0159455424354
 20
262.5755819483018
 10
424.7051522710559
 20
262.1643535030418
 10
424.5039999278463
 20
261.7309774031232
 10
424.4169819237597
 20
261.2851345544861
 10
424.4460420972145
 20
260.8367843496357
 10
424.5905312919562
 20
260.395942191272
 10
424.8472218581355
 20
259.9724557647431
 10
425.2103797526723
 20
259.5757850570274
 10
425.671892628303
 20
259.2147910362568
 10
426.2214510500131
 20
258.8975377123303
 10
426.8467787907796
 20
258.6311120002595
 10
427.5339070621968
 20
258.4214654101966
 10
428.2674865541263
 20
258.2732811005329
 10
429.0311303129222
 20
258.1898692638794
 10
429.8077797988963
 20
258.1730931828329
 10
430.5800859459065
 20
258.2233276073223
 10
431.3307967108262
 20
258.3394503833144
 10
432.0431424556793
 20
258.5188675198807
 10
432.7012105536416
 20
258.7575711346681
 10
433.2903008508294
 20
259.0502289833682
 10
433.7972540434461
 20
259.3903035732436
 10
434.2107456348834
 20
259.7701981999128
 10
434.5215389062629
 20
260.1814266451728
 10
434.7226912494725
 20
260.6148027450914
 10
434.809709253559
 20
261.0606455937285
 10
434.7806490801042
 20
261.5089957985789
 10
434.6361598853625
 20
261.9498379569426
 10
434.3794693191833
 20
262.3733243834714
 10
434.0163114246464
 20
262.7699950911871
 10
433.5547985490157
 20
263.1309891119578
 10
433.0052401273056
 20
263.4482424358842
 10
432.379912386539
 20
263.7146681479551
 10
431.692784115122
 20
263.924314738018
 10
430.9592046231924
 20
264.0724990476816
 10
430.1955608643966
 20
264.1559108843351
 10
429.4189113784224
 20
264.1726869653817
 10
428.6466052314121
 20
264.1224525408923
 10
427.8958944664925
 20
264.0063297649001
 10
427.1835487216394
 20
263.8269126283338
 10
426.5254806236771
 20
263.5882090135464
 10
425.9363903264893
 20
263.2955511648463
  0
LINE
  5
275
330
1F
100
AcDbEntity
  8
0
  6
Continuous
 62
     7
370
    25
100
AcDbLine
 10
429.259792198066
 20
252.8043751777669
 30
0.0
 11
429.259792198066
 21
254.8457272074813
 31
0.0
  0
LINE
  5
276
330
1F
100
AcDbEntity
  8
0
  6
Continuous
 62
     7
370
    25
100
AcDbLine
 10
432.7953261039988
 20
254.8457272074813
 30
0.0
 11
432.7953261039988
 21
252.8043751777669
 31
0.0
  0
LINE
  5
277
330
1F
100
AcDbEntity
  8
0
  6
Continuous
 62
     7
370
    25
100
AcDbLine
 10
432.7953261039988
 20
252.8043751777669
 30
0.0
 11
429.259792198066
 21
252.8043751777669
 31
0.0
  0
LINE
  5
278
330
1F
100
AcDbEntity
  8
0
  6
Continuous
 62
     7
370
    25
100
AcDbLine
 10
400.2684141694177
 20
271.5820934998468
 30
0.0
 11
400.2684141694177
 21
269.5407414701324
 31
0.0
  0
LINE
  5
279
330
1F
100
AcDbEntity
  8
0
  6
Continuous
 62
     7
370
    25
100
AcDbLine
 10
429.259792198066
 20
252.8043751777669
 30
0.0
 11
400.2684141694177
 21
269.5407414701324
 31
0.0
  0
LINE
  5
27A
330
1F
100
AcDbEntity
  8
0
  6
Continuous
 62
     7
370
    25
100
AcDbLine
 10
440.5735006970508
 20
257.2946197927918
 30
0.0
 11
440.5735006970508
 21
259.3359718225062
 31
0.0
  0
LINE
  5
27B
330
1F
100
AcDbEntity
  8
0
  6
Continuous
 62
     7
370
    25
100
AcDbLine
 10
432.7953261039988
 20
252.8043751777669
 30
0.0
 11
440.5735006970508
 21
257.2946197927918
 31
0.0
  0
LINE
  5
27C
330
1F
100
AcDbEntity
  8
0
  6
Continuous
 62
     7
370
    25
100
AcDbLine
 10
380.9997543820843
 20
295.1563421789483
 30
0.0
 11
382.9442980303473
 21
296.2789033327044
 31
0.0
  0
LINE
  5
27D
330
1F
100
AcDbEntity
  8
0
  6
Continuous
 62
     7
370
    25
100
AcDbLine
 10
380.9997543820843
 20
295.1563421789483
 30
0.0
 11
380.9997543820843
 21
293.1149901492338
 31
0.0
  0
LINE
  5
27E
330
1F
100
AcDbEntity
  8
0
  6
Continuous
 62
     7
370
    25
100
AcDbLine
 10
375.6964535231852
 20
290.0534597298987
 30
0.0
 11
380.9997543820843
 21
293.1149901492338
 31
0.0
  0
LINE
  5
27F
330
1F
100
AcDbEntity
  8
0
  6
Continuous
 62
     7
370
    25
100
AcDbLine
 10
375.6964535231852
 20
290.0534597298987
 30
0.0
 11
375.6964535231852
 21
292.0948117596131
 31
0.0
  0
LINE
  5
280
330
1F
100
AcDbEntity
  8
0
  6
Continuous
 62
     7
370
    25
100
AcDbLine
 10
375.6964535231852
 20
292.0948117596131
 30
0.0
 11
373.7519098749222
 21
290.9722506058569
 31
0.0
  0
LINE
  5
281
330
1F
100
AcDbEntity
  8
0
  6
Continuous
 62
     7
370
    25
100
AcDbLine
 10
373.7519098749222
 20
290.9722506058569
 30
0.0
 11
373.7519098749222
 21
349.354918655688
 31
0.0
  0
LINE
  5
282
330
1F
100
AcDbEntity
  8
0
  6
Continuous
 62
     7
370
    25
100
AcDbLine
 10
375.5196768278886
 20
352.4167808251808
 30
0.0
 11
373.7519098749222
 21
349.354918655688
 31
0.0
  0
LINE
  5
283
330
1F
100
AcDbEntity
  8
0
  6
Continuous
 62
     7
370
    25
100
AcDbLine
 10
375.5196768278886
 20
352.4167808251808
 30
0.0
 11
381.1765310773809
 21
355.6824132724716
 31
0.0
  0
LINE
  5
284
330
1F
100
AcDbEntity
  8
0
  6
Continuous
 62
     7
370
    25
100
AcDbLine
 10
382.9442980303473
 20
354.6615713825356
 30
0.0
 11
381.1765310773809
 21
355.6824132724716
 31
0.0
  0
LINE
  5
285
330
1F
100
AcDbEntity
  8
0
  6
Continuous
 62
     7
370
    25
100
AcDbLine
 10
382.9442980303473
 20
296.2789033327044
 30
0.0
 11
382.9442980303473
 21
354.6615713825356
 31
0.0
  0
LINE
  5
286
330
1F
100
AcDbEntity
  8
0
  6
Continuous
 62
     7
370
    25
100
AcDbLine
 10
373.7519098749222
 20
349.354918655688
 30
0.0
 11
371.9841429219558
 21
350.3754287954663
 31
0.0
  0
LINE
  5
287
330
1F
100
AcDbEntity
  8
0
  6
Continuous
 62
     7
370
    25
100
AcDbLine
 10
371.9841429219558
 20
350.3754287954663
 30
0.0
 11
373.7519098749222
 21
353.4372909649591
 31
0.0
  0
LINE
  5
288
330
1F
100
AcDbEntity
  8
0
  6
Continuous
 62
     7
370
    25
100
AcDbLine
 10
373.7519098749222
 20
353.4372909649591
 30
0.0
 11
375.5196768278886
 21
352.4167808251808
 31
0.0
  0
LWPOLYLINE
  5
289
330
1F
100
AcDbEntity
  8
0
  6
Continuous
 62
     7
370
    25
100
AcDbPolyline
 90
        7
 70
   128
 43
0.0
 10
427.7041572794557
 20
260.2336889953536
 10
427.3489350552067
 20
259.9804542849709
 10
427.0926784371169
 20
259.690117861323
 10
426.9465870690525
 20
259.3753688193118
 10
426.917045844822
 20
259.0499632024068
 10
427.0053458576789
 20
258.7281227975362
 10
427.115292453296
 20
258.5400700784397
  0
LWPOLYLINE
  5
28A
330
1F
100
AcDbEntity
  8
0
  6
Continuous
 62
     7
370
    25
100
AcDbPolyline
 90
       15
 70
   128
 43
0.0
 10
432.1113987240237
 20
258.5400700784411
 10
432.1340127402018
 20
258.5729582274628
 10
432.2801041082662
 20
258.887707269474
 10
432.3096453324967
 20
259.2131128863791
 10
432.2213453196399
 20
259.5349532912497
 10
432.019063203968
 20
259.8391625140316
 10
431.7116396845931
 20
260.1124451519314
 10
431.312510644494
 20
260.3428574423172
 10
430.8391199379561
 20
260.5203292624583
 10
430.3121570104361
 20
260.6371042422104
 10
429.7546526705153
 20
260.6880787546096
 10
429.1909725330507
 20
260.6710249688614
 10
428.6457521248871
 20
260.586688217236
 10
428.1428201941188
 20
260.4387544204722
 10
427.7041572794557
 20
260.2336889953536
  0
LINE
  5
28B
330
1F
100
AcDbEntity
  8
0
  6
Continuous
 62
     7
370
    25
100
AcDbLine
 10
373.7519098749222
 20
290.9722506058569
 30
0.0
 11
371.9841429219558
 21
291.9927607456352
 31
0.0
  0
LINE
  5
28C
330
1F
100
AcDbEntity
  8
0
  6
Continuous
 62
     7
370
    25
100
AcDbLine
 10
371.9841429219558
 20
350.3754287954663
 30
0.0
 11
371.9841429219558
 21
291.9927607456352
 31
0.0
  0
LINE
  5
28D
330
1F
100
AcDbEntity
  8
0
  6
Continuous
 62
     7
370
    25
100
AcDbLine
 10
381.1765310773809
 20
355.6824132724716
 30
0.0
 11
379.4087641244146
 21
356.70292341225
 31
0.0
  0
LINE
  5
28E
330
1F
100
AcDbEntity
  8
0
  6
Continuous
 62
     7
370
    25
100
AcDbLine
 10
373.7519098749222
 20
353.4372909649591
 30
0.0
 11
379.4087641244146
 21
356.70292341225
 31
0.0
  0
LWPOLYLINE
  5
28F
330
1F
100
AcDbEntity
  8
0
  6
Continuous
 62
     7
370
    25
100
AcDbPolyline
 90
        7
 70
   128
 43
0.0
 10
407.9051674062324
 20
271.6634025608715
 10
407.5499451819834
 20
271.4101678504889
 10
407.2936885638936
 20
271.1198314268408
 10
407.1475971958292
 20
270.8050823848297
 10
407.1180559715987
 20
270.4796767679247
 10
407.2063559844556
 20
270.1578363630541
 10
407.316302580077
 20
269.9697836439515
  0
LWPOLYLINE
  5
290
330
1F
100
AcDbEntity
  8
0
  6
Continuous
 62
     7
370
    25
100
AcDbPolyline
 90
       15
 70
   128
 43
0.0
 10
412.3124088507954
 20
269.9697836439519
 10
412.3350228669785
 20
270.0026717929808
 10
412.481114235043
 20
270.317420834992
 10
412.5106554592734
 20
270.642826451897
 10
412.4223554464165
 20
270.9646668567676
 10
412.2200733307447
 20
271.2688760795495
 10
411.9126498113699
 20
271.5421587174493
 10
411.5135207712706
 20
271.7725710078351
 10
411.0401300647328
 20
271.9500428279762
 10
410.5131671372129
 20
272.0668178077283
 10
409.955662797292
 20
272.1177923201275
 10
409.3919826598274
 20
272.1007385343793
 10
408.8467622516637
 20
272.016401782754
 10
408.3438303208955
 20
271.8684679859902
 10
407.9051674062324
 20
271.6634025608715
  0
LINE
  5
291
330
1F
100
AcDbEntity
  8
0
  6
Continuous
 62
     7
370
    25
100
AcDbLine
 10
380.4694242961943
 20
282.1950672033845
 30
0.0
 11
380.4694242961943
 21
284.2364192330988
 31
0.0
  0
LINE
  5
292
330
1F
100
AcDbEntity
  8
0
  6
Continuous
 62
     7
370
    25
100
AcDbLine
 10
380.4694242961943
 20
282.1950672033845
 30
0.0
 11
400.2684141694177
 21
270.7653536378665
 31
0.0
  0
ARC
  5
293
330
1F
100
AcDbEntity
  8
0
  6
Continuous
 62
     7
370
    25
100
AcDbCircle
 10
376.999118772954
 20
289.9888803563697
 30
0.0
 40
3.073609615144341
100
AcDbArc
 50
182.6054784856546
 51
237.3945216599727
  0
ARC
  5
294
330
1F
100
AcDbEntity
  8
0
  6
Continuous
 62
     7
370
    25
100
AcDbCircle
 10
377.2316696245528
 20
290.1233205821594
 30
0.0
 40
1.536804807572211
100
AcDbArc
 50
182.6054784856577
 51
237.3945216599715
  0
LINE
  5
295
330
1F
100
AcDbEntity
  8
0
  6
Continuous
 62
     7
370
    25
100
AcDbLine
 10
373.9286865702188
 20
291.0743016198347
 30
0.0
 11
373.9286865702188
 21
289.8491586518485
 31
0.0
  0
LINE
  5
296
330
1F
100
AcDbEntity
  8
0
  6
Continuous
 62
     7
370
    25
100
AcDbLine
 10
375.3429001325919
 20
287.3996689162543
 30
0.0
 11
380.6459136562935
 21
284.3383043719979
 31
0.0
  0
ARC
  5
297
330
1F
100
AcDbEntity
  8
0
  6
Continuous
 62
     7
370
    25
100
AcDbCircle
 10
382.5349704834516
 20
293.1848510014943
 30
0.0
 40
1.536804807571883
100
AcDbArc
 50
182.605478485652
 51
237.3945216599787
  0
MTEXT
  5
2E1
330
1F
100
AcDbEntity
  8
0
  6
Continuous
 62
     7
370
     0
100
AcDbMText
 10
310.300009396464
 20
477.8996697693875
 30
0.0
 40
10.58333333333333
 41
0.0
 71
     1
 72
     1
  1
{P35EP90}
  7
SLDTEXTSTYLE0
 73
     1
 44
1.0
1001
ACAD
1000
ACAD_MTEXT_DEFINED_HEIGHT_BEGIN
1070
    46
1040
10.58333333333333
1000
ACAD_MTEXT_DEFINED_HEIGHT_END
  0
ENDSEC
  0
SECTION
  2
OBJECTS
  0
DICTIONARY
  5
C
330
0
100
AcDbDictionary
281
     1
  3
ACAD_DETAILVIEWSTYLE
350
30E
  3
ACAD_GROUP
350
D
  3
ACAD_LAYOUT
350
1A
  3
ACAD_MATERIAL
350
2FC
  3
ACAD_MLEADERSTYLE
350
302
  3
ACAD_MLINESTYLE
350
17
  3
ACAD_PLOTSETTINGS
350
19
  3
ACAD_PLOTSTYLENAME
350
E
  3
ACAD_SCALELIST
350
47
  3
ACAD_SECTIONVIEWSTYLE
350
30F
  3
ACAD_TABLESTYLE
350
300
  3
ACDB_RECOMPOSE_DATA
350
30A
  3
AcDbVariableDictionary
350
304
  3
APPDATA
350
2B9
  0
DICTIONARY
  5
30E
102
{ACAD_REACTORS
330
C
102
}
330
C
100
AcDbDictionary
281
     1
  0
DICTIONARY
  5
D
102
{ACAD_REACTORS
330
C
102
}
330
C
100
AcDbDictionary
281
     1
  0
DICTIONARY
  5
1A
102
{ACAD_REACTORS
330
C
102
}
330
C
100
AcDbDictionary
281
     1
  3
Layout1
350
1E
  3
Layout2
350
26
  3
Model
350
22
  0
DICTIONARY
  5
2FC
102
{ACAD_REACTORS
330
C
102
}
330
C
100
AcDbDictionary
281
     1
  3
ByBlock
350
2FE
  3
ByLayer
350
2FD
  3
Global
350
2FF
  0
DICTIONARY
  5
302
102
{ACAD_REACTORS
330
C
102
}
330
C
100
AcDbDictionary
281
     1
  3
Standard
350
303
  0
DICTIONARY
  5
17
102
{ACAD_REACTORS
330
C
102
}
330
C
100
AcDbDictionary
281
     1
  3
Standard
350
18
  0
DICTIONARY
  5
19
102
{ACAD_REACTORS
330
C
102
}
330
C
100
AcDbDictionary
281
     1
  0
ACDBDICTIONARYWDFLT
  5
E
102
{ACAD_REACTORS
330
C
102
}
330
C
100
AcDbDictionary
281
     1
  3
Normal
350
F
100
AcDbDictionaryWithDefault
340
F
  0
DICTIONARY
  5
47
102
{ACAD_REACTORS
330
C
102
}
330
C
100
AcDbDictionary
281
     1
  3
A0
350
48
  3
A1
350
49
  3
A2
350
4A
  3
A3
350
4B
  3
A4
350
4C
  3
A5
350
4D
  3
A6
350
4E
  3
A7
350
4F
  3
A8
350
50
  3
A9
350
51
  3
B0
350
52
  3
B1
350
53
  3
B2
350
54
  3
B3
350
55
  3
B4
350
56
  3
B5
350
57
  3
B6
350
58
  3
B7
350
59
  3
B8
350
5A
  3
B9
350
5B
  3
C0
350
5C
  3
C1
350
5D
  3
C2
350
5E
  3
C3
350
5F
  3
C4
350
60
  3
C5
350
61
  3
C6
350
62
  3
C7
350
63
  3
C8
350
64
  3
C9
350
65
  3
D0
350
66
  3
D1
350
67
  3
D2
350
68
  0
DICTIONARY
  5
30F
102
{ACAD_REACTORS
330
C
102
}
330
C
100
AcDbDictionary
281
     1
  0
DICTIONARY
  5
300
102
{ACAD_REACTORS
330
C
102
}
330
C
100
AcDbDictionary
281
     1
  3
Standard
350
301
  0
XRECORD
  5
30A
102
{ACAD_REACTORS
330
C
102
}
330
C
100
AcDbXrecord
280
     1
 90
        1
330
301
  0
DICTIONARY
  5
304
102
{ACAD_REACTORS
330
C
102
}
330
C
100
AcDbDictionary
281
     1
  3
CANNOSCALE
350
305
  3
CMLEADERSTYLE
350
30C
  3
CTABLESTYLE
350
30B
  3
MSLTSCALE
350
30D
  0
DICTIONARY
  5
2B9
102
{ACAD_REACTORS
330
C
102
}
330
C
100
AcDbDictionary
281
     1
  0
LAYOUT
  5
1E
102
{ACAD_REACTORS
330
1A
102
}
330
1A
100
AcDbPlotSettings
  1

  2
none_device
  4

  6

 40
0.0
 41
0.0
 42
0.0
 43
0.0
 44
0.0
 45
0.0
 46
0.0
 47
0.0
 48
0.0
 49
0.0
140
0.0
141
0.0
142
1.0
143
1.0
 70
   688
 72
     1
 73
     0
 74
     5
  7

 75
    16
 76
     0
 77
     2
 78
   300
147
1.0
148
0.0
149
0.0
100
AcDbLayout
  1
Layout1
 70
     1
 71
     1
 10
0.0
 20
0.0
 11
420.0
 21
297.0
 12
0.0
 22
0.0
 32
0.0
 14
1.000000000000000E+20
 24
1.000000000000000E+20
 34
1.000000000000000E+20
 15
-1.000000000000000E+20
 25
-1.000000000000000E+20
 35
-1.000000000000000E+20
146
0.0
 13
0.0
 23
0.0
 33
0.0
 16
1.0
 26
0.0
 36
0.0
 17
0.0
 27
1.0
 37
0.0
 76
     0
330
1B
  0
LAYOUT
  5
26
102
{ACAD_REACTORS
330
1A
102
}
330
1A
100
AcDbPlotSettings
  1

  2
none_device
  4

  6

 40
0.0
 41
0.0
 42
0.0
 43
0.0
 44
0.0
 45
0.0
 46
0.0
 47
0.0
 48
0.0
 49
0.0
140
0.0
141
0.0
142
1.0
143
1.0
 70
   688
 72
     1
 73
     0
 74
     5
  7

 75
    16
 76
     0
 77
     2
 78
   300
147
1.0
148
0.0
149
0.0
100
AcDbLayout
  1
Layout2
 70
     1
 71
     2
 10
0.0
 20
0.0
 11
0.0
 21
0.0
 12
0.0
 22
0.0
 32
0.0
 14
0.0
 24
0.0
 34
0.0
 15
0.0
 25
0.0
 35
0.0
146
0.0
 13
0.0
 23
0.0
 33
0.0
 16
1.0
 26
0.0
 36
0.0
 17
0.0
 27
1.0
 37
0.0
 76
     0
330
23
  0
LAYOUT
  5
22
102
{ACAD_REACTORS
330
1A
102
}
330
1A
100
AcDbPlotSettings
  1

  2
none_device
  4
Letter_(8.50_x_11.00_Inches)
  6

 40
6.35
 41
6.35
 42
6.35000508
 43
6.35000508
 44
215.9
 45
279.4
 46
0.0
 47
0.0
 48
0.0
 49
0.0
140
0.0
141
0.0
142
1.0
143
1.0
 70
  1712
 72
     1
 73
     0
 74
     0
  7

 75
     0
 76
     0
 77
     2
 78
   300
147
1.0
148
0.0
149
0.0
100
AcDbLayout
  1
Model
 70
     1
 71
     0
 10
0.0
 20
0.0
 11
840.0
 21
594.0
 12
0.0
 22
0.0
 32
0.0
 14
231.5487383268488
 24
252.8043751777669
 34
0.0
 15
440.5735006970508
 25
477.8996697693875
 35
0.0
146
0.0
 13
0.0
 23
0.0
 33
0.0
 16
1.0
 26
0.0
 36
0.0
 17
0.0
 27
1.0
 37
0.0
 76
     0
330
1F
331
29
  0
MATERIAL
  5
2FE
102
{ACAD_REACTORS
330
2FC
102
}
330
2FC
100
AcDbMaterial
  1
ByBlock
  0
MATERIAL
  5
2FD
102
{ACAD_REACTORS
330
2FC
102
}
330
2FC
100
AcDbMaterial
  1
ByLayer
  0
MATERIAL
  5
2FF
102
{ACAD_REACTORS
330
2FC
102
}
330
2FC
100
AcDbMaterial
  1
Global
  0
MLEADERSTYLE
  5
303
102
{ACAD_REACTORS
330
302
102
}
330
302
100
AcDbMLeaderStyle
170
     2
171
     1
172
     0
 90
        2
 40
0.0
 41
0.0
173
     1
 91
-1056964608
340
14
 92
       -2
290
     1
 42
2.0
291
     1
 43
8.0
  3
Standard
341
0
 44
4.0
300

342
11
174
     1
178
     1
175
     1
176
     0
 93
-1056964608
 45
4.0
292
     0
297
     0
 46
4.0
343
0
 94
-1056964608
 47
1.0
 49
1.0
140
1.0
293
     1
141
0.0
294
     1
177
     0
142
1.0
295
     0
296
     0
143
3.75
1001
ACAD_MLEADERVER
1070
     2
  0
MLINESTYLE
  5
18
102
{ACAD_REACTORS
330
17
102
}
330
17
100
AcDbMlineStyle
  2
Standard
 70
     0
  3

 62
   256
 51
90.0
 52
90.0
 71
     2
 49
0.5
 62
   256
  6
BYLAYER
 49
-0.5
 62
   256
  6
BYLAYER
  0
ACDBPLACEHOLDER
  5
F
102
{ACAD_REACTORS
330
E
102
}
330
E
  0
SCALE
  5
48
102
{ACAD_REACTORS
330
47
102
}
330
47
100
AcDbScale
 70
     0
300
1:1
140
1.0
141
1.0
290
     1
  0
SCALE
  5
49
102
{ACAD_REACTORS
330
47
102
}
330
47
100
AcDbScale
 70
     0
300
1:2
140
1.0
141
2.0
290
     0
  0
SCALE
  5
4A
102
{ACAD_REACTORS
330
47
102
}
330
47
100
AcDbScale
 70
     0
300
1:4
140
1.0
141
4.0
290
     0
  0
SCALE
  5
4B
102
{ACAD_REACTORS
330
47
102
}
330
47
100
AcDbScale
 70
     0
300
1:5
140
1.0
141
5.0
290
     0
  0
SCALE
  5
4C
102
{ACAD_REACTORS
330
47
102
}
330
47
100
AcDbScale
 70
     0
300
1:8
140
1.0
141
8.0
290
     0
  0
SCALE
  5
4D
102
{ACAD_REACTORS
330
47
102
}
330
47
100
AcDbScale
 70
     0
300
1:10
140
1.0
141
10.0
290
     0
  0
SCALE
  5
4E
102
{ACAD_REACTORS
330
47
102
}
330
47
100
AcDbScale
 70
     0
300
1:16
140
1.0
141
16.0
290
     0
  0
SCALE
  5
4F
102
{ACAD_REACTORS
330
47
102
}
330
47
100
AcDbScale
 70
     0
300
1:20
140
1.0
141
20.0
290
     0
  0
SCALE
  5
50
102
{ACAD_REACTORS
330
47
102
}
330
47
100
AcDbScale
 70
     0
300
1:30
140
1.0
141
30.0
290
     0
  0
SCALE
  5
51
102
{ACAD_REACTORS
330
47
102
}
330
47
100
AcDbScale
 70
     0
300
1:40
140
1.0
141
40.0
290
     0
  0
SCALE
  5
52
102
{ACAD_REACTORS
330
47
102
}
330
47
100
AcDbScale
 70
     0
300
1:50
140
1.0
141
50.0
290
     0
  0
SCALE
  5
53
102
{ACAD_REACTORS
330
47
102
}
330
47
100
AcDbScale
 70
     0
300
1:100
140
1.0
141
100.0
290
     0
  0
SCALE
  5
54
102
{ACAD_REACTORS
330
47
102
}
330
47
100
AcDbScale
 70
     0
300
2:1
140
2.0
141
1.0
290
     0
  0
SCALE
  5
55
102
{ACAD_REACTORS
330
47
102
}
330
47
100
AcDbScale
 70
     0
300
4:1
140
4.0
141
1.0
290
     0
  0
SCALE
  5
56
102
{ACAD_REACTORS
330
47
102
}
330
47
100
AcDbScale
 70
     0
300
8:1
140
8.0
141
1.0
290
     0
  0
SCALE
  5
57
102
{ACAD_REACTORS
330
47
102
}
330
47
100
AcDbScale
 70
     0
300
10:1
140
10.0
141
1.0
290
     0
  0
SCALE
  5
58
102
{ACAD_REACTORS
330
47
102
}
330
47
100
AcDbScale
 70
     0
300
100:1
140
100.0
141
1.0
290
     0
  0
SCALE
  5
59
102
{ACAD_REACTORS
330
47
102
}
330
47
100
AcDbScale
 70
     0
300
1/128" = 1'-0"
140
0.0078125
141
12.0
290
     0
  0
SCALE
  5
5A
102
{ACAD_REACTORS
330
47
102
}
330
47
100
AcDbScale
 70
     0
300
1/64" = 1'-0"
140
0.015625
141
12.0
290
     0
  0
SCALE
  5
5B
102
{ACAD_REACTORS
330
47
102
}
330
47
100
AcDbScale
 70
     0
300
1/32" = 1'-0"
140
0.03125
141
12.0
290
     0
  0
SCALE
  5
5C
102
{ACAD_REACTORS
330
47
102
}
330
47
100
AcDbScale
 70
     0
300
1/16" = 1'-0"
140
0.0625
141
12.0
290
     0
  0
SCALE
  5
5D
102
{ACAD_REACTORS
330
47
102
}
330
47
100
AcDbScale
 70
     0
300
3/32" = 1'-0"
140
0.09375
141
12.0
290
     0
  0
SCALE
  5
5E
102
{ACAD_REACTORS
330
47
102
}
330
47
100
AcDbScale
 70
     0
300
1/8" = 1'-0"
140
0.125
141
12.0
290
     0
  0
SCALE
  5
5F
102
{ACAD_REACTORS
330
47
102
}
330
47
100
AcDbScale
 70
     0
300
3/16" = 1'-0"
140
0.1875
141
12.0
290
     0
  0
SCALE
  5
60
102
{ACAD_REACTORS
330
47
102
}
330
47
100
AcDbScale
 70
     0
300
1/4" = 1'-0"
140
0.25
141
12.0
290
     0
  0
SCALE
  5
61
102
{ACAD_REACTORS
330
47
102
}
330
47
100
AcDbScale
 70
     0
300
3/8" = 1'-0"
140
0.375
141
12.0
290
     0
  0
SCALE
  5
62
102
{ACAD_REACTORS
330
47
102
}
330
47
100
AcDbScale
 70
     0
300
1/2" = 1'-0"
140
0.5
141
12.0
290
     0
  0
SCALE
  5
63
102
{ACAD_REACTORS
330
47
102
}
330
47
100
AcDbScale
 70
     0
300
3/4" = 1'-0"
140
0.75
141
12.0
290
     0
  0
SCALE
  5
64
102
{ACAD_REACTORS
330
47
102
}
330
47
100
AcDbScale
 70
     0
300
1" = 1'-0"
140
1.0
141
12.0
290
     0
  0
SCALE
  5
65
102
{ACAD_REACTORS
330
47
102
}
330
47
100
AcDbScale
 70
     0
300
1-1/2" = 1'-0"
140
1.5
141
12.0
290
     0
  0
SCALE
  5
66
102
{ACAD_REACTORS
330
47
102
}
330
47
100
AcDbScale
 70
     0
300
3" = 1'-0"
140
3.0
141
12.0
290
     0
  0
SCALE
  5
67
102
{ACAD_REACTORS
330
47
102
}
330
47
100
AcDbScale
 70
     0
300
6" = 1'-0"
140
6.0
141
12.0
290
     0
  0
SCALE
  5
68
102
{ACAD_REACTORS
330
47
102
}
330
47
100
AcDbScale
 70
     0
300
1'-0" = 1'-0"
140
12.0
141
12.0
290
     0
  0
TABLESTYLE
  5
301
102
{ACAD_REACTORS
330
300
102
}
102
{ACAD_XDICTIONARY
360
306
102
}
330
300
100
AcDbTableStyle
  3
Standard
 70
     0
 71
     0
 40
0.06
 41
0.06
280
     0
281
     0
  7
Standard
140
4.5
170
     2
 62
     0
 63
   257
283
     0
274
    -2
284
     1
 64
     0
275
    -2
285
     1
 65
     0
276
    -2
286
     1
 66
     0
277
    -2
287
     1
 67
     0
278
    -2
288
     1
 68
     0
279
    -2
289
     1
 69
     0
  7
Standard
140
6.0
170
     5
 62
     0
 63
   257
283
     0
274
    -2
284
     1
 64
     0
275
    -2
285
     1
 65
     0
276
    -2
286
     1
 66
     0
277
    -2
287
     1
 67
     0
278
    -2
288
     1
 68
     0
279
    -2
289
     1
 69
     0
  7
Standard
140
4.5
170
     5
 62
     0
 63
   257
283
     0
274
    -2
284
     1
 64
     0
275
    -2
285
     1
 65
     0
276
    -2
286
     1
 66
     0
277
    -2
287
     1
 67
     0
278
    -2
288
     1
 68
     0
279
    -2
289
     1
 69
     0
  0
DICTIONARYVAR
  5
305
102
{ACAD_REACTORS
330
304
102
}
330
304
100
DictionaryVariables
280
     0
  1
1:1
  0
DICTIONARYVAR
  5
30C
102
{ACAD_REACTORS
330
304
102
}
330
304
100
DictionaryVariables
280
     0
  1
Standard
  0
DICTIONARYVAR
  5
30B
102
{ACAD_REACTORS
330
304
102
}
330
304
100
DictionaryVariables
280
     0
  1
Standard
  0
DICTIONARYVAR
  5
30D
102
{ACAD_REACTORS
330
304
102
}
330
304
100
DictionaryVariables
280
     0
  1
0
  0
DICTIONARY
  5
306
330
301
100
AcDbDictionary
280
     1
281
     1
  3
ACAD_ROUNDTRIP_2008_TABLESTYLE_CELLSTYLEMAP
360
308
  3
ACAD_XREC_ROUNDTRIP
360
307
  0
CELLSTYLEMAP
  5
308
102
{ACAD_REACTORS
330
306
102
}
330
306
100
AcDbCellStyleMap
 90
        3
300
CELLSTYLE
  1
TABLEFORMAT_BEGIN
 90
        5
170
     1
 91
        0
 92
    32768
 62
   257
 93
        1
300
CONTENTFORMAT
  1
CONTENTFORMAT_BEGIN
 90
        0
 91
        0
 92
        4
 93
        0
300

 40
0.0
140
1.0
 94
        5
 62
     0
340
11
144
6.0
309
CONTENTFORMAT_END
171
     1
301
MARGIN
  1
CELLMARGIN_BEGIN
 40
1.5
 40
1.5
 40
1.5
 40
1.5
 40
1.5
 40
1.5
309
CELLMARGIN_END
 94
        6
 95
        1
302
GRIDFORMAT
  1
GRIDFORMAT_BEGIN
 90
        0
 91
        1
 62
     0
 92
       -2
340
14
 93
        0
 40
0.045
309
GRIDFORMAT_END
 95
        2
302
GRIDFORMAT
  1
GRIDFORMAT_BEGIN
 90
        0
 91
        1
 62
     0
 92
       -2
340
14
 93
        0
 40
0.045
309
GRIDFORMAT_END
 95
        4
302
GRIDFORMAT
  1
GRIDFORMAT_BEGIN
 90
        0
 91
        1
 62
     0
 92
       -2
340
14
 93
        0
 40
0.045
309
GRIDFORMAT_END
 95
        8
302
GRIDFORMAT
  1
GRIDFORMAT_BEGIN
 90
        0
 91
        1
 62
     0
 92
       -2
340
14
 93
        0
 40
0.045
309
GRIDFORMAT_END
 95
       16
302
GRIDFORMAT
  1
GRIDFORMAT_BEGIN
 90
        0
 91
        1
 62
     0
 92
       -2
340
14
 93
        0
 40
0.045
309
GRIDFORMAT_END
 95
       32
302
GRIDFORMAT
  1
GRIDFORMAT_BEGIN
 90
        0
 91
        1
 62
     0
 92
       -2
340
14
 93
        0
 40
0.045
309
GRIDFORMAT_END
309
TABLEFORMAT_END
  1
CELLSTYLE_BEGIN
 90
        1
 91
        1
300
_TITLE
309
CELLSTYLE_END
300
CELLSTYLE
  1
TABLEFORMAT_BEGIN
 90
        5
170
     1
 91
        0
 92
        0
 62
   257
 93
        1
300
CONTENTFORMAT
  1
CONTENTFORMAT_BEGIN
 90
        0
 91
        0
 92
        4
 93
        0
300

 40
0.0
140
1.0
 94
        5
 62
     0
340
11
144
4.5
309
CONTENTFORMAT_END
171
     1
301
MARGIN
  1
CELLMARGIN_BEGIN
 40
1.5
 40
1.5
 40
1.5
 40
1.5
 40
1.5
 40
1.5
309
CELLMARGIN_END
 94
        6
 95
        1
302
GRIDFORMAT
  1
GRIDFORMAT_BEGIN
 90
        0
 91
        1
 62
     0
 92
       -2
340
14
 93
        0
 40
0.045
309
GRIDFORMAT_END
 95
        2
302
GRIDFORMAT
  1
GRIDFORMAT_BEGIN
 90
        0
 91
        1
 62
     0
 92
       -2
340
14
 93
        0
 40
0.045
309
GRIDFORMAT_END
 95
        4
302
GRIDFORMAT
  1
GRIDFORMAT_BEGIN
 90
        0
 91
        1
 62
     0
 92
       -2
340
14
 93
        0
 40
0.045
309
GRIDFORMAT_END
 95
        8
302
GRIDFORMAT
  1
GRIDFORMAT_BEGIN
 90
        0
 91
        1
 62
     0
 92
       -2
340
14
 93
        0
 40
0.045
309
GRIDFORMAT_END
 95
       16
302
GRIDFORMAT
  1
GRIDFORMAT_BEGIN
 90
        0
 91
        1
 62
     0
 92
       -2
340
14
 93
        0
 40
0.045
309
GRIDFORMAT_END
 95
       32
302
GRIDFORMAT
  1
GRIDFORMAT_BEGIN
 90
        0
 91
        1
 62
     0
 92
       -2
340
14
 93
        0
 40
0.045
309
GRIDFORMAT_END
309
TABLEFORMAT_END
  1
CELLSTYLE_BEGIN
 90
        2
 91
        1
300
_HEADER
309
CELLSTYLE_END
300
CELLSTYLE
  1
TABLEFORMAT_BEGIN
 90
        5
170
     1
 91
        0
 92
        0
 62
   257
 93
        1
300
CONTENTFORMAT
  1
CONTENTFORMAT_BEGIN
 90
        0
 91
        0
 92
        4
 93
        0
300

 40
0.0
140
1.0
 94
        2
 62
     0
340
11
144
4.5
309
CONTENTFORMAT_END
171
     1
301
MARGIN
  1
CELLMARGIN_BEGIN
 40
1.5
 40
1.5
 40
1.5
 40
1.5
 40
1.5
 40
1.5
309
CELLMARGIN_END
 94
        6
 95
        1
302
GRIDFORMAT
  1
GRIDFORMAT_BEGIN
 90
        0
 91
        1
 62
     0
 92
       -2
340
14
 93
        0
 40
0.045
309
GRIDFORMAT_END
 95
        2
302
GRIDFORMAT
  1
GRIDFORMAT_BEGIN
 90
        0
 91
        1
 62
     0
 92
       -2
340
14
 93
        0
 40
0.045
309
GRIDFORMAT_END
 95
        4
302
GRIDFORMAT
  1
GRIDFORMAT_BEGIN
 90
        0
 91
        1
 62
     0
 92
       -2
340
14
 93
        0
 40
0.045
309
GRIDFORMAT_END
 95
        8
302
GRIDFORMAT
  1
GRIDFORMAT_BEGIN
 90
        0
 91
        1
 62
     0
 92
       -2
340
14
 93
        0
 40
0.045
309
GRIDFORMAT_END
 95
       16
302
GRIDFORMAT
  1
GRIDFORMAT_BEGIN
 90
        0
 91
        1
 62
     0
 92
       -2
340
14
 93
        0
 40
0.045
309
GRIDFORMAT_END
 95
       32
302
GRIDFORMAT
  1
GRIDFORMAT_BEGIN
 90
        0
 91
        1
 62
     0
 92
       -2
340
14
 93
        0
 40
0.045
309
GRIDFORMAT_END
309
TABLEFORMAT_END
  1
CELLSTYLE_BEGIN
 90
        3
 91
        2
300
_DATA
309
CELLSTYLE_END
  0
XRECORD
  5
307
102
{ACAD_REACTORS
330
306
102
}
330
306
100
AcDbXrecord
280
     1
102
ACAD_ROUNDTRIP_PRE2007_TABLESTYLE
 90
        4
 91
        0
  1

 92
        4
 93
        0
  2

 94
        4
 95
        0
  3

  0
ENDSEC
  0
EOF
