  0
SECTION
  2
HEADER
  9
$ACADVER
  1
AC1015
  9
$ACADMAINTVER
 70
     6
  9
$DWGCODEPAGE
  3
ANSI_1252
  9
$INSBASE
 10
0.0
 20
0.0
 30
0.0
  9
$EXTMIN
 10
-117.5730809321544
 20
-157.6811415367187
 30
-0.0000000000000115
  9
$EXTMAX
 10
124.9822570617457
 20
87.52772733741176
 30
0.0000000000000343
  9
$LIMMIN
 10
-20.0
 20
-575.8499999999997
  9
$LIMMAX
 10
1785.35
 20
579.8499999999997
  9
$ORTHOMODE
 70
     1
  9
$REGENMODE
 70
     1
  9
$FILLMODE
 70
     1
  9
$QTEXTMODE
 70
     0
  9
$MIRRTEXT
 70
     1
  9
$LTSCALE
 40
10.0
  9
$ATTMODE
 70
     1
  9
$TEXTSIZE
 40
0.0
  9
$TRACEWID
 40
0.05
  9
$TEXTSTYLE
  7
Standard
  9
$CLAYER
  8
0
  9
$CELTYPE
  6
Continuous
  9
$CECOLOR
 62
   256
  9
$CELTSCALE
 40
1.0
  9
$DISPSILH
 70
     0
  9
$DIMSCALE
 40
1.0
  9
$DIMASZ
 40
1.25
  9
$DIMEXO
 40
0.0
  9
$DIMDLI
 40
0.38
  9
$DIMRND
 40
0.0
  9
$DIMDLE
 40
0.0
  9
$DIMEXE
 40
0.75
  9
$DIMTP
 40
0.0
  9
$DIMTM
 40
0.0
  9
$DIMTXT
 40
2.5
  9
$DIMCEN
 40
0.09
  9
$DIMTSZ
 40
0.0
  9
$DIMTOL
 70
     0
  9
$DIMLIM
 70
     0
  9
$DIMTIH
 70
     0
  9
$DIMTOH
 70
     0
  9
$DIMSE1
 70
     0
  9
$DIMSE2
 70
     0
  9
$DIMTAD
 70
     1
  9
$DIMZIN
 70
     0
  9
$DIMBLK
  1

  9
$DIMASO
 70
     1
  9
$DIMSHO
 70
     1
  9
$DIMPOST
  1

  9
$DIMAPOST
  1

  9
$DIMALT
 70
     0
  9
$DIMALTD
 70
     2
  9
$DIMALTF
 40
25.4
  9
$DIMLFAC
 40
1.0
  9
$DIMTOFL
 70
     0
  9
$DIMTVP
 40
0.0
  9
$DIMTIX
 70
     0
  9
$DIMSOXD
 70
     0
  9
$DIMSAH
 70
     0
  9
$DIMBLK1
  1

  9
$DIMBLK2
  1

  9
$DIMSTYLE
  2
Standard
  9
$DIMCLRD
 70
     7
  9
$DIMCLRE
 70
     7
  9
$DIMCLRT
 70
     7
  9
$DIMTFAC
 40
0.8
  9
$DIMGAP
 40
1.25
  9
$DIMJUST
 70
     0
  9
$DIMSD1
 70
     0
  9
$DIMSD2
 70
     0
  9
$DIMTOLJ
 70
     1
  9
$DIMTZIN
 70
     0
  9
$DIMALTZ
 70
     0
  9
$DIMALTTZ
 70
     0
  9
$DIMUPT
 70
     0
  9
$DIMDEC
 70
     2
  9
$DIMTDEC
 70
     4
  9
$DIMALTU
 70
     2
  9
$DIMALTTD
 70
     2
  9
$DIMTXSTY
  7
Standard
  9
$DIMAUNIT
 70
     0
  9
$DIMADEC
 70
     0
  9
$DIMALTRND
 40
0.0
  9
$DIMAZIN
 70
     0
  9
$DIMDSEP
 70
    46
  9
$DIMATFIT
 70
     3
  9
$DIMFRAC
 70
     0
  9
$DIMLDRBLK
  1

  9
$DIMLUNIT
 70
     2
  9
$DIMLWD
 70
     0
  9
$DIMLWE
 70
     0
  9
$DIMTMOVE
 70
     0
  9
$LUNITS
 70
     2
  9
$LUPREC
 70
     4
  9
$SKETCHINC
 40
0.1
  9
$FILLETRAD
 40
0.0
  9
$AUNITS
 70
     0
  9
$AUPREC
 70
     0
  9
$MENU
  1
acad
  9
$ELEVATION
 40
0.0
  9
$PELEVATION
 40
0.0
  9
$THICKNESS
 40
0.0
  9
$LIMCHECK
 70
     0
  9
$CHAMFERA
 40
0.0
  9
$CHAMFERB
 40
0.0
  9
$CHAMFERC
 40
0.0
  9
$CHAMFERD
 40
0.0
  9
$SKPOLY
 70
     0
  9
$TDCREATE
 40
2455301.760694445
  9
$TDUCREATE
 40
2455301.719027778
  9
$TDUPDATE
 40
2456349.698365937
  9
$TDUUPDATE
 40
2456349.656699271
  9
$TDINDWG
 40
0.1754613079
  9
$TDUSRTIMER
 40
2456349.65648206
  9
$USRTIMER
 70
     1
  9
$ANGBASE
 50
0.0
  9
$ANGDIR
 70
     0
  9
$PDMODE
 70
     0
  9
$PDSIZE
 40
0.0
  9
$PLINEWID
 40
0.0
  9
$SPLFRAME
 70
     0
  9
$SPLINETYPE
 70
     6
  9
$SPLINESEGS
 70
     8
  9
$HANDSEED
  5
D479
  9
$SURFTAB1
 70
     6
  9
$SURFTAB2
 70
     6
  9
$SURFTYPE
 70
     6
  9
$SURFU
 70
     6
  9
$SURFV
 70
     6
  9
$UCSBASE
  2

  9
$UCSNAME
  2

  9
$UCSORG
 10
0.0
 20
0.0
 30
0.0
  9
$UCSXDIR
 10
1.0
 20
0.0
 30
0.0
  9
$UCSYDIR
 10
0.0
 20
1.0
 30
0.0
  9
$UCSORTHOREF
  2

  9
$UCSORTHOVIEW
 70
     0
  9
$UCSORGTOP
 10
0.0
 20
0.0
 30
0.0
  9
$UCSORGBOTTOM
 10
0.0
 20
0.0
 30
0.0
  9
$UCSORGLEFT
 10
0.0
 20
0.0
 30
0.0
  9
$UCSORGRIGHT
 10
0.0
 20
0.0
 30
0.0
  9
$UCSORGFRONT
 10
0.0
 20
0.0
 30
0.0
  9
$UCSORGBACK
 10
0.0
 20
0.0
 30
0.0
  9
$PUCSBASE
  2

  9
$PUCSNAME
  2

  9
$PUCSORG
 10
0.0
 20
0.0
 30
0.0
  9
$PUCSXDIR
 10
1.0
 20
0.0
 30
0.0
  9
$PUCSYDIR
 10
0.0
 20
1.0
 30
0.0
  9
$PUCSORTHOREF
  2

  9
$PUCSORTHOVIEW
 70
     0
  9
$PUCSORGTOP
 10
0.0
 20
0.0
 30
0.0
  9
$PUCSORGBOTTOM
 10
0.0
 20
0.0
 30
0.0
  9
$PUCSORGLEFT
 10
0.0
 20
0.0
 30
0.0
  9
$PUCSORGRIGHT
 10
0.0
 20
0.0
 30
0.0
  9
$PUCSORGFRONT
 10
0.0
 20
0.0
 30
0.0
  9
$PUCSORGBACK
 10
0.0
 20
0.0
 30
0.0
  9
$USERI1
 70
     0
  9
$USERI2
 70
     0
  9
$USERI3
 70
     0
  9
$USERI4
 70
     0
  9
$USERI5
 70
     0
  9
$USERR1
 40
0.0
  9
$USERR2
 40
0.0
  9
$USERR3
 40
0.0
  9
$USERR4
 40
0.0
  9
$USERR5
 40
0.0
  9
$WORLDVIEW
 70
     1
  9
$SHADEDGE
 70
     3
  9
$SHADEDIF
 70
    70
  9
$TILEMODE
 70
     1
  9
$MAXACTVP
 70
    16
  9
$PINSBASE
 10
0.0
 20
0.0
 30
0.0
  9
$PLIMCHECK
 70
     0
  9
$PEXTMIN
 10
1.000000000000000E+20
 20
1.000000000000000E+20
 30
1.000000000000000E+20
  9
$PEXTMAX
 10
-1.000000000000000E+20
 20
-1.000000000000000E+20
 30
-1.000000000000000E+20
  9
$PLIMMIN
 10
0.0
 20
0.0
  9
$PLIMMAX
 10
0.0
 20
0.0
  9
$UNITMODE
 70
     0
  9
$VISRETAIN
 70
     0
  9
$PLINEGEN
 70
     1
  9
$PSLTSCALE
 70
     0
  9
$TREEDEPTH
 70
  3020
  9
$CMLSTYLE
  2
Standard
  9
$CMLJUST
 70
     0
  9
$CMLSCALE
 40
1.0
  9
$PROXYGRAPHICS
 70
     0
  9
$MEASUREMENT
 70
     1
  9
$CELWEIGHT
370
     0
  9
$ENDCAPS
280
     0
  9
$JOINSTYLE
280
     0
  9
$LWDISPLAY
290
     0
  9
$INSUNITS
 70
     0
  9
$HYPERLINKBASE
  1

  9
$STYLESHEET
  1

  9
$XEDIT
290
     1
  9
$CEPSNTYPE
380
     0
  9
$PSTYLEMODE
290
     1
  9
$FINGERPRINTGUID
  2

  9
$VERSIONGUID
  2
{1F94FF31-F676-456F-8864-32B3D6F53222}
  9
$EXTNAMES
290
     1
  9
$PSVPSCALE
 40
0.0
  9
$OLESTARTUP
290
     0
  0
ENDSEC
  0
SECTION
  2
CLASSES
  0
CLASS
  1
IMAGE
  2
AcDbRasterImage
  3
ISM
 90
      127
280
     0
281
     1
  0
CLASS
  1
DICTIONARYVAR
  2
AcDbDictionaryVar
  3
ObjectDBX Classes
 90
        0
280
     0
281
     0
  0
CLASS
  1
RASTERVARIABLES
  2
AcDbRasterVariables
  3
ISM
 90
        0
280
     0
281
     0
  0
CLASS
  1
IMAGEDEF
  2
AcDbRasterImageDef
  3
ISM
 90
        0
280
     0
281
     0
  0
CLASS
  1
IMAGEDEF_REACTOR
  2
AcDbRasterImageDefReactor
  3
ISM
 90
        1
280
     0
281
     0
  0
CLASS
  1
IDBUFFER
  2
AcDbIdBuffer
  3
ObjectDBX Classes
 90
        0
280
     0
281
     0
  0
CLASS
  1
SPATIAL_FILTER
  2
AcDbSpatialFilter
  3
ObjectDBX Classes
 90
        0
280
     0
281
     0
  0
CLASS
  1
SORTENTSTABLE
  2
AcDbSortentsTable
  3
ObjectDBX Classes
 90
        0
280
     0
281
     0
  0
CLASS
  1
LAYER_INDEX
  2
AcDbLayerIndex
  3
ObjectDBX Classes
 90
        0
280
     0
281
     0
  0
CLASS
  1
SPATIAL_INDEX
  2
AcDbSpatialIndex
  3
AutoCAD 2000
 90
        0
280
     0
281
     0
  0
CLASS
  1
OBJECT_PTR
  2
CAseDLPNTableRecord
  3
ASE-LPNTableRecord
 90
        1
280
     0
281
     0
  0
CLASS
  1
LAYOUT
  2
AcDbLayout
  3
ObjectDBX Classes
 90
        0
280
     0
281
     0
  0
CLASS
  1
PLOTSETTINGS
  2
AcDbPlotSettings
  3
ObjectDBX Classes
 90
        0
280
     0
281
     0
  0
CLASS
  1
ACDBDICTIONARYWDFLT
  2
AcDbDictionaryWithDefault
  3
ObjectDBX Classes
 90
        0
280
     0
281
     0
  0
CLASS
  1
ACDBPLACEHOLDER
  2
AcDbPlaceHolder
  3
ObjectDBX Classes
 90
        0
280
     0
281
     0
  0
CLASS
  1
VBA_PROJECT
  2
AcDbVbaProject
  3
ObjectDBX Classes
 90
        0
280
     0
281
     0
  0
CLASS
  1
WIPEOUT
  2
AcDbWipeout
  3
WipeOut|AutoCAD Express Tool|expresstools@autodesk.com
 90
      127
280
     0
281
     1
  0
CLASS
  1
WIPEOUTVARIABLES
  2
AcDbWipeoutVariables
  3
WipeOut|AutoCAD Express Tool|expresstools@autodesk.com
 90
        0
280
     0
281
     0
  0
CLASS
  1
RTEXT
  2
RText
  3
RText|AutoCAD Express Tool|expresstools@autodesk.com
 90
        0
280
     0
281
     1
  0
CLASS
  1
ARCALIGNEDTEXT
  2
AcDbArcAlignedText
  3
ATEXT|AutoCAD Express Tool|expresstools@autodesk.com
 90
        0
280
     0
281
     1
  0
CLASS
  1
MATERIAL
  2
AcDbMaterial
  3
ObjectDBX Classes
 90
     1153
280
     0
281
     0
  0
CLASS
  1
VISUALSTYLE
  2
AcDbVisualStyle
  3
ObjectDBX Classes
 90
     4095
280
     0
281
     0
  0
CLASS
  1
TABLESTYLE
  2
AcDbTableStyle
  3
ObjectDBX Classes
 90
     4095
280
     0
281
     0
  0
CLASS
  1
SCALE
  2
AcDbScale
  3
ObjectDBX Classes
 90
     1153
280
     0
281
     0
  0
CLASS
  1
MLEADERSTYLE
  2
AcDbMLeaderStyle
  3
ACDB_MLEADERSTYLE_CLASS
 90
     4095
280
     0
281
     0
  0
CLASS
  1
CELLSTYLEMAP
  2
AcDbCellStyleMap
  3
ObjectDBX Classes
 90
     1152
280
     0
281
     0
  0
ENDSEC
  0
SECTION
  2
TABLES
  0
TABLE
  2
VPORT
  5
7
330
0
100
AcDbSymbolTable
 70
     1
  0
VPORT
  5
15
330
7
100
AcDbSymbolTableRecord
100
AcDbViewportTableRecord
  2
*ACTIVE
 70
     0
 10
0.0
 20
0.0
 11
1.0
 21
1.0
 12
-717.9015052281482
 22
276.5119134456645
 13
0.0
 23
0.0
 14
1.0
 24
1.0
 15
0.0
 25
0.0
 16
0.0
 26
0.0
 36
1.0
 17
0.0
 27
0.0
 37
0.0
 40
298.8580866939676
 41
2.099206349206349
 42
50.0
 43
0.0
 44
0.0
 50
0.0
 51
0.0
 71
    16
 72
   100
 73
     1
 74
     1
 75
     1
 76
     0
 77
     0
 78
     0
281
     0
 65
     0
110
0.0
120
0.0
130
0.0
111
1.0
121
0.0
131
0.0
112
0.0
122
1.0
132
0.0
 79
     0
146
0.0
  0
ENDTAB
  0
TABLE
  2
LTYPE
  5
4
330
0
100
AcDbSymbolTable
 70
     3
  0
LTYPE
  5
11
330
4
100
AcDbSymbolTableRecord
100
AcDbLinetypeTableRecord
  2
ByBlock
 70
     0
  3

 72
    65
 73
     0
 40
0.0
  0
LTYPE
  5
12
330
4
100
AcDbSymbolTableRecord
100
AcDbLinetypeTableRecord
  2
ByLayer
 70
     0
  3

 72
    65
 73
     0
 40
0.0
  0
LTYPE
  5
13
330
4
100
AcDbSymbolTableRecord
100
AcDbLinetypeTableRecord
  2
Continuous
 70
     0
  3
Solid line
 72
    65
 73
     0
 40
0.0
  0
LTYPE
  5
108
330
4
100
AcDbSymbolTableRecord
100
AcDbLinetypeTableRecord
  2
CENTER
 70
     0
  3
____ _ ____ _ ____ _ ____ _ ____ _ ____ _ ____
 72
    65
 73
     4
 40
2.0
 49
1.25
 74
     0
 49
-0.25
 74
     0
 49
0.25
 74
     0
 49
-0.25
 74
     0
  0
LTYPE
  5
BD17
330
4
100
AcDbSymbolTableRecord
100
AcDbLinetypeTableRecord
  2
HIDDEN
 70
     0
  3
Hidden __ __ __ __ __ __ __ __ __ __ __ __ __ __
 72
    65
 73
     2
 40
1.905
 49
1.27
 74
     0
 49
-0.635
 74
     0
  0
ENDTAB
  0
TABLE
  2
LAYER
  5
2
330
0
100
AcDbSymbolTable
 70
     2
  0
LAYER
  5
14
102
{ACAD_XDICTIONARY
360
5858
102
}
330
2
100
AcDbSymbolTableRecord
100
AcDbLayerTableRecord
  2
0
 70
     0
 62
     7
  6
Continuous
370
    -3
390
1D
  0
LAYER
  5
B7CE
330
2
100
AcDbSymbolTableRecord
100
AcDbLayerTableRecord
  2
Defpoints
 70
     0
 62
     7
  6
Continuous
290
     0
370
    -3
390
1D
  0
ENDTAB
  0
TABLE
  2
STYLE
  5
3
330
0
100
AcDbSymbolTable
 70
     1
  0
STYLE
  5
17
330
3
100
AcDbSymbolTableRecord
100
AcDbTextStyleTableRecord
  2
Standard
 70
     0
 40
0.0
 41
1.0
 50
0.0
 71
     0
 42
0.0
  3
I011000D.TTF
  4

1001
ACAD
1000
IsonormD
1071
        0
  0
ENDTAB
  0
TABLE
  2
VIEW
  5
5
330
0
100
AcDbSymbolTable
 70
     0
  0
ENDTAB
  0
TABLE
  2
UCS
  5
6
330
0
100
AcDbSymbolTable
 70
     0
  0
ENDTAB
  0
TABLE
  2
APPID
  5
8
330
0
100
AcDbSymbolTable
 70
     6
  0
APPID
  5
16
330
8
100
AcDbSymbolTableRecord
100
AcDbRegAppTableRecord
  2
ACAD
 70
     0
  0
APPID
  5
26
330
8
100
AcDbSymbolTableRecord
100
AcDbRegAppTableRecord
  2
TopSolid'Draft
 70
     0
  0
APPID
  5
5850
330
8
100
AcDbSymbolTableRecord
100
AcDbRegAppTableRecord
  2
ACAD_MLEADERVER
 70
     0
  0
APPID
  5
5856
330
8
100
AcDbSymbolTableRecord
100
AcDbRegAppTableRecord
  2
DCO15
 70
     0
  0
APPID
  5
B631
330
8
100
AcDbSymbolTableRecord
100
AcDbRegAppTableRecord
  2
ACAD_EXEMPT_FROM_CAD_STANDARDS
 70
     0
  0
APPID
  5
CC1F
330
8
100
AcDbSymbolTableRecord
100
AcDbRegAppTableRecord
  2
ACAD_DSTYLE_DIMRADIAL_EXTENSION
 70
     0
  0
ENDTAB
  0
TABLE
  2
DIMSTYLE
  5
9
330
0
100
AcDbSymbolTable
 70
     2
100
AcDbDimStyleTable
  0
DIMSTYLE
105
18
330
9
100
AcDbSymbolTableRecord
100
AcDbDimStyleTableRecord
  2
Standard
 70
     0
 41
1.25
 42
0.0
 44
0.75
 73
     0
 74
     0
 77
     1
140
2.5
146
0.8
147
1.25
176
     7
177
     7
271
     2
178
     7
271
     2
340
17
  0
DIMSTYLE
105
BD18
330
9
100
AcDbSymbolTableRecord
100
AcDbDimStyleTableRecord
  2
ISO-25
 70
     0
 41
2.5
 42
0.625
 43
3.75
 44
1.25
 73
     0
 74
     0
 77
     1
 78
     8
140
2.5
141
2.5
143
0.0393700787
147
0.625
171
     3
172
     1
178
     0
271
     2
272
     2
274
     3
278
    44
283
     0
284
     8
340
17
  0
ENDTAB
  0
TABLE
  2
BLOCK_RECORD
  5
1
330
0
100
AcDbSymbolTable
 70
     8
  0
BLOCK_RECORD
  5
A
102
{ACAD_XDICTIONARY
360
5864
102
}
330
1
100
AcDbSymbolTableRecord
100
AcDbBlockTableRecord
  2
*MODEL_SPACE
340
20
  0
BLOCK_RECORD
  5
B
330
1
100
AcDbSymbolTableRecord
100
AcDbBlockTableRecord
  2
*PAPER_SPACE
340
21
  0
BLOCK_RECORD
  5
BD8F
330
1
100
AcDbSymbolTableRecord
100
AcDbBlockTableRecord
  2
SW_CENTERMARKSYMBOL_0
340
0
102
{BLKREFS
331
D118
102
}
  0
BLOCK_RECORD
  5
BD9B
330
1
100
AcDbSymbolTableRecord
100
AcDbBlockTableRecord
  2
SW_CENTERMARKSYMBOL_1
340
0
102
{BLKREFS
331
D119
102
}
  0
BLOCK_RECORD
  5
BE2F
330
1
100
AcDbSymbolTableRecord
100
AcDbBlockTableRecord
  2
SW_CENTERMARKSYMBOL_2
340
0
102
{BLKREFS
331
D11A
102
}
  0
BLOCK_RECORD
  5
BF1D
330
1
100
AcDbSymbolTableRecord
100
AcDbBlockTableRecord
  2
SW_CENTERMARKSYMBOL_3
340
0
102
{BLKREFS
331
D11B
102
}
  0
BLOCK_RECORD
  5
BF29
330
1
100
AcDbSymbolTableRecord
100
AcDbBlockTableRecord
  2
SW_CENTERMARKSYMBOL_4
340
0
102
{BLKREFS
331
D280
102
}
  0
BLOCK_RECORD
  5
BF54
330
1
100
AcDbSymbolTableRecord
100
AcDbBlockTableRecord
  2
SW_CENTERMARKSYMBOL_5
340
0
102
{BLKREFS
331
D281
102
}
  0
BLOCK_RECORD
  5
BF60
330
1
100
AcDbSymbolTableRecord
100
AcDbBlockTableRecord
  2
SW_CENTERMARKSYMBOL_6
340
0
102
{BLKREFS
331
D34F
102
}
  0
BLOCK_RECORD
  5
CF7A
330
1
100
AcDbSymbolTableRecord
100
AcDbBlockTableRecord
  2
SW_CENTERMARKSYMBOL_7
340
0
102
{BLKREFS
331
D350
102
}
  0
ENDTAB
  0
ENDSEC
  0
SECTION
  2
BLOCKS
  0
BLOCK
  5
D
330
A
100
AcDbEntity
  8
0
100
AcDbBlockBegin
  2
*MODEL_SPACE
 70
     0
 10
0.0
 20
0.0
 30
0.0
  3
*MODEL_SPACE
  1

  0
ENDBLK
  5
E
330
A
100
AcDbEntity
  8
0
100
AcDbBlockEnd
  0
BLOCK
  5
F
330
B
100
AcDbEntity
 67
     1
  8
0
100
AcDbBlockBegin
  2
*PAPER_SPACE
 70
     0
 10
0.0
 20
0.0
 30
0.0
  3
*PAPER_SPACE
  1

  0
ENDBLK
  5
10
330
B
100
AcDbEntity
 67
     1
  8
0
100
AcDbBlockEnd
  0
BLOCK
  5
BD90
330
BD8F
100
AcDbEntity
  8
0
100
AcDbBlockBegin
  2
SW_CENTERMARKSYMBOL_0
 70
     0
 10
0.0
 20
0.0
 30
0.0
  3
SW_CENTERMARKSYMBOL_0
  1

  0
LINE
  5
BD91
330
BD8F
100
AcDbEntity
  8
0
  6
Continuous
 62
     0
370
     0
100
AcDbLine
 10
0.0
 20
0.0
 30
0.0
 11
0.0
 21
2.5
 31
0.0
  0
LINE
  5
BD92
330
BD8F
100
AcDbEntity
  8
0
  6
Continuous
 62
     0
370
     0
100
AcDbLine
 10
0.0
 20
0.0
 30
0.0
 11
-2.5
 21
0.0
 31
0.0
  0
LINE
  5
BD93
330
BD8F
100
AcDbEntity
  8
0
  6
Continuous
 62
     0
370
     0
100
AcDbLine
 10
0.0
 20
0.0
 30
0.0
 11
0.0
 21
-2.5
 31
0.0
  0
LINE
  5
BD94
330
BD8F
100
AcDbEntity
  8
0
  6
Continuous
 62
     0
370
     0
100
AcDbLine
 10
0.0
 20
0.0
 30
0.0
 11
2.5
 21
0.0
 31
0.0
  0
LINE
  5
BD95
330
BD8F
100
AcDbEntity
  8
0
  6
Continuous
 62
     0
370
     0
100
AcDbLine
 10
0.0
 20
5.0
 30
0.0
 11
0.0
 21
12.5
 31
0.0
  0
LINE
  5
BD96
330
BD8F
100
AcDbEntity
  8
0
  6
Continuous
 62
     0
370
     0
100
AcDbLine
 10
-5.0
 20
0.0
 30
0.0
 11
-12.5
 21
0.0
 31
0.0
  0
LINE
  5
BD97
330
BD8F
100
AcDbEntity
  8
0
  6
Continuous
 62
     0
370
     0
100
AcDbLine
 10
0.0
 20
-5.0
 30
0.0
 11
0.0
 21
-12.5
 31
0.0
  0
LINE
  5
BD98
330
BD8F
100
AcDbEntity
  8
0
  6
Continuous
 62
     0
370
     0
100
AcDbLine
 10
5.0
 20
0.0
 30
0.0
 11
12.5
 21
0.0
 31
0.0
  0
ENDBLK
  5
BD99
330
BD8F
100
AcDbEntity
  8
0
100
AcDbBlockEnd
  0
BLOCK
  5
BD9C
330
BD9B
100
AcDbEntity
  8
0
100
AcDbBlockBegin
  2
SW_CENTERMARKSYMBOL_1
 70
     0
 10
0.0
 20
0.0
 30
0.0
  3
SW_CENTERMARKSYMBOL_1
  1

  0
LINE
  5
BD9D
330
BD9B
100
AcDbEntity
  8
0
  6
Continuous
 62
     0
370
     0
100
AcDbLine
 10
0.0
 20
0.0
 30
0.0
 11
0.0
 21
2.5
 31
0.0
  0
LINE
  5
BD9E
330
BD9B
100
AcDbEntity
  8
0
  6
Continuous
 62
     0
370
     0
100
AcDbLine
 10
0.0
 20
0.0
 30
0.0
 11
-2.5
 21
0.0
 31
0.0
  0
LINE
  5
BD9F
330
BD9B
100
AcDbEntity
  8
0
  6
Continuous
 62
     0
370
     0
100
AcDbLine
 10
0.0
 20
0.0
 30
0.0
 11
0.0
 21
-2.5
 31
0.0
  0
LINE
  5
BDA0
330
BD9B
100
AcDbEntity
  8
0
  6
Continuous
 62
     0
370
     0
100
AcDbLine
 10
0.0
 20
0.0
 30
0.0
 11
2.5
 21
0.0
 31
0.0
  0
LINE
  5
BDA1
330
BD9B
100
AcDbEntity
  8
0
  6
Continuous
 62
     0
370
     0
100
AcDbLine
 10
0.0
 20
5.0
 30
0.0
 11
0.0
 21
12.5
 31
0.0
  0
LINE
  5
BDA2
330
BD9B
100
AcDbEntity
  8
0
  6
Continuous
 62
     0
370
     0
100
AcDbLine
 10
-5.0
 20
0.0
 30
0.0
 11
-12.5
 21
0.0
 31
0.0
  0
LINE
  5
BDA3
330
BD9B
100
AcDbEntity
  8
0
  6
Continuous
 62
     0
370
     0
100
AcDbLine
 10
0.0
 20
-5.0
 30
0.0
 11
0.0
 21
-12.5
 31
0.0
  0
LINE
  5
BDA4
330
BD9B
100
AcDbEntity
  8
0
  6
Continuous
 62
     0
370
     0
100
AcDbLine
 10
5.0
 20
0.0
 30
0.0
 11
12.5
 21
0.0
 31
0.0
  0
ENDBLK
  5
BDA5
330
BD9B
100
AcDbEntity
  8
0
100
AcDbBlockEnd
  0
BLOCK
  5
BE30
330
BE2F
100
AcDbEntity
  8
0
100
AcDbBlockBegin
  2
SW_CENTERMARKSYMBOL_2
 70
     0
 10
0.0
 20
0.0
 30
0.0
  3
SW_CENTERMARKSYMBOL_2
  1

  0
LINE
  5
BE31
330
BE2F
100
AcDbEntity
  8
0
  6
Continuous
 62
     0
370
     0
100
AcDbLine
 10
0.0
 20
0.0
 30
0.0
 11
0.0
 21
2.5
 31
0.0
  0
LINE
  5
BE32
330
BE2F
100
AcDbEntity
  8
0
  6
Continuous
 62
     0
370
     0
100
AcDbLine
 10
0.0
 20
0.0
 30
0.0
 11
-2.5
 21
0.0
 31
0.0
  0
LINE
  5
BE33
330
BE2F
100
AcDbEntity
  8
0
  6
Continuous
 62
     0
370
     0
100
AcDbLine
 10
0.0
 20
0.0
 30
0.0
 11
0.0
 21
-2.5
 31
0.0
  0
LINE
  5
BE34
330
BE2F
100
AcDbEntity
  8
0
  6
Continuous
 62
     0
370
     0
100
AcDbLine
 10
0.0
 20
0.0
 30
0.0
 11
2.5
 21
0.0
 31
0.0
  0
LINE
  5
BE35
330
BE2F
100
AcDbEntity
  8
0
  6
Continuous
 62
     0
370
     0
100
AcDbLine
 10
0.0
 20
5.0
 30
0.0
 11
0.0
 21
8.7
 31
0.0
  0
LINE
  5
BE36
330
BE2F
100
AcDbEntity
  8
0
  6
Continuous
 62
     0
370
     0
100
AcDbLine
 10
-5.0
 20
0.0
 30
0.0
 11
-8.7
 21
0.0
 31
0.0
  0
LINE
  5
BE37
330
BE2F
100
AcDbEntity
  8
0
  6
Continuous
 62
     0
370
     0
100
AcDbLine
 10
0.0
 20
-5.0
 30
0.0
 11
0.0
 21
-8.7
 31
0.0
  0
LINE
  5
BE38
330
BE2F
100
AcDbEntity
  8
0
  6
Continuous
 62
     0
370
     0
100
AcDbLine
 10
5.0
 20
0.0
 30
0.0
 11
8.7
 21
0.0
 31
0.0
  0
ENDBLK
  5
BE39
330
BE2F
100
AcDbEntity
  8
0
100
AcDbBlockEnd
  0
BLOCK
  5
BF1E
330
BF1D
100
AcDbEntity
  8
0
100
AcDbBlockBegin
  2
SW_CENTERMARKSYMBOL_3
 70
     0
 10
0.0
 20
0.0
 30
0.0
  3
SW_CENTERMARKSYMBOL_3
  1

  0
LINE
  5
BF1F
330
BF1D
100
AcDbEntity
  8
0
  6
Continuous
 62
     0
370
     0
100
AcDbLine
 10
0.0
 20
0.0
 30
0.0
 11
0.0
 21
2.5
 31
0.0
  0
LINE
  5
BF20
330
BF1D
100
AcDbEntity
  8
0
  6
Continuous
 62
     0
370
     0
100
AcDbLine
 10
0.0
 20
0.0
 30
0.0
 11
-2.5
 21
0.0
 31
0.0
  0
LINE
  5
BF21
330
BF1D
100
AcDbEntity
  8
0
  6
Continuous
 62
     0
370
     0
100
AcDbLine
 10
0.0
 20
0.0
 30
0.0
 11
0.0
 21
-2.5
 31
0.0
  0
LINE
  5
BF22
330
BF1D
100
AcDbEntity
  8
0
  6
Continuous
 62
     0
370
     0
100
AcDbLine
 10
0.0
 20
0.0
 30
0.0
 11
2.5
 21
0.0
 31
0.0
  0
LINE
  5
BF23
330
BF1D
100
AcDbEntity
  8
0
  6
Continuous
 62
     0
370
     0
100
AcDbLine
 10
0.0
 20
5.0
 30
0.0
 11
0.0
 21
5.7
 31
0.0
  0
LINE
  5
BF24
330
BF1D
100
AcDbEntity
  8
0
  6
Continuous
 62
     0
370
     0
100
AcDbLine
 10
-5.0
 20
0.0
 30
0.0
 11
-5.7
 21
0.0
 31
0.0
  0
LINE
  5
BF25
330
BF1D
100
AcDbEntity
  8
0
  6
Continuous
 62
     0
370
     0
100
AcDbLine
 10
0.0
 20
-5.0
 30
0.0
 11
0.0
 21
-5.7
 31
0.0
  0
LINE
  5
BF26
330
BF1D
100
AcDbEntity
  8
0
  6
Continuous
 62
     0
370
     0
100
AcDbLine
 10
5.0
 20
0.0
 30
0.0
 11
5.7
 21
0.0
 31
0.0
  0
ENDBLK
  5
BF27
330
BF1D
100
AcDbEntity
  8
0
100
AcDbBlockEnd
  0
BLOCK
  5
BF2A
330
BF29
100
AcDbEntity
  8
0
100
AcDbBlockBegin
  2
SW_CENTERMARKSYMBOL_4
 70
     0
 10
0.0
 20
0.0
 30
0.0
  3
SW_CENTERMARKSYMBOL_4
  1

  0
LINE
  5
BF2B
330
BF29
100
AcDbEntity
  8
0
  6
Continuous
 62
     0
370
     0
100
AcDbLine
 10
0.0
 20
0.0
 30
0.0
 11
0.0
 21
2.5
 31
0.0
  0
LINE
  5
BF2C
330
BF29
100
AcDbEntity
  8
0
  6
Continuous
 62
     0
370
     0
100
AcDbLine
 10
0.0
 20
0.0
 30
0.0
 11
-2.5
 21
0.0
 31
0.0
  0
LINE
  5
BF2D
330
BF29
100
AcDbEntity
  8
0
  6
Continuous
 62
     0
370
     0
100
AcDbLine
 10
0.0
 20
0.0
 30
0.0
 11
0.0
 21
-2.5
 31
0.0
  0
LINE
  5
BF2E
330
BF29
100
AcDbEntity
  8
0
  6
Continuous
 62
     0
370
     0
100
AcDbLine
 10
0.0
 20
0.0
 30
0.0
 11
2.5
 21
0.0
 31
0.0
  0
LINE
  5
BF2F
330
BF29
100
AcDbEntity
  8
0
  6
Continuous
 62
     0
370
     0
100
AcDbLine
 10
0.0
 20
5.0
 30
0.0
 11
0.0
 21
5.7
 31
0.0
  0
LINE
  5
BF30
330
BF29
100
AcDbEntity
  8
0
  6
Continuous
 62
     0
370
     0
100
AcDbLine
 10
-5.0
 20
0.0
 30
0.0
 11
-5.7
 21
0.0
 31
0.0
  0
LINE
  5
BF31
330
BF29
100
AcDbEntity
  8
0
  6
Continuous
 62
     0
370
     0
100
AcDbLine
 10
0.0
 20
-5.0
 30
0.0
 11
0.0
 21
-5.7
 31
0.0
  0
LINE
  5
BF32
330
BF29
100
AcDbEntity
  8
0
  6
Continuous
 62
     0
370
     0
100
AcDbLine
 10
5.0
 20
0.0
 30
0.0
 11
5.7
 21
0.0
 31
0.0
  0
ENDBLK
  5
BF33
330
BF29
100
AcDbEntity
  8
0
100
AcDbBlockEnd
  0
BLOCK
  5
BF55
330
BF54
100
AcDbEntity
  8
0
100
AcDbBlockBegin
  2
SW_CENTERMARKSYMBOL_5
 70
     0
 10
0.0
 20
0.0
 30
0.0
  3
SW_CENTERMARKSYMBOL_5
  1

  0
LINE
  5
BF56
330
BF54
100
AcDbEntity
  8
0
  6
Continuous
 62
     0
370
     0
100
AcDbLine
 10
0.0
 20
0.0
 30
0.0
 11
0.0
 21
2.5
 31
0.0
  0
LINE
  5
BF57
330
BF54
100
AcDbEntity
  8
0
  6
Continuous
 62
     0
370
     0
100
AcDbLine
 10
0.0
 20
0.0
 30
0.0
 11
-2.5
 21
0.0
 31
0.0
  0
LINE
  5
BF58
330
BF54
100
AcDbEntity
  8
0
  6
Continuous
 62
     0
370
     0
100
AcDbLine
 10
0.0
 20
0.0
 30
0.0
 11
0.0
 21
-2.5
 31
0.0
  0
LINE
  5
BF59
330
BF54
100
AcDbEntity
  8
0
  6
Continuous
 62
     0
370
     0
100
AcDbLine
 10
0.0
 20
0.0
 30
0.0
 11
2.5
 21
0.0
 31
0.0
  0
LINE
  5
BF5A
330
BF54
100
AcDbEntity
  8
0
  6
Continuous
 62
     0
370
     0
100
AcDbLine
 10
0.0
 20
5.0
 30
0.0
 11
0.0
 21
5.7
 31
0.0
  0
LINE
  5
BF5B
330
BF54
100
AcDbEntity
  8
0
  6
Continuous
 62
     0
370
     0
100
AcDbLine
 10
-5.0
 20
0.0
 30
0.0
 11
-5.7
 21
0.0
 31
0.0
  0
LINE
  5
BF5C
330
BF54
100
AcDbEntity
  8
0
  6
Continuous
 62
     0
370
     0
100
AcDbLine
 10
0.0
 20
-5.0
 30
0.0
 11
0.0
 21
-5.7
 31
0.0
  0
LINE
  5
BF5D
330
BF54
100
AcDbEntity
  8
0
  6
Continuous
 62
     0
370
     0
100
AcDbLine
 10
5.0
 20
0.0
 30
0.0
 11
5.7
 21
0.0
 31
0.0
  0
ENDBLK
  5
BF5E
330
BF54
100
AcDbEntity
  8
0
100
AcDbBlockEnd
  0
BLOCK
  5
BF61
330
BF60
100
AcDbEntity
  8
0
100
AcDbBlockBegin
  2
SW_CENTERMARKSYMBOL_6
 70
     0
 10
0.0
 20
0.0
 30
0.0
  3
SW_CENTERMARKSYMBOL_6
  1

  0
LINE
  5
BF62
330
BF60
100
AcDbEntity
  8
0
  6
Continuous
 62
     0
370
     0
100
AcDbLine
 10
0.0
 20
0.0
 30
0.0
 11
0.0
 21
2.5
 31
0.0
  0
LINE
  5
BF63
330
BF60
100
AcDbEntity
  8
0
  6
Continuous
 62
     0
370
     0
100
AcDbLine
 10
0.0
 20
0.0
 30
0.0
 11
-2.5
 21
0.0
 31
0.0
  0
LINE
  5
BF64
330
BF60
100
AcDbEntity
  8
0
  6
Continuous
 62
     0
370
     0
100
AcDbLine
 10
0.0
 20
0.0
 30
0.0
 11
0.0
 21
-2.5
 31
0.0
  0
LINE
  5
BF65
330
BF60
100
AcDbEntity
  8
0
  6
Continuous
 62
     0
370
     0
100
AcDbLine
 10
0.0
 20
0.0
 30
0.0
 11
2.5
 21
0.0
 31
0.0
  0
LINE
  5
BF66
330
BF60
100
AcDbEntity
  8
0
  6
Continuous
 62
     0
370
     0
100
AcDbLine
 10
0.0
 20
5.0
 30
0.0
 11
0.0
 21
5.7
 31
0.0
  0
LINE
  5
BF67
330
BF60
100
AcDbEntity
  8
0
  6
Continuous
 62
     0
370
     0
100
AcDbLine
 10
-5.0
 20
0.0
 30
0.0
 11
-5.7
 21
0.0
 31
0.0
  0
LINE
  5
BF68
330
BF60
100
AcDbEntity
  8
0
  6
Continuous
 62
     0
370
     0
100
AcDbLine
 10
0.0
 20
-5.0
 30
0.0
 11
0.0
 21
-5.7
 31
0.0
  0
LINE
  5
BF69
330
BF60
100
AcDbEntity
  8
0
  6
Continuous
 62
     0
370
     0
100
AcDbLine
 10
5.0
 20
0.0
 30
0.0
 11
5.7
 21
0.0
 31
0.0
  0
ENDBLK
  5
BF6A
330
BF60
100
AcDbEntity
  8
0
100
AcDbBlockEnd
  0
BLOCK
  5
CF7B
330
CF7A
100
AcDbEntity
  8
0
100
AcDbBlockBegin
  2
SW_CENTERMARKSYMBOL_7
 70
     0
 10
0.0
 20
0.0
 30
0.0
  3
SW_CENTERMARKSYMBOL_7
  1

  0
LINE
  5
CF7C
330
CF7A
100
AcDbEntity
  8
0
  6
Continuous
 62
     0
370
     0
100
AcDbLine
 10
0.0
 20
0.0
 30
0.0
 11
0.0
 21
2.5
 31
0.0
  0
LINE
  5
CF7D
330
CF7A
100
AcDbEntity
  8
0
  6
Continuous
 62
     0
370
     0
100
AcDbLine
 10
0.0
 20
0.0
 30
0.0
 11
-2.5
 21
0.0
 31
0.0
  0
LINE
  5
CF7E
330
CF7A
100
AcDbEntity
  8
0
  6
Continuous
 62
     0
370
     0
100
AcDbLine
 10
0.0
 20
0.0
 30
0.0
 11
0.0
 21
-2.5
 31
0.0
  0
LINE
  5
CF7F
330
CF7A
100
AcDbEntity
  8
0
  6
Continuous
 62
     0
370
     0
100
AcDbLine
 10
0.0
 20
0.0
 30
0.0
 11
2.5
 21
0.0
 31
0.0
  0
LINE
  5
CF80
330
CF7A
100
AcDbEntity
  8
0
  6
Continuous
 62
     0
370
     0
100
AcDbLine
 10
0.0
 20
5.0
 30
0.0
 11
0.0
 21
8.7
 31
0.0
  0
LINE
  5
CF81
330
CF7A
100
AcDbEntity
  8
0
  6
Continuous
 62
     0
370
     0
100
AcDbLine
 10
-5.0
 20
0.0
 30
0.0
 11
-8.7
 21
0.0
 31
0.0
  0
LINE
  5
CF82
330
CF7A
100
AcDbEntity
  8
0
  6
Continuous
 62
     0
370
     0
100
AcDbLine
 10
0.0
 20
-5.0
 30
0.0
 11
0.0
 21
-8.7
 31
0.0
  0
LINE
  5
CF83
330
CF7A
100
AcDbEntity
  8
0
  6
Continuous
 62
     0
370
     0
100
AcDbLine
 10
5.0
 20
0.0
 30
0.0
 11
8.7
 21
0.0
 31
0.0
  0
ENDBLK
  5
CF84
330
CF7A
100
AcDbEntity
  8
0
100
AcDbBlockEnd
  0
ENDSEC
  0
SECTION
  2
ENTITIES
  0
LINE
  5
D08E
330
A
100
AcDbEntity
  8
0
  6
Continuous
 62
     7
370
    15
100
AcDbLine
 10
-780.9815428521963
 20
316.4518892079722
 30
0.0
 11
-782.4101142807963
 21
317.2018892079722
 31
0.0
  0
LINE
  5
D08F
330
A
100
AcDbEntity
  8
0
  6
Continuous
 62
     7
370
    15
100
AcDbLine
 10
-799.5053523759963
 20
317.1518892079722
 30
0.0
 11
-800.8386857093963
 21
316.4518892079722
 31
0.0
  0
LINE
  5
D090
330
A
100
AcDbEntity
  8
0
  6
Continuous
 62
     7
370
    15
100
AcDbLine
 10
-800.8386857093963
 20
286.4518892079722
 30
0.0
 11
-799.5053523759963
 21
285.7518892079722
 31
0.0
  0
LINE
  5
D091
330
A
100
AcDbEntity
  8
0
  6
Continuous
 62
     7
370
    15
100
AcDbLine
 10
-782.4101142807963
 20
285.7018892079722
 30
0.0
 11
-780.9815428521963
 21
286.4518892079722
 31
0.0
  0
LINE
  5
D092
330
A
100
AcDbEntity
  8
0
  6
Continuous
 62
     7
370
    15
100
AcDbLine
 10
-822.9101142807963
 20
286.2018892079722
 30
0.0
 11
-822.9101142807963
 21
286.4518892079722
 31
0.0
  0
LINE
  5
D093
330
A
100
AcDbEntity
  8
0
  6
Continuous
 62
     7
370
    15
100
AcDbLine
 10
-828.9101142807963
 20
286.4518892079722
 30
0.0
 11
-828.9101142807963
 21
286.2018892079722
 31
0.0
  0
LINE
  5
D094
330
A
100
AcDbEntity
  8
0
  6
Continuous
 62
     7
370
    15
100
AcDbLine
 10
-828.9101142807963
 20
316.7018892079722
 30
0.0
 11
-828.9101142807963
 21
316.4518892079722
 31
0.0
  0
LINE
  5
D095
330
A
100
AcDbEntity
  8
0
  6
Continuous
 62
     7
370
    15
100
AcDbLine
 10
-822.9101142807963
 20
316.4518892079722
 30
0.0
 11
-822.9101142807963
 21
316.7018892079722
 31
0.0
  0
LINE
  5
D096
330
A
100
AcDbEntity
  8
0
  6
Continuous
 62
     7
370
    15
100
AcDbLine
 10
-803.6275385857963
 20
293.4518892079722
 30
0.0
 11
-804.4101142807963
 21
293.4518892079722
 31
0.0
  0
LINE
  5
D097
330
A
100
AcDbEntity
  8
0
  6
Continuous
 62
     7
370
    15
100
AcDbLine
 10
-804.4101142807963
 20
289.4518892079722
 30
0.0
 11
-803.6275385857963
 21
289.4518892079722
 31
0.0
  0
ARC
  5
D098
330
A
100
AcDbEntity
  8
0
  6
Continuous
 62
     7
370
    15
100
AcDbCircle
 10
-808.2101142807962
 20
291.4518892079722
 30
0.0
 40
5.000000000000021
100
AcDbArc
 50
336.4218215218005
 51
23.57817847819954
  0
ARC
  5
D099
330
A
100
AcDbEntity
  8
0
  6
Continuous
 62
     7
370
    15
100
AcDbCircle
 10
-808.2101142807962
 20
311.4518892079722
 30
0.0
 40
5.000000000000021
100
AcDbArc
 50
336.4218215218005
 51
23.57817847819954
  0
LINE
  5
D09A
330
A
100
AcDbEntity
  8
0
  6
Continuous
 62
     7
370
    15
100
AcDbLine
 10
-803.6275385857963
 20
313.4518892079722
 30
0.0
 11
-804.4101142807963
 21
313.4518892079722
 31
0.0
  0
LINE
  5
D09B
330
A
100
AcDbEntity
  8
0
  6
Continuous
 62
     7
370
    15
100
AcDbLine
 10
-804.4101142807963
 20
309.4518892079722
 30
0.0
 11
-803.6275385857963
 21
309.4518892079722
 31
0.0
  0
LINE
  5
D09C
330
A
100
AcDbEntity
  8
0
  6
Continuous
 62
     7
370
    15
100
AcDbLine
 10
-782.4101142807963
 20
317.2018892079722
 30
0.0
 11
-782.8601142807963
 21
317.2018892079722
 31
0.0
  0
LINE
  5
D09D
330
A
100
AcDbEntity
  8
0
  6
Continuous
 62
     7
370
    15
100
AcDbLine
 10
-782.8601142807963
 20
285.7018892079722
 30
0.0
 11
-782.4101142807963
 21
285.7018892079722
 31
0.0
  0
LINE
  5
D09E
330
A
100
AcDbEntity
  8
0
  6
Continuous
 62
     7
370
    15
100
AcDbLine
 10
-803.6275385857963
 20
291.4518892079722
 30
0.0
 11
-803.6275385857963
 21
289.4518892079722
 31
0.0
  0
LINE
  5
D09F
330
A
100
AcDbEntity
  8
0
  6
Continuous
 62
     7
370
    15
100
AcDbLine
 10
-803.6275385857963
 20
293.4518892079722
 30
0.0
 11
-803.6275385857963
 21
291.4518892079722
 31
0.0
  0
LINE
  5
D0A0
330
A
100
AcDbEntity
  8
0
  6
Continuous
 62
     7
370
    15
100
AcDbLine
 10
-803.6275385857963
 20
311.4518892079722
 30
0.0
 11
-803.6275385857963
 21
309.4518892079722
 31
0.0
  0
LINE
  5
D0A1
330
A
100
AcDbEntity
  8
0
  6
Continuous
 62
     7
370
    15
100
AcDbLine
 10
-803.6275385857963
 20
313.4518892079722
 30
0.0
 11
-803.6275385857963
 21
311.4518892079722
 31
0.0
  0
LINE
  5
D0A2
330
A
100
AcDbEntity
  8
0
  6
Continuous
 62
     7
370
    15
100
AcDbLine
 10
-829.9101142807963
 20
316.7018892079722
 30
0.0
 11
-829.9101142807963
 21
316.4518892079722
 31
0.0
  0
LINE
  5
D0A3
330
A
100
AcDbEntity
  8
0
  6
Continuous
 62
     7
370
    15
100
AcDbLine
 10
-829.9101142807963
 20
286.4518892079722
 30
0.0
 11
-829.9101142807963
 21
286.2018892079722
 31
0.0
  0
LINE
  5
D0A4
330
A
100
AcDbEntity
  8
0
  6
Continuous
 62
     7
370
    15
100
AcDbLine
 10
-777.9101142807963
 20
279.9518892079722
 30
0.0
 11
-781.0673949984963
 21
279.9518892079722
 31
0.0
  0
LINE
  5
D0A5
330
A
100
AcDbEntity
  8
0
  6
Continuous
 62
     7
370
    15
100
AcDbLine
 10
-781.0673949984963
 20
322.9518892079722
 30
0.0
 11
-777.9101142807963
 21
322.9518892079722
 31
0.0
  0
LWPOLYLINE
  5
D0A6
330
A
100
AcDbEntity
  8
0
  6
Continuous
 62
     7
370
    15
100
AcDbPolyline
 90
        3
 70
   128
 43
0.0
 10
-917.4046878002963
 20
296.4518892079722
 10
-917.2951257075963
 20
294.3613199426722
 10
-916.9973771197963
 20
292.4361046984722
  0
LINE
  5
D0A7
330
A
100
AcDbEntity
  8
0
  6
Continuous
 62
     7
370
    15
100
AcDbLine
 10
-899.4455102807963
 20
276.5562855829722
 30
0.0
 11
-897.4046878002963
 21
276.4518892079722
 31
0.0
  0
LWPOLYLINE
  5
D0A8
330
A
100
AcDbEntity
  8
0
  6
Continuous
 62
     7
370
    15
100
AcDbPolyline
 90
        3
 70
   128
 43
0.0
 10
-897.4046878002963
 20
326.4518892079722
 10
-899.4952570655962
 20
326.3423271153722
 10
-901.2166233215962
 20
326.0852574259722
  0
LINE
  5
D0A9
330
A
100
AcDbEntity
  8
0
  6
Continuous
 62
     7
370
    15
100
AcDbLine
 10
-917.3063068298962
 20
308.4331918091722
 30
0.0
 11
-917.4046878002963
 21
306.4518892079722
 31
0.0
  0
LINE
  5
D0AA
330
A
100
AcDbEntity
  8
0
  6
Continuous
 62
     7
370
    15
100
AcDbLine
 10
-778.0196177037963
 20
326.4518892079722
 30
0.0
 11
-782.9101142807963
 21
326.4518892079722
 31
0.0
  0
LWPOLYLINE
  5
D0AB
330
A
100
AcDbEntity
  8
0
  6
Continuous
 62
     7
370
    15
100
AcDbPolyline
 90
        3
 70
   128
 43
0.0
 10
-716.9155407612963
 20
276.4518892079722
 10
-714.8249714959964
 20
276.5614513006722
 10
-713.1036052399963
 20
276.8185209900722
  0
LINE
  5
D0AC
330
A
100
AcDbEntity
  8
0
  6
Continuous
 62
     7
370
    15
100
AcDbLine
 10
-697.0139217316962
 20
294.4705866067722
 30
0.0
 11
-696.9155407612963
 21
296.4518892079722
 31
0.0
  0
LINE
  5
D0AD
330
A
100
AcDbEntity
  8
0
  6
Continuous
 62
     7
370
    15
100
AcDbLine
 10
-782.9101142807963
 20
276.4518892079722
 30
0.0
 11
-778.0196177037963
 21
276.4518892079722
 31
0.0
  0
LINE
  5
D0AE
330
A
100
AcDbEntity
  8
0
  6
Continuous
 62
     7
370
    15
100
AcDbLine
 10
-777.9101142807963
 20
324.2018892079722
 30
0.0
 11
-779.1655407612963
 21
324.2018892079722
 31
0.0
  0
ARC
  5
D0AF
330
A
100
AcDbEntity
  8
0
  6
Continuous
 62
     7
370
    15
100
AcDbCircle
 10
-780.6655407612963
 20
322.2018892079722
 30
0.0
 40
2.500000000000017
100
AcDbArc
 50
53.13010235419949
 51
90.0
  0
LINE
  5
D0B0
330
A
100
AcDbEntity
  8
0
  6
Continuous
 62
     7
370
    15
100
AcDbLine
 10
-780.6655407612963
 20
324.7018892079722
 30
0.0
 11
-781.8111278405963
 21
324.7018892079722
 31
0.0
  0
LINE
  5
D0B1
330
A
100
AcDbEntity
  8
0
  6
Continuous
 62
     7
370
    15
100
AcDbLine
 10
-781.8111278405963
 20
278.2018892079722
 30
0.0
 11
-780.6655407612963
 21
278.2018892079722
 31
0.0
  0
ARC
  5
D0B2
330
A
100
AcDbEntity
  8
0
  6
Continuous
 62
     7
370
    15
100
AcDbCircle
 10
-780.6655407612963
 20
280.7018892079722
 30
0.0
 40
2.500000000000017
100
AcDbArc
 50
270.0
 51
306.8698976458005
  0
LINE
  5
D0B3
330
A
100
AcDbEntity
  8
0
  6
Continuous
 62
     7
370
    15
100
AcDbLine
 10
-779.1655407612963
 20
278.7018892079722
 30
0.0
 11
-777.9101142807963
 21
278.7018892079722
 31
0.0
  0
LWPOLYLINE
  5
D0B4
330
A
100
AcDbEntity
  8
0
  6
Continuous
 62
     7
370
    15
100
AcDbPolyline
 90
        3
 70
   128
 43
0.0
 10
-696.9155407612963
 20
306.4518892079722
 10
-697.0251028539963
 20
308.5424584733722
 10
-697.3265214345963
 20
310.4855379056722
  0
LINE
  5
D0B5
330
A
100
AcDbEntity
  8
0
  6
Continuous
 62
     7
370
    15
100
AcDbLine
 10
-714.8531409048962
 20
326.3452676750722
 30
0.0
 11
-716.9155407612963
 21
326.4518892079722
 31
0.0
  0
LINE
  5
D0B6
330
A
100
AcDbEntity
  8
0
  6
Continuous
 62
     7
370
    15
100
AcDbLine
 10
-828.9101142807963
 20
286.2018892079722
 30
0.0
 11
-828.9101142807963
 21
286.4518892079722
 31
0.0
  0
LINE
  5
D0B7
330
A
100
AcDbEntity
  8
0
  6
Continuous
 62
     7
370
    15
100
AcDbLine
 10
-828.9101142807963
 20
316.4518892079722
 30
0.0
 11
-828.9101142807963
 21
316.7018892079722
 31
0.0
  0
LINE
  5
D0B8
330
A
100
AcDbEntity
  8
0
  6
Continuous
 62
     7
370
    15
100
AcDbLine
 10
-777.9101142807963
 20
278.9518892079722
 30
0.0
 11
-781.4536750433963
 21
278.9518892079722
 31
0.0
  0
LINE
  5
D0B9
330
A
100
AcDbEntity
  8
0
  6
Continuous
 62
     7
370
    15
100
AcDbLine
 10
-777.9101142807963
 20
323.9518892079722
 30
0.0
 11
-781.4536750433963
 21
323.9518892079722
 31
0.0
  0
LINE
  5
D0BA
330
A
100
AcDbEntity
  8
0
  6
Continuous
 62
     7
370
    15
100
AcDbLine
 10
-900.1942989044962
 20
317.8881416375722
 30
0.0
 11
-900.1942989044962
 21
326.2571490139722
 31
0.0
  0
SPLINE
  5
D0BB
330
A
100
AcDbEntity
  8
0
  6
Continuous
 62
     7
370
    15
100
AcDbSpline
210
0.0
220
0.0
230
1.0
 70
     8
 71
     3
 72
    12
 73
     8
 74
     0
 42
0.00000001
 43
0.00000001
 40
0.0
 40
0.0
 40
0.0
 40
0.0
 40
0.1886563413018559
 40
0.3785251254648222
 40
0.5726237701107951
 40
0.7683145328474845
 40
1.0
 40
1.0
 40
1.0
 40
1.0
 10
-897.4101142807942
 20
326.451889208013
 30
0.0
 10
-897.5838635564452
 20
326.4505874048594
 30
0.0
 10
-897.932478746962
 20
326.4479754322183
 30
0.0
 10
-898.4675531846347
 20
326.426233707908
 30
0.0
 10
-899.0104287641769
 20
326.3901440486585
 30
0.0
 10
-899.5907699659842
 20
326.3363975010282
 30
0.0
 10
-899.9821353321344
 20
326.2850078970201
 30
0.0
 10
-900.194298904515
 20
326.2571490139595
 30
0.0
  0
SPLINE
  5
D0BC
330
A
100
AcDbEntity
  8
0
  6
Continuous
 62
     7
370
    15
100
AcDbSpline
210
0.0
220
0.0
230
1.0
 70
    24
 71
     3
 72
    14
 73
    10
 74
     0
 42
0.00000001
 43
0.00000001
 40
0.0
 40
0.0
 40
0.0
 40
0.0
 40
0.1014871621874766
 40
0.2030076800036038
 40
0.4067460298464836
 40
0.5550058718811981
 40
0.703294694381049
 40
0.8516415742671339
 40
0.9999999999999999
 40
0.9999999999999999
 40
0.9999999999999999
 40
0.9999999999999999
 10
-897.4101142807942
 20
326.451889208013
 30
0.0
 10
-895.3731580358864
 20
326.451889208013
 30
0.0
 10
-891.2985760628114
 20
326.451889208013
 30
0.0
 10
-883.0559298444804
 20
326.451889208013
 30
0.0
 10
-873.8390653780298
 20
326.451889208013
 30
0.0
 10
-863.648374235205
 20
326.451889208013
 30
0.0
 10
-854.5769206842654
 20
326.451889208013
 30
0.0
 10
-845.4970211563909
 20
326.451889208013
 30
0.0
 10
-839.4391618168628
 20
326.451889208013
 30
0.0
 10
-836.4101142807942
 20
326.451889208013
 30
0.0
  0
LINE
  5
D0BD
330
A
100
AcDbEntity
  8
0
  6
Continuous
 62
     7
370
    15
100
AcDbLine
 10
-836.4101142807963
 20
322.4518892079722
 30
0.0
 11
-836.4101142807963
 21
326.4518892079722
 31
0.0
  0
LINE
  5
D0BE
330
A
100
AcDbEntity
  8
0
  6
Continuous
 62
     7
370
    15
100
AcDbLine
 10
-900.1942989044962
 20
317.8881416375722
 30
0.0
 11
-836.4101142807963
 21
322.4518892079722
 31
0.0
  0
LINE
  5
D0BF
330
A
100
AcDbEntity
  8
0
  6
Continuous
 62
     7
370
    15
100
AcDbLine
 10
-909.4458129202962
 20
305.9527458187722
 30
0.0
 11
-909.4458129202962
 21
294.9527458187722
 31
0.0
  0
ARC
  5
D0C0
330
A
100
AcDbEntity
  8
0
  6
Continuous
 62
     7
370
    15
100
AcDbCircle
 10
-898.4101142807963
 20
306.9518892079722
 30
0.0
 40
11.08083624883919
100
AcDbArc
 50
99.26583512719988
 51
185.173306066
  0
LINE
  5
D0C1
330
A
100
AcDbEntity
  8
0
  6
Continuous
 62
     7
370
    15
100
AcDbLine
 10
-836.4101142807963
 20
316.4518892079722
 30
0.0
 11
-810.9101142807963
 21
316.4518892079722
 31
0.0
  0
LINE
  5
D0C2
330
A
100
AcDbEntity
  8
0
  6
Continuous
 62
     7
370
    15
100
AcDbLine
 10
-810.9101142807963
 20
316.4518892079722
 30
0.0
 11
-810.9101142807963
 21
286.4518892079722
 31
0.0
  0
LINE
  5
D0C3
330
A
100
AcDbEntity
  8
0
  6
Continuous
 62
     7
370
    15
100
AcDbLine
 10
-810.9101142807963
 20
286.4518892079722
 30
0.0
 11
-836.4101142807963
 21
286.4518892079722
 31
0.0
  0
LINE
  5
D0C4
330
A
100
AcDbEntity
  8
0
  6
Continuous
 62
     7
370
    15
100
AcDbLine
 10
-836.4101142807963
 20
286.4518892079722
 30
0.0
 11
-836.4101142807963
 21
280.4518892079722
 31
0.0
  0
LINE
  5
D0C5
330
A
100
AcDbEntity
  8
0
  6
Continuous
 62
     7
370
    15
100
AcDbLine
 10
-898.2011075629963
 20
284.8730242767722
 30
0.0
 11
-836.4101142807963
 21
280.4518892079722
 31
0.0
  0
ARC
  5
D0C6
330
A
100
AcDbEntity
  8
0
  6
Continuous
 62
     7
370
    15
100
AcDbCircle
 10
-898.4101142807963
 20
295.9518892079722
 30
0.0
 40
11.08083624883919
100
AcDbArc
 50
185.173306066
 51
271.0807770047002
  0
LINE
  5
D0C7
330
A
100
AcDbEntity
  8
0
  6
Continuous
 62
     7
370
    15
100
AcDbLine
 10
-836.4101142807963
 20
322.4518892079722
 30
0.0
 11
-836.4101142807963
 21
316.4518892079722
 31
0.0
  0
LINE
  5
D0C8
330
A
100
AcDbEntity
  8
0
  6
Continuous
 62
     7
370
    15
100
AcDbLine
 10
-909.4458129202962
 20
305.9527458187722
 30
0.0
 11
-917.4099893461963
 21
306.5225812885722
 31
0.0
  0
SPLINE
  5
D0C9
330
A
100
AcDbEntity
  8
0
  6
Continuous
 62
     7
370
    15
100
AcDbSpline
210
0.0
220
0.0
230
1.0
 70
     8
 71
     3
 72
    24
 73
    20
 74
     0
 42
0.00000001
 43
0.00000001
 40
0.0
 40
0.0
 40
0.0
 40
0.0
 40
0.0527458171631541
 40
0.1057988725428644
 40
0.1598139684434724
 40
0.2141599496804091
 40
0.2502013081615643
 40
0.3202923591045691
 40
0.3859303520335186
 40
0.4482853955578943
 40
0.4842857510311888
 40
0.5542955811455393
 40
0.6198546211923808
 40
0.6821318414785348
 40
0.7181822118147221
 40
0.7882878510039504
 40
0.8539338569698993
 40
0.9162911392147421
 40
0.9999999999999999
 40
0.9999999999999999
 40
0.9999999999999999
 40
0.9999999999999999
 10
-917.4099893461477
 20
306.5225812885869
 30
0.0
 10
-917.3972847846957
 20
307.0247799962307
 30
0.0
 10
-917.371801659207
 20
308.0321026602601
 30
0.0
 10
-917.1877615286917
 20
309.5455930180287
 30
0.0
 10
-916.8937638422924
 20
311.0566534889988
 30
0.0
 10
-916.5246802721229
 20
312.3844980219589
 30
0.0
 10
-916.0209571507905
 20
313.8297557129508
 30
0.0
 10
-915.3647810044747
 20
315.3338792004104
 30
0.0
 10
-914.4439307863133
 20
316.9860719371885
 30
0.0
 10
-913.5597217796915
 20
318.2783768478177
 30
0.0
 10
-912.5623331904982
 20
319.5363493931567
 30
0.0
 10
-911.4504005301621
 20
320.7391302279126
 30
0.0
 10
-910.0414451191941
 20
321.9941800369042
 30
0.0
 10
-908.7851927753226
 20
322.922497819348
 30
0.0
 10
-907.4328459283377
 20
323.7820042214646
 30
0.0
 10
-905.9901450804982
 20
324.5532441162741
 30
0.0
 10
-904.251124224364
 20
325.2726315723406
 30
0.0
 10
-902.3351825223489
 20
325.8825716351562
 30
0.0
 10
-900.9742398282315
 20
326.1206874966712
 30
0.0
 10
-900.194298904515
 20
326.2571490139594
 30
0.0
  0
LINE
  5
D0CA
330
A
100
AcDbEntity
  8
0
  6
Continuous
 62
     7
370
    15
100
AcDbLine
 10
-909.4458129202962
 20
294.9527458187722
 30
0.0
 11
-917.3884405061963
 21
295.5210394727722
 31
0.0
  0
LINE
  5
D0CB
330
A
100
AcDbEntity
  8
0
  6
Continuous
 62
     7
370
    15
100
AcDbLine
 10
-917.3884405061963
 20
295.5210394727722
 30
0.0
 11
-917.4101142807963
 21
296.4518892079722
 31
0.0
  0
LINE
  5
D0CC
330
A
100
AcDbEntity
  8
0
  6
Continuous
 62
     7
370
    15
100
AcDbLine
 10
-917.4101142807963
 20
306.4518892079722
 30
0.0
 11
-917.4101142807963
 21
296.4518892079722
 31
0.0
  0
LINE
  5
D0CD
330
A
100
AcDbEntity
  8
0
  6
Continuous
 62
     7
370
    15
100
AcDbLine
 10
-917.4101142807963
 20
306.4518892079722
 30
0.0
 11
-917.4099893461963
 21
306.5225812885722
 31
0.0
  0
LINE
  5
D0CE
330
A
100
AcDbEntity
  8
0
  6
Continuous
 62
     7
370
    15
100
AcDbLine
 10
-898.2011075629963
 20
284.8730242767722
 30
0.0
 11
-899.3981231189963
 21
276.5509389578722
 31
0.0
  0
SPLINE
  5
D0CF
330
A
100
AcDbEntity
  8
0
  6
Continuous
 62
     7
370
    15
100
AcDbSpline
210
0.0
220
0.0
230
1.0
 70
     8
 71
     3
 72
    24
 73
    20
 74
     0
 42
0.00000001
 43
0.00000001
 40
0.0
 40
0.0
 40
0.0
 40
0.0
 40
0.1072390822870625
 40
0.1613800862474857
 40
0.2162904088988127
 40
0.2766828711085465
 40
0.341921030405433
 40
0.4142627085621719
 40
0.4523008831828584
 40
0.5103907505616829
 40
0.5689020237321504
 40
0.6279315771767645
 40
0.6873958878476427
 40
0.7234795680605934
 40
0.7936524370590501
 40
0.8593660739816339
 40
0.9217920085807189
 40
0.9608341689767632
 40
1.0
 40
1.0
 40
1.0
 40
1.0
 10
-899.3981231190172
 20
276.5509389578579
 30
0.0
 10
-900.4005198587708
 20
276.693588524923
 30
0.0
 10
-901.9089892420003
 20
276.9082565260394
 30
0.0
 10
-903.8696952201835
 20
277.5045529385991
 30
0.0
 10
-905.3689022775529
 20
278.0786477143314
 30
0.0
 10
-906.9126234938548
 20
278.8233988006156
 30
0.0
 10
-908.5278874769178
 20
279.788106267905
 30
0.0
 10
-909.8721648561748
 20
280.7818506116772
 30
0.0
 10
-911.081550147011
 20
281.8324548811891
 30
0.0
 10
-912.1243855755515
 20
282.8719518301635
 30
0.0
 10
-913.2068638194426
 20
284.1473243321143
 30
0.0
 10
-914.1865696300126
 20
285.5199854699073
 30
0.0
 10
-914.9379746609394
 20
286.7871561410929
 30
0.0
 10
-915.6484293838658
 20
288.1960546055143
 30
0.0
 10
-916.2735284321069
 20
289.71207648527
 30
0.0
 10
-916.8218941524794
 20
291.5207178690339
 30
0.0
 10
-917.1407731459371
 20
293.0808409701018
 30
0.0
 10
-917.318496952387
 20
294.4072918821425
 30
0.0
 10
-917.3651014230076
 20
295.1493991101184
 30
0.0
 10
-917.388440506241
 20
295.5210394727535
 30
0.0
  0
SPLINE
  5
D0D0
330
A
100
AcDbEntity
  8
0
  6
Continuous
 62
     7
370
    15
100
AcDbSpline
210
0.0
220
0.0
230
1.0
 70
    24
 71
     3
 72
    10
 73
     6
 74
     0
 42
0.00000001
 43
0.00000001
 40
0.0
 40
0.0
 40
0.0
 40
0.0
 40
0.4916099581662218
 40
0.7447419147307933
 40
1.0
 40
1.0
 40
1.0
 40
1.0
 10
-836.4101142807942
 20
276.4518892080138
 30
0.0
 10
-836.4101142807942
 20
277.0637696411879
 30
0.0
 10
-836.4101142807942
 20
277.9907097851351
 30
0.0
 10
-836.4101142807942
 20
279.3630306874342
 30
0.0
 10
-836.4101142807942
 20
280.0879258442234
 30
0.0
 10
-836.4101142807942
 20
280.451889208013
 30
0.0
  0
SPLINE
  5
D0D1
330
A
100
AcDbEntity
  8
0
  6
Continuous
 62
     7
370
    15
100
AcDbSpline
210
0.0
220
0.0
230
1.0
 70
    24
 71
     3
 72
    13
 73
     9
 74
     0
 42
0.00000001
 43
0.00000001
 40
0.0
 40
0.0
 40
0.0
 40
0.0
 40
0.1014874373039991
 40
0.2030082303270709
 40
0.4067471324741547
 40
0.5550073764191344
 40
0.7032966009078119
 40
0.9999999999999999
 40
0.9999999999999999
 40
0.9999999999999999
 40
0.9999999999999999
 10
-897.4101142807942
 20
276.451889208013
 30
0.0
 10
-895.3731582225364
 20
276.451889208013
 30
0.0
 10
-891.2985766228229
 20
276.451889208013
 30
0.0
 10
-883.0559266634212
 20
276.451889208013
 30
0.0
 10
-873.8390881265868
 20
276.451889208013
 30
0.0
 10
-863.648315621557
 20
276.451889208013
 30
0.0
 10
-851.5522505100882
 20
276.451889208013
 30
0.0
 10
-842.4674789577097
 20
276.451889208013
 30
0.0
 10
-836.410114280794
 20
276.451889208013
 30
0.0
  0
SPLINE
  5
D0D2
330
A
100
AcDbEntity
  8
0
  6
Continuous
 62
     7
370
    15
100
AcDbSpline
210
0.0
220
0.0
230
1.0
 70
     8
 71
     3
 72
    11
 73
     7
 74
     0
 42
0.00000001
 43
0.00000001
 40
0.0
 40
0.0
 40
0.0
 40
0.0
 40
0.2462031613405495
 40
0.4937554467535168
 40
0.7459916230375833
 40
1.0
 40
1.0
 40
1.0
 40
1.0
 10
-897.4101142807942
 20
276.451889208013
 30
0.0
 10
-897.5714725447476
 20
276.4529974265645
 30
0.0
 10
-897.8950732705541
 20
276.4552199363934
 30
0.0
 10
-898.3906498086002
 20
276.4741398740515
 30
0.0
 10
-898.8934727358794
 20
276.5042174440902
 30
0.0
 10
-899.2295141999841
 20
276.5353288162724
 30
0.0
 10
-899.3981231190172
 20
276.5509389578579
 30
0.0
  0
LINE
  5
D0D3
330
A
100
AcDbEntity
  8
0
  6
Continuous
 62
     7
370
    15
100
AcDbLine
 10
-716.1191209985963
 20
318.0307541392722
 30
0.0
 11
-777.9101142807963
 21
322.4518892079722
 31
0.0
  0
SPLINE
  5
D0D4
330
A
100
AcDbEntity
  8
0
  6
Continuous
 62
     7
370
    15
100
AcDbSpline
210
0.0
220
0.0
230
1.0
 70
    24
 71
     3
 72
    10
 73
     6
 74
     0
 42
0.00000001
 43
0.00000001
 40
0.0
 40
0.0
 40
0.0
 40
0.0
 40
0.4916099581662218
 40
0.7447419147307933
 40
1.0
 40
1.0
 40
1.0
 40
1.0
 10
-777.9101142807943
 20
326.4518892080123
 30
0.0
 10
-777.9101142807943
 20
325.8400087748381
 30
0.0
 10
-777.9101142807943
 20
324.913068630891
 30
0.0
 10
-777.9101142807942
 20
323.5407477285919
 30
0.0
 10
-777.9101142807942
 20
322.8158525718026
 30
0.0
 10
-777.9101142807943
 20
322.4518892080131
 30
0.0
  0
SPLINE
  5
D0D5
330
A
100
AcDbEntity
  8
0
  6
Continuous
 62
     7
370
    15
100
AcDbSpline
210
0.0
220
0.0
230
1.0
 70
    24
 71
     3
 72
    12
 73
     8
 74
     0
 42
0.00000001
 43
0.00000001
 40
0.0
 40
0.0
 40
0.0
 40
0.0
 40
0.1014881026950645
 40
0.2030095613278948
 40
0.4067497992663708
 40
0.7032946556050624
 40
1.0
 40
1.0
 40
1.0
 40
1.0
 10
-716.9101142807943
 20
326.451889208013
 30
0.0
 10
-718.947073239296
 20
326.451889208013
 30
0.0
 10
-723.0216606404499
 20
326.451889208013
 30
0.0
 10
-731.2642524695812
 20
326.4518892080131
 30
0.0
 10
-743.4951588817336
 20
326.4518892080131
 30
0.0
 10
-759.7421715179321
 20
326.4518892080131
 30
0.0
 10
-771.8530412686545
 20
326.4518892080131
 30
0.0
 10
-777.9101142807945
 20
326.4518892080131
 30
0.0
  0
SPLINE
  5
D0D6
330
A
100
AcDbEntity
  8
0
  6
Continuous
 62
     7
370
    15
100
AcDbSpline
210
0.0
220
0.0
230
1.0
 70
     8
 71
     3
 72
    11
 73
     7
 74
     0
 42
0.00000001
 43
0.00000001
 40
0.0
 40
0.0
 40
0.0
 40
0.0
 40
0.2462031613405495
 40
0.4937554467535168
 40
0.7459916230375833
 40
1.0
 40
1.0
 40
1.0
 40
1.0
 10
-716.9101142807943
 20
326.451889208013
 30
0.0
 10
-716.7487560168408
 20
326.4507809894616
 30
0.0
 10
-716.4251552910343
 20
326.4485584796327
 30
0.0
 10
-715.9295787529884
 20
326.4296385419746
 30
0.0
 10
-715.426755825709
 20
326.3995609719359
 30
0.0
 10
-715.0907143616045
 20
326.3684495997537
 30
0.0
 10
-714.9221054425714
 20
326.3528394581681
 30
0.0
  0
LINE
  5
D0D7
330
A
100
AcDbEntity
  8
0
  6
Continuous
 62
     7
370
    15
100
AcDbLine
 10
-716.1191209985963
 20
318.0307541392722
 30
0.0
 11
-714.9221054425963
 21
326.3528394581722
 31
0.0
  0
ARC
  5
D0D8
330
A
100
AcDbEntity
  8
0
  6
Continuous
 62
     7
370
    15
100
AcDbCircle
 10
-715.9101142807963
 20
306.9518892079722
 30
0.0
 40
11.08083624883923
100
AcDbArc
 50
5.173306065999942
 51
91.08077700470014
  0
SPLINE
  5
D0D9
330
A
100
AcDbEntity
  8
0
  6
Continuous
 62
     7
370
    15
100
AcDbSpline
210
0.0
220
0.0
230
1.0
 70
     8
 71
     3
 72
    24
 73
    20
 74
     0
 42
0.00000001
 43
0.00000001
 40
0.0
 40
0.0
 40
0.0
 40
0.0
 40
0.0532827910844087
 40
0.1068774615105366
 40
0.1614480784795478
 40
0.2163547135765259
 40
0.2743021635929485
 40
0.3326542237408401
 40
0.3922849599413298
 40
0.4523587214259646
 40
0.5100807989420848
 40
0.5682055846950039
 40
0.627601827140319
 40
0.6874379074348665
 40
0.7449958030508822
 40
0.8029537746822873
 40
0.8621731569625251
 40
0.921828153358138
 40
1.0
 40
1.0
 40
1.0
 40
1.0
 10
-714.9221054425715
 20
326.3528394581681
 30
0.0
 10
-714.423834639519
 20
326.2921083487332
 30
0.0
 10
-713.4243765125846
 20
326.1702906533945
 30
0.0
 10
-711.9336389038301
 20
325.8416896340403
 30
0.0
 10
-710.4541632089215
 20
325.4029176981289
 30
0.0
 10
-708.9729735600902
 20
324.8327725414762
 30
0.0
 10
-707.5078692817325
 20
324.1299338300288
 30
0.0
 10
-706.0657371101894
 20
323.2846563086738
 30
0.0
 10
-704.6818618897094
 20
322.3088148657
 30
0.0
 10
-703.3898407143629
 20
321.2216159687896
 30
0.0
 10
-702.2032685419199
 20
320.0394210828045
 30
0.0
 10
-701.1220826533547
 20
318.7676436880889
 30
0.0
 10
-700.139250870948
 20
317.3928907068322
 30
0.0
 10
-699.2794218434187
 20
315.9439048235426
 30
0.0
 10
-698.5501992295445
 20
314.4404350350962
 30
0.0
 10
-697.94868233488
 20
312.8875767278394
 30
0.0
 10
-697.4765600770963
 20
311.2708278521546
 30
0.0
 10
-697.0922988908709
 20
309.4321442072986
 30
0.0
 10
-696.9898783541246
 20
308.1244369334053
 30
0.0
 10
-696.9317880553476
 20
307.3827389432726
 30
0.0
  0
LINE
  5
D0DA
330
A
100
AcDbEntity
  8
0
  6
Continuous
 62
     7
370
    15
100
AcDbLine
 10
-704.8744156412963
 20
307.9510325972722
 30
0.0
 11
-696.9317880553963
 21
307.3827389432722
 31
0.0
  0
LINE
  5
D0DB
330
A
100
AcDbEntity
  8
0
  6
Continuous
 62
     7
370
    15
100
AcDbLine
 10
-704.8744156412963
 20
296.9510325972722
 30
0.0
 11
-704.8744156412963
 21
307.9510325972722
 31
0.0
  0
ARC
  5
D0DC
330
A
100
AcDbEntity
  8
0
  6
Continuous
 62
     7
370
    15
100
AcDbCircle
 10
-715.9101142807963
 20
295.9518892079722
 30
0.0
 40
11.08083624883924
100
AcDbArc
 50
279.2658351272004
 51
5.173306065999942
  0
LINE
  5
D0DD
330
A
100
AcDbEntity
  8
0
  6
Continuous
 62
     7
370
    15
100
AcDbLine
 10
-714.1259296570963
 20
285.0156367784722
 30
0.0
 11
-777.9101142807963
 21
280.4518892079722
 31
0.0
  0
LINE
  5
D0DE
330
A
100
AcDbEntity
  8
0
  6
Continuous
 62
     7
370
    15
100
AcDbLine
 10
-777.9101142807963
 20
280.4518892079722
 30
0.0
 11
-777.9101142807963
 21
286.4518892079722
 31
0.0
  0
LINE
  5
D0DF
330
A
100
AcDbEntity
  8
0
  6
Continuous
 62
     7
370
    15
100
AcDbLine
 10
-777.9101142807963
 20
286.4518892079722
 30
0.0
 11
-795.8090937663962
 21
286.4518892079722
 31
0.0
  0
LINE
  5
D0E0
330
A
100
AcDbEntity
  8
0
  6
Continuous
 62
     7
370
    15
100
AcDbLine
 10
-795.8090937663962
 20
286.4518892079722
 30
0.0
 11
-795.8090937663962
 21
316.4518892079722
 31
0.0
  0
LINE
  5
D0E1
330
A
100
AcDbEntity
  8
0
  6
Continuous
 62
     7
370
    15
100
AcDbLine
 10
-795.8090937663962
 20
316.4518892079722
 30
0.0
 11
-777.9101142807963
 21
316.4518892079722
 31
0.0
  0
LINE
  5
D0E2
330
A
100
AcDbEntity
  8
0
  6
Continuous
 62
     7
370
    15
100
AcDbLine
 10
-777.9101142807963
 20
316.4518892079722
 30
0.0
 11
-777.9101142807963
 21
322.4518892079722
 31
0.0
  0
LINE
  5
D0E3
330
A
100
AcDbEntity
  8
0
  6
Continuous
 62
     7
370
    15
100
AcDbLine
 10
-795.8090937663962
 20
286.4518892079722
 30
0.0
 11
-803.4101142807963
 21
286.4518892079722
 31
0.0
  0
LINE
  5
D0E4
330
A
100
AcDbEntity
  8
0
  6
Continuous
 62
     7
370
    15
100
AcDbLine
 10
-803.4101142807963
 20
286.4518892079722
 30
0.0
 11
-803.4101142807963
 21
290.0518892079722
 31
0.0
  0
LINE
  5
D0E5
330
A
100
AcDbEntity
  8
0
  6
Continuous
 62
     7
370
    15
100
AcDbLine
 10
-803.4101142807963
 20
292.8518892079722
 30
0.0
 11
-803.4101142807963
 21
310.0518892079722
 31
0.0
  0
LINE
  5
D0E6
330
A
100
AcDbEntity
  8
0
  6
Continuous
 62
     7
370
    15
100
AcDbLine
 10
-803.4101142807963
 20
312.8518892079722
 30
0.0
 11
-803.4101142807963
 21
316.4518892079722
 31
0.0
  0
LINE
  5
D0E7
330
A
100
AcDbEntity
  8
0
  6
Continuous
 62
     7
370
    15
100
AcDbLine
 10
-803.4101142807963
 20
316.4518892079722
 30
0.0
 11
-795.8090937663962
 21
316.4518892079722
 31
0.0
  0
LINE
  5
D0E8
330
A
100
AcDbEntity
  8
0
  6
Continuous
 62
     7
370
    15
100
AcDbLine
 10
-696.9317880553963
 20
307.3827389432722
 30
0.0
 11
-696.9101142807963
 21
306.4518892079722
 31
0.0
  0
LINE
  5
D0E9
330
A
100
AcDbEntity
  8
0
  6
Continuous
 62
     7
370
    15
100
AcDbLine
 10
-696.9101142807963
 20
296.4518892079722
 30
0.0
 11
-696.9101142807963
 21
306.4518892079722
 31
0.0
  0
LINE
  5
D0EA
330
A
100
AcDbEntity
  8
0
  6
Continuous
 62
     7
370
    15
100
AcDbLine
 10
-696.9101142807963
 20
296.4518892079722
 30
0.0
 11
-696.9102392153962
 21
296.3811971274722
 31
0.0
  0
LINE
  5
D0EB
330
A
100
AcDbEntity
  8
0
  6
Continuous
 62
     7
370
    15
100
AcDbLine
 10
-704.8744156412963
 20
296.9510325972722
 30
0.0
 11
-696.9102392153962
 21
296.3811971274722
 31
0.0
  0
SPLINE
  5
D0EC
330
A
100
AcDbEntity
  8
0
  6
Continuous
 62
     7
370
    15
100
AcDbSpline
210
0.0
220
0.0
230
1.0
 70
     8
 71
     3
 72
    24
 73
    20
 74
     0
 42
0.00000001
 43
0.00000001
 40
0.0
 40
0.0
 40
0.0
 40
0.0
 40
0.0527442642350882
 40
0.1057957576411083
 40
0.1598092632438896
 40
0.214153644441163
 40
0.2716456313160884
 40
0.3295376980002544
 40
0.3886918301960343
 40
0.4482820738965349
 40
0.5057103480991396
 40
0.5635368378243499
 40
0.622617755406463
 40
0.6821314383177985
 40
0.7396411372502968
 40
0.7975482049943641
 40
0.8567054593770189
 40
0.916293603748354
 40
1.0
 40
1.0
 40
1.0
 40
1.0
 10
-696.9102392154409
 20
296.3811971274392
 30
0.0
 10
-696.9229441742455
 20
295.8789977803377
 30
0.0
 10
-696.9484280967533
 20
294.8716738336682
 30
0.0
 10
-697.1324621865626
 20
293.3581931971849
 30
0.0
 10
-697.4264833058561
 20
291.8470950157472
 30
0.0
 10
-697.8503075463402
 20
290.3221318872465
 30
0.0
 10
-698.4069212271106
 20
288.8005844256845
 30
0.0
 10
-699.1066201117098
 20
287.2883022312658
 30
0.0
 10
-699.9402414445958
 20
285.8223642657354
 30
0.0
 10
-700.8926379482241
 20
284.436249934748
 30
0.0
 10
-701.9491651129005
 20
283.1448828571139
 30
0.0
 10
-703.1046203150643
 20
281.9487748449154
 30
0.0
 10
-704.3702540268645
 20
280.8406919588928
 30
0.0
 10
-705.7218041237422
 20
279.8460356222776
 30
0.0
 10
-707.1408242370067
 20
278.974470735611
 30
0.0
 10
-708.6221636229202
 20
278.2239512500494
 30
0.0
 10
-710.1777462640837
 20
277.5958228861037
 30
0.0
 10
-712.0107808495513
 20
277.01645475417
 30
0.0
 10
-713.3459703905996
 20
276.7830021760881
 30
0.0
 10
-714.1259296570737
 20
276.6466294020666
 30
0.0
  0
LINE
  5
D0ED
330
A
100
AcDbEntity
  8
0
  6
Continuous
 62
     7
370
    15
100
AcDbLine
 10
-714.1259296570963
 20
285.0156367784722
 30
0.0
 11
-714.1259296570963
 21
276.6466294020722
 31
0.0
  0
SPLINE
  5
D0EE
330
A
100
AcDbEntity
  8
0
  6
Continuous
 62
     7
370
    15
100
AcDbSpline
210
0.0
220
0.0
230
1.0
 70
     8
 71
     3
 72
    12
 73
     8
 74
     0
 42
0.00000001
 43
0.00000001
 40
0.0
 40
0.0
 40
0.0
 40
0.0
 40
0.1886563413018559
 40
0.3785251254648222
 40
0.5726237701107951
 40
0.7683145328474845
 40
1.0
 40
1.0
 40
1.0
 40
1.0
 10
-716.9101142807943
 20
276.4518892080131
 30
0.0
 10
-716.7363650051434
 20
276.4531910111667
 30
0.0
 10
-716.3877498146264
 20
276.4558029838078
 30
0.0
 10
-715.852675376954
 20
276.4775447081181
 30
0.0
 10
-715.3097997974116
 20
276.5136343673676
 30
0.0
 10
-714.7294585956045
 20
276.5673809149978
 30
0.0
 10
-714.3380932294542
 20
276.6187705190059
 30
0.0
 10
-714.1259296570737
 20
276.6466294020666
 30
0.0
  0
SPLINE
  5
D0EF
330
A
100
AcDbEntity
  8
0
  6
Continuous
 62
     7
370
    15
100
AcDbSpline
210
0.0
220
0.0
230
1.0
 70
    24
 71
     3
 72
    13
 73
     9
 74
     0
 42
0.00000001
 43
0.00000001
 40
0.0
 40
0.0
 40
0.0
 40
0.0
 40
0.1014874373039994
 40
0.2030082303270714
 40
0.4067471324741556
 40
0.5550073764191346
 40
0.7032966009078118
 40
1.0
 40
1.0
 40
1.0
 40
1.0
 10
-716.9101142807943
 20
276.4518892080131
 30
0.0
 10
-718.9470703390523
 20
276.4518892080131
 30
0.0
 10
-723.0216519387658
 20
276.4518892080131
 30
0.0
 10
-731.2643018981673
 20
276.4518892080131
 30
0.0
 10
-740.4811404350016
 20
276.4518892080131
 30
0.0
 10
-750.6719129400313
 20
276.4518892080131
 30
0.0
 10
-762.7679780515002
 20
276.4518892080131
 30
0.0
 10
-771.8527496038787
 20
276.4518892080131
 30
0.0
 10
-777.9101142807943
 20
276.4518892080131
 30
0.0
  0
LINE
  5
D0F0
330
A
100
AcDbEntity
  8
0
  6
Continuous
 62
     7
370
    15
100
AcDbLine
 10
-777.9101142807963
 20
280.4518892079722
 30
0.0
 11
-777.9101142807963
 21
276.4518892079722
 31
0.0
  0
LINE
  5
D0F1
330
A
100
AcDbEntity
  8
0
  6
Continuous
 62
     7
370
    15
100
AcDbLine
 10
-782.9101142807963
 20
326.4518892079722
 30
0.0
 11
-790.9101142807963
 21
326.4518892079722
 31
0.0
  0
ARC
  5
D0F2
330
A
100
AcDbEntity
  8
0
  6
Continuous
 62
     7
370
    15
100
AcDbCircle
 10
-792.9101142807963
 20
318.9518892079722
 30
0.0
 40
12.50000000000006
100
AcDbArc
 50
16.26020470830018
 51
36.86989764579994
  0
LINE
  5
D0F3
330
A
100
AcDbEntity
  8
0
  6
Continuous
 62
     7
370
    15
100
AcDbLine
 10
-790.9101142807963
 20
322.4518892079722
 30
0.0
 11
-780.9101142807963
 21
322.4518892079722
 31
0.0
  0
LINE
  5
D0F4
330
A
100
AcDbEntity
  8
0
  6
Continuous
 62
     7
370
    15
100
AcDbLine
 10
-836.4101142807963
 20
326.4518892079722
 30
0.0
 11
-790.9101142807963
 21
326.4518892079722
 31
0.0
  0
LINE
  5
D0F5
330
A
100
AcDbEntity
  8
0
  6
Continuous
 62
     7
370
    15
100
AcDbLine
 10
-836.4101142807963
 20
322.4518892079722
 30
0.0
 11
-790.9101142807963
 21
322.4518892079722
 31
0.0
  0
LINE
  5
D0F6
330
A
100
AcDbEntity
  8
0
  6
Continuous
 62
     7
370
    15
100
AcDbLine
 10
-780.9101142807963
 20
322.4518892079722
 30
0.0
 11
-780.9101142807963
 21
320.9124971938722
 31
0.0
  0
LINE
  5
D0F7
330
A
100
AcDbEntity
  8
0
  6
Continuous
 62
     7
370
    15
100
AcDbLine
 10
-780.9101142807963
 20
320.9124971938722
 30
0.0
 11
-780.9602399096963
 21
320.8623715648722
 31
0.0
  0
SPLINE
  5
D0F8
330
A
100
AcDbEntity
  8
0
  6
Continuous
 62
     7
370
    15
100
AcDbSpline
210
0.0
220
0.0
230
1.0
 70
     8
 71
     3
 72
    14
 73
    10
 74
     0
 42
0.00000001
 43
0.00000001
 40
0.0
 40
0.0
 40
0.0
 40
0.0
 40
0.25
 40
0.25
 40
0.5
 40
0.5
 40
0.75
 40
0.75
 40
1.0
 40
1.0
 40
1.0
 40
1.0
 10
-780.9602399097281
 20
320.8623715649098
 30
0.0
 10
-780.977331781388
 20
320.8452796932499
 30
0.0
 10
-780.9983755669385
 20
320.7935000280224
 30
0.0
 10
-781.0430845749596
 20
320.6313355273736
 30
0.0
 10
-781.0664789392515
 20
320.5214737583322
 30
0.0
 10
-781.1079643240116
 20
320.2627397006868
 30
0.0
 10
-781.1261911727576
 20
320.1121346232181
 30
0.0
 10
-781.1511179865935
 20
319.7932497632573
 30
0.0
 10
-781.1579946833768
 20
319.6212606229246
 30
0.0
 10
-781.1579946833768
 20
319.451889208013
 30
0.0
  0
LINE
  5
D0F9
330
A
100
AcDbEntity
  8
0
  6
Continuous
 62
     7
370
    15
100
AcDbLine
 10
-781.1579946833963
 20
319.4518892079722
 30
0.0
 11
-781.1579946833963
 21
318.9040088054722
 31
0.0
  0
LINE
  5
D0FA
330
A
100
AcDbEntity
  8
0
  6
Continuous
 62
     7
370
    15
100
AcDbLine
 10
-782.9101142807963
 20
317.1518892079722
 30
0.0
 11
-781.1579946833963
 21
318.9040088054722
 31
0.0
  0
LINE
  5
D0FB
330
A
100
AcDbEntity
  8
0
  6
Continuous
 62
     7
370
    15
100
AcDbLine
 10
-782.9101142807963
 20
317.1518892079722
 30
0.0
 11
-790.9101142807963
 21
317.1518892079722
 31
0.0
  0
LINE
  5
D0FC
330
A
100
AcDbEntity
  8
0
  6
Continuous
 62
     7
370
    15
100
AcDbLine
 10
-804.4101142807963
 20
317.1518892079722
 30
0.0
 11
-790.9101142807963
 21
317.1518892079722
 31
0.0
  0
LINE
  5
D0FD
330
A
100
AcDbEntity
  8
0
  6
Continuous
 62
     7
370
    15
100
AcDbLine
 10
-804.4101142807963
 20
317.1518892079722
 30
0.0
 11
-804.4101142807963
 21
285.7518892079722
 31
0.0
  0
LINE
  5
D0FE
330
A
100
AcDbEntity
  8
0
  6
Continuous
 62
     7
370
    15
100
AcDbLine
 10
-790.9101142807963
 20
285.7518892079722
 30
0.0
 11
-804.4101142807963
 21
285.7518892079722
 31
0.0
  0
LINE
  5
D0FF
330
A
100
AcDbEntity
  8
0
  6
Continuous
 62
     7
370
    15
100
AcDbLine
 10
-836.4101142807963
 20
280.4518892079722
 30
0.0
 11
-790.9101142807963
 21
280.4518892079722
 31
0.0
  0
LINE
  5
D100
330
A
100
AcDbEntity
  8
0
  6
Continuous
 62
     7
370
    15
100
AcDbLine
 10
-836.4101142807963
 20
280.4518892079722
 30
0.0
 11
-836.4101142807963
 21
286.2018892079722
 31
0.0
  0
LINE
  5
D101
330
A
100
AcDbEntity
  8
0
  6
Continuous
 62
     7
370
    15
100
AcDbLine
 10
-810.9101142807963
 20
286.2018892079722
 30
0.0
 11
-836.4101142807963
 21
286.2018892079722
 31
0.0
  0
LINE
  5
D102
330
A
100
AcDbEntity
  8
0
  6
Continuous
 62
     7
370
    15
100
AcDbLine
 10
-810.9101142807963
 20
316.7018892079722
 30
0.0
 11
-810.9101142807963
 21
286.2018892079722
 31
0.0
  0
LINE
  5
D103
330
A
100
AcDbEntity
  8
0
  6
Continuous
 62
     7
370
    15
100
AcDbLine
 10
-836.4101142807963
 20
316.7018892079722
 30
0.0
 11
-810.9101142807963
 21
316.7018892079722
 31
0.0
  0
LINE
  5
D104
330
A
100
AcDbEntity
  8
0
  6
Continuous
 62
     7
370
    15
100
AcDbLine
 10
-836.4101142807963
 20
316.7018892079722
 30
0.0
 11
-836.4101142807963
 21
322.4518892079722
 31
0.0
  0
LINE
  5
D105
330
A
100
AcDbEntity
  8
0
  6
Continuous
 62
     7
370
    15
100
AcDbLine
 10
-781.1579946833963
 20
283.4518892079722
 30
0.0
 11
-781.1579946833963
 21
283.9997696105722
 31
0.0
  0
SPLINE
  5
D106
330
A
100
AcDbEntity
  8
0
  6
Continuous
 62
     7
370
    15
100
AcDbSpline
210
0.0
220
0.0
230
1.0
 70
     8
 71
     3
 72
    14
 73
    10
 74
     0
 42
0.00000001
 43
0.00000001
 40
0.0
 40
0.0
 40
0.0
 40
0.0
 40
0.25
 40
0.25
 40
0.5
 40
0.5
 40
0.75
 40
0.75
 40
1.0
 40
1.0
 40
1.0
 40
1.0
 10
-780.9602399097281
 20
282.0414068511163
 30
0.0
 10
-780.977331781388
 20
282.0584987227762
 30
0.0
 10
-780.9983755669385
 20
282.1102783880036
 30
0.0
 10
-781.0430845749596
 20
282.2724428886524
 30
0.0
 10
-781.0664789392515
 20
282.3823046576939
 30
0.0
 10
-781.1079643240116
 20
282.6410387153393
 30
0.0
 10
-781.1261911727576
 20
282.791643792808
 30
0.0
 10
-781.1511179865935
 20
283.1105286527688
 30
0.0
 10
-781.1579946833768
 20
283.2825177931015
 30
0.0
 10
-781.1579946833768
 20
283.4518892080131
 30
0.0
  0
LINE
  5
D107
330
A
100
AcDbEntity
  8
0
  6
Continuous
 62
     7
370
    15
100
AcDbLine
 10
-780.9101142807963
 20
281.9912812221722
 30
0.0
 11
-780.9602399096963
 21
282.0414068510722
 31
0.0
  0
LINE
  5
D108
330
A
100
AcDbEntity
  8
0
  6
Continuous
 62
     7
370
    15
100
AcDbLine
 10
-780.9101142807963
 20
281.9912812221722
 30
0.0
 11
-780.9101142807963
 21
280.4518892079722
 31
0.0
  0
LINE
  5
D109
330
A
100
AcDbEntity
  8
0
  6
Continuous
 62
     7
370
    15
100
AcDbLine
 10
-790.9101142807963
 20
280.4518892079722
 30
0.0
 11
-780.9101142807963
 21
280.4518892079722
 31
0.0
  0
LINE
  5
D10A
330
A
100
AcDbEntity
  8
0
  6
Continuous
 62
     7
370
    15
100
AcDbLine
 10
-782.9101142807963
 20
285.7518892079722
 30
0.0
 11
-781.1579946833963
 21
283.9997696105722
 31
0.0
  0
LINE
  5
D10B
330
A
100
AcDbEntity
  8
0
  6
Continuous
 62
     7
370
    15
100
AcDbLine
 10
-790.9101142807963
 20
285.7518892079722
 30
0.0
 11
-782.9101142807963
 21
285.7518892079722
 31
0.0
  0
LINE
  5
D10C
330
A
100
AcDbEntity
  8
0
  6
Continuous
 62
     7
370
    15
100
AcDbLine
 10
-790.9101142807963
 20
276.4518892079722
 30
0.0
 11
-836.4101142807963
 21
276.4518892079722
 31
0.0
  0
LINE
  5
D10D
330
A
100
AcDbEntity
  8
0
  6
Continuous
 62
     7
370
    15
100
AcDbLine
 10
-836.4101142807963
 20
280.4518892079722
 30
0.0
 11
-836.4101142807963
 21
276.4518892079722
 31
0.0
  0
ARC
  5
D10E
330
A
100
AcDbEntity
  8
0
  6
Continuous
 62
     7
370
    15
100
AcDbCircle
 10
-792.9101142807963
 20
283.9518892079722
 30
0.0
 40
12.50000000000006
100
AcDbArc
 50
323.1301023542001
 51
343.7397952916999
  0
LINE
  5
D10F
330
A
100
AcDbEntity
  8
0
  6
Continuous
 62
     7
370
    15
100
AcDbLine
 10
-790.9101142807963
 20
276.4518892079722
 30
0.0
 11
-782.9101142807963
 21
276.4518892079722
 31
0.0
  0
LINE
  5
D110
330
A
100
AcDbEntity
  8
0
  6
Continuous
 62
     8
370
     0
100
AcDbLine
 10
-790.9101142807963
 20
322.4518892079722
 30
0.0
 11
-790.9101142807963
 21
326.4518892079722
 31
0.0
  0
LINE
  5
D111
330
A
100
AcDbEntity
  8
0
  6
Continuous
 62
     8
370
     0
100
AcDbLine
 10
-790.9101142807963
 20
317.1518892079722
 30
0.0
 11
-790.9101142807963
 21
322.4518892079722
 31
0.0
  0
LINE
  5
D112
330
A
100
AcDbEntity
  8
0
  6
Continuous
 62
     8
370
     0
100
AcDbLine
 10
-790.9101142807963
 20
280.4518892079722
 30
0.0
 11
-790.9101142807963
 21
285.7518892079722
 31
0.0
  0
LINE
  5
D113
330
A
100
AcDbEntity
  8
0
  6
Continuous
 62
     8
370
     0
100
AcDbLine
 10
-790.9101142807963
 20
280.4518892079722
 30
0.0
 11
-790.9101142807963
 21
276.4518892079722
 31
0.0
  0
CIRCLE
  5
D114
330
A
100
AcDbEntity
  8
0
  6
CENTER
 62
     1
370
     0
100
AcDbCircle
 10
-895.4101142807963
 20
301.4518892079722
 30
0.0
 40
9.99999999999995
  0
CIRCLE
  5
D115
330
A
100
AcDbEntity
  8
0
  6
CENTER
 62
     1
370
     0
100
AcDbCircle
 10
-847.4101142807963
 20
301.4518892079722
 30
0.0
 40
9.99999999999996
  0
CIRCLE
  5
D116
330
A
100
AcDbEntity
  8
0
  6
CENTER
 62
     1
370
     0
100
AcDbCircle
 10
-766.9101142807963
 20
301.4518892079722
 30
0.0
 40
9.999999999999996
  0
CIRCLE
  5
D117
330
A
100
AcDbEntity
  8
0
  6
CENTER
 62
     1
370
     0
100
AcDbCircle
 10
-718.9101142807963
 20
301.4518892079722
 30
0.0
 40
10.00000000000006
  0
INSERT
  5
D118
330
A
100
AcDbEntity
  8
0
  6
Continuous
 62
     7
370
     0
100
AcDbBlockReference
  2
SW_CENTERMARKSYMBOL_0
 10
-895.4101142807963
 20
301.4518892079722
 30
0.0
  0
INSERT
  5
D119
330
A
100
AcDbEntity
  8
0
  6
Continuous
 62
     7
370
     0
100
AcDbBlockReference
  2
SW_CENTERMARKSYMBOL_1
 10
-847.4101142807963
 20
301.4518892079722
 30
0.0
  0
INSERT
  5
D11A
330
A
100
AcDbEntity
  8
0
  6
Continuous
 62
     7
370
     0
100
AcDbBlockReference
  2
SW_CENTERMARKSYMBOL_2
 10
-766.9101142807963
 20
301.4518892079722
 30
0.0
  0
INSERT
  5
D11B
330
A
100
AcDbEntity
  8
0
  6
Continuous
 62
     7
370
     0
100
AcDbBlockReference
  2
SW_CENTERMARKSYMBOL_3
 10
-718.9101142807963
 20
301.4518892079722
 30
0.0
  0
LINE
  5
D11C
330
A
100
AcDbEntity
  8
0
  6
Continuous
 62
     7
370
    15
100
AcDbLine
 10
-971.0499994903963
 20
291.9518895134722
 30
0.0
 11
-971.0000005066963
 21
291.9518895134722
 31
0.0
  0
LINE
  5
D11D
330
A
100
AcDbEntity
  8
0
  6
Continuous
 62
     7
370
    15
100
AcDbLine
 10
-971.0000005066963
 20
310.9518889025722
 30
0.0
 11
-971.0499994903963
 21
310.9518889025722
 31
0.0
  0
LINE
  5
D11E
330
A
100
AcDbEntity
  8
0
  6
Continuous
 62
     7
370
    15
100
AcDbLine
 10
-975.9999994635963
 20
291.9518895134722
 30
0.0
 11
-971.0499994903963
 21
291.9518895134722
 31
0.0
  0
LINE
  5
D11F
330
A
100
AcDbEntity
  8
0
  6
Continuous
 62
     7
370
    15
100
AcDbLine
 10
-971.0499994903963
 20
310.9518889025722
 30
0.0
 11
-975.9999994635963
 21
310.9518889025722
 31
0.0
  0
LINE
  5
D120
330
A
100
AcDbEntity
  8
0
  6
Continuous
 62
     7
370
    15
100
AcDbLine
 10
-971.0499994903963
 20
293.5518895894722
 30
0.0
 11
-970.8499998301962
 21
293.5518895894722
 31
0.0
  0
LINE
  5
D121
330
A
100
AcDbEntity
  8
0
  6
Continuous
 62
     7
370
    15
100
AcDbLine
 10
-970.8499998301962
 20
309.3518888265722
 30
0.0
 11
-971.0499994903963
 21
309.3518888265722
 31
0.0
  0
LINE
  5
D122
330
A
100
AcDbEntity
  8
0
  6
Continuous
 62
     7
370
    15
100
AcDbLine
 10
-970.8499998301962
 20
293.5518895894722
 30
0.0
 11
-970.0000003427963
 21
294.4018890768722
 31
0.0
  0
LINE
  5
D123
330
A
100
AcDbEntity
  8
0
  6
Continuous
 62
     7
370
    15
100
AcDbLine
 10
-970.0000003427963
 20
308.5018893391722
 30
0.0
 11
-970.8499998301962
 21
309.3518888265722
 31
0.0
  0
LINE
  5
D124
330
A
100
AcDbEntity
  8
0
  6
Continuous
 62
     7
370
    15
100
AcDbLine
 10
-970.7999989837963
 20
293.5518895894722
 30
0.0
 11
-970.0000003427963
 21
294.3518891617722
 31
0.0
  0
LINE
  5
D125
330
A
100
AcDbEntity
  8
0
  6
Continuous
 62
     7
370
    15
100
AcDbLine
 10
-970.0000003427963
 20
308.5518892541722
 30
0.0
 11
-970.7999989837963
 21
309.3518888265722
 31
0.0
  0
LINE
  5
D126
330
A
100
AcDbEntity
  8
0
  6
Continuous
 62
     7
370
    15
100
AcDbLine
 10
-970.8499998301962
 20
293.5518895894722
 30
0.0
 11
-970.7999989837963
 21
293.5518895894722
 31
0.0
  0
LINE
  5
D127
330
A
100
AcDbEntity
  8
0
  6
Continuous
 62
     7
370
    15
100
AcDbLine
 10
-970.7999989837963
 20
309.3518888265722
 30
0.0
 11
-970.8499998301962
 21
309.3518888265722
 31
0.0
  0
LINE
  5
D128
330
A
100
AcDbEntity
  8
0
  6
Continuous
 62
     7
370
    15
100
AcDbLine
 10
-1001.577484093596
 20
319.1902836472722
 30
0.0
 11
-1001.999999999996
 21
318.0327260554722
 31
0.0
  0
LINE
  5
D129
330
A
100
AcDbEntity
  8
0
  6
Continuous
 62
     7
370
    15
100
AcDbLine
 10
-1001.470331706096
 20
319.4838458359722
 30
0.0
 11
-1001.577484093596
 21
319.1902836472722
 31
0.0
  0
LINE
  5
D12A
330
A
100
AcDbEntity
  8
0
  6
Continuous
 62
     7
370
    15
100
AcDbLine
 10
-976.9999996274963
 20
306.4518890962722
 30
0.0
 11
-976.9999996274963
 21
325.4518894166722
 31
0.0
  0
LINE
  5
D12B
330
A
100
AcDbEntity
  8
0
  6
Continuous
 62
     7
370
    15
100
AcDbLine
 10
-976.9999996274963
 20
325.4518894166722
 30
0.0
 11
-975.9999994635963
 21
325.4518894166722
 31
0.0
  0
LINE
  5
D12C
330
A
100
AcDbEntity
  8
0
  6
Continuous
 62
     7
370
    15
100
AcDbLine
 10
-975.9999994635963
 20
306.4518890962722
 30
0.0
 11
-975.9999994635963
 21
325.4518894166722
 31
0.0
  0
LINE
  5
D12D
330
A
100
AcDbEntity
  8
0
  6
Continuous
 62
     7
370
    15
100
AcDbLine
 10
-976.9999996274963
 20
296.4518893197722
 30
0.0
 11
-976.9999996274963
 21
306.4518890962722
 31
0.0
  0
LINE
  5
D12E
330
A
100
AcDbEntity
  8
0
  6
Continuous
 62
     7
370
    15
100
AcDbLine
 10
-975.9999994635963
 20
296.4518893197722
 30
0.0
 11
-975.9999994635963
 21
306.4518890962722
 31
0.0
  0
LINE
  5
D12F
330
A
100
AcDbEntity
  8
0
  6
Continuous
 62
     7
370
    15
100
AcDbLine
 10
-976.9999996274963
 20
277.4518889993722
 30
0.0
 11
-975.9999994635963
 21
277.4518889993722
 31
0.0
  0
LINE
  5
D130
330
A
100
AcDbEntity
  8
0
  6
Continuous
 62
     7
370
    15
100
AcDbLine
 10
-976.9999996274963
 20
277.4518889993722
 30
0.0
 11
-976.9999996274963
 21
296.4518893197722
 31
0.0
  0
LINE
  5
D131
330
A
100
AcDbEntity
  8
0
  6
Continuous
 62
     7
370
    15
100
AcDbLine
 10
-975.9999994635963
 20
277.4518889993722
 30
0.0
 11
-975.9999994635963
 21
296.4518893197722
 31
0.0
  0
LINE
  5
D132
330
A
100
AcDbEntity
  8
0
  6
Continuous
 62
     7
370
    15
100
AcDbLine
 10
-977.9999997913962
 20
325.4518894166722
 30
0.0
 11
-976.9999996274963
 21
325.4518894166722
 31
0.0
  0
LINE
  5
D133
330
A
100
AcDbEntity
  8
0
  6
Continuous
 62
     7
370
    15
100
AcDbLine
 10
-977.9999997913962
 20
277.4518889993722
 30
0.0
 11
-976.9999996274963
 21
277.4518889993722
 31
0.0
  0
LINE
  5
D134
330
A
100
AcDbEntity
  8
0
  6
Continuous
 62
     7
370
    15
100
AcDbLine
 10
-970.0000003427963
 20
313.2917176619722
 30
0.0
 11
-970.0000003427963
 21
289.6120607540722
 31
0.0
  0
LINE
  5
D135
330
A
100
AcDbEntity
  8
0
  6
Continuous
 62
     7
370
    15
100
AcDbLine
 10
-970.0000003427963
 20
313.2917176619722
 30
0.0
 11
-970.0000003427963
 21
314.5060589224722
 31
0.0
  0
LINE
  5
D136
330
A
100
AcDbEntity
  8
0
  6
Continuous
 62
     7
370
    15
100
AcDbLine
 10
-970.0000003427963
 20
288.3977194935722
 30
0.0
 11
-970.0000003427963
 21
289.6120607540722
 31
0.0
  0
LINE
  5
D137
330
A
100
AcDbEntity
  8
0
  6
Continuous
 62
     7
370
    15
100
AcDbLine
 10
-969.1999998390963
 20
322.9518899381722
 30
0.0
 11
-970.0000003427963
 21
322.9518899381722
 31
0.0
  0
LINE
  5
D138
330
A
100
AcDbEntity
  8
0
  6
Continuous
 62
     7
370
    15
100
AcDbLine
 10
-970.0000003427963
 20
322.9518899381722
 30
0.0
 11
-970.0000003427963
 21
314.5060589224722
 31
0.0
  0
LINE
  5
D139
330
A
100
AcDbEntity
  8
0
  6
Continuous
 62
     7
370
    15
100
AcDbLine
 10
-969.1999998390963
 20
279.9518884778722
 30
0.0
 11
-970.0000003427963
 21
279.9518884778722
 31
0.0
  0
LINE
  5
D13A
330
A
100
AcDbEntity
  8
0
  6
Continuous
 62
     7
370
    15
100
AcDbLine
 10
-970.0000003427963
 20
288.3977194935722
 30
0.0
 11
-970.0000003427963
 21
279.9518884778722
 31
0.0
  0
LINE
  5
D13B
330
A
100
AcDbEntity
  8
0
  6
Continuous
 62
     7
370
    15
100
AcDbLine
 10
-971.0000005066963
 20
309.3518888265722
 30
0.0
 11
-971.0000005066963
 21
310.9518889025722
 31
0.0
  0
LINE
  5
D13C
330
A
100
AcDbEntity
  8
0
  6
Continuous
 62
     7
370
    15
100
AcDbLine
 10
-971.0000005066963
 20
291.9518895134722
 30
0.0
 11
-971.0000005066963
 21
293.5518895894722
 31
0.0
  0
LINE
  5
D13D
330
A
100
AcDbEntity
  8
0
  6
Continuous
 62
     7
370
    15
100
AcDbLine
 10
-971.0499994903963
 20
291.9518895134722
 30
0.0
 11
-971.0499994903963
 21
310.9518823832722
 31
0.0
  0
LINE
  5
D13E
330
A
100
AcDbEntity
  8
0
  6
Continuous
 62
     7
370
    15
100
AcDbLine
 10
-970.8499998301962
 20
293.5518895894722
 30
0.0
 11
-970.8499998301962
 21
309.3518888265722
 31
0.0
  0
LINE
  5
D13F
330
A
100
AcDbEntity
  8
0
  6
Continuous
 62
     7
370
    15
100
AcDbLine
 10
-969.1999998390963
 20
306.4518890962722
 30
0.0
 11
-969.1999998390963
 21
326.4518895805722
 31
0.0
  0
LINE
  5
D140
330
A
100
AcDbEntity
  8
0
  6
Continuous
 62
     7
370
    15
100
AcDbLine
 10
-969.1999998390963
 20
326.4518895805722
 30
0.0
 11
-963.2000007182963
 21
326.4518895805722
 31
0.0
  0
LINE
  5
D141
330
A
100
AcDbEntity
  8
0
  6
Continuous
 62
     7
370
    15
100
AcDbLine
 10
-963.2000007182963
 20
326.4518895805722
 30
0.0
 11
-963.2000007182963
 21
306.4518890962722
 31
0.0
  0
LINE
  5
D142
330
A
100
AcDbEntity
  8
0
  6
Continuous
 62
     7
370
    15
100
AcDbLine
 10
-969.1999998390963
 20
296.4518893197722
 30
0.0
 11
-969.1999998390963
 21
306.4518890962722
 31
0.0
  0
LINE
  5
D143
330
A
100
AcDbEntity
  8
0
  6
Continuous
 62
     7
370
    15
100
AcDbLine
 10
-963.2000007182963
 20
296.4518893197722
 30
0.0
 11
-963.2000007182963
 21
306.4518890962722
 31
0.0
  0
LINE
  5
D144
330
A
100
AcDbEntity
  8
0
  6
Continuous
 62
     7
370
    15
100
AcDbLine
 10
-963.2000007182963
 20
276.4518888354722
 30
0.0
 11
-969.1999998390963
 21
276.4518888354722
 31
0.0
  0
LINE
  5
D145
330
A
100
AcDbEntity
  8
0
  6
Continuous
 62
     7
370
    15
100
AcDbLine
 10
-969.1999998390963
 20
276.4518888354722
 30
0.0
 11
-969.1999998390963
 21
296.4518893197722
 31
0.0
  0
LINE
  5
D146
330
A
100
AcDbEntity
  8
0
  6
Continuous
 62
     7
370
    15
100
AcDbLine
 10
-963.2000007182963
 20
296.4518893197722
 30
0.0
 11
-963.2000007182963
 21
276.4518888354722
 31
0.0
  0
LINE
  5
D147
330
A
100
AcDbEntity
  8
0
  6
Continuous
 62
     7
370
    15
100
AcDbLine
 10
-970.7999989837963
 20
293.5518895894722
 30
0.0
 11
-970.7999989837963
 21
293.6018895045722
 31
0.0
  0
LINE
  5
D148
330
A
100
AcDbEntity
  8
0
  6
Continuous
 62
     7
370
    15
100
AcDbLine
 10
-970.7999989837963
 20
309.3018889114722
 30
0.0
 11
-970.7999989837963
 21
309.3518888265722
 31
0.0
  0
LINE
  5
D149
330
A
100
AcDbEntity
  8
0
  6
Continuous
 62
     7
370
    15
100
AcDbLine
 10
-1001.999999999996
 20
307.9510325253722
 30
0.0
 11
-1001.999999999996
 21
318.0327260554722
 31
0.0
  0
ARC
  5
D14A
330
A
100
AcDbEntity
  8
0
  6
Continuous
 62
     7
370
    15
100
AcDbCircle
 10
-990.0823181083963
 20
314.4897374605722
 30
0.0
 40
12.43261582938819
100
AcDbArc
 50
107.4092622868002
 51
163.4521105095001
  0
SPLINE
  5
D14B
330
A
100
AcDbEntity
  8
0
  6
Continuous
 62
     7
370
    15
100
AcDbSpline
210
0.0
220
0.0
230
1.0
 70
     8
 71
     3
 72
    16
 73
    12
 74
     0
 42
0.00000001
 43
0.00000001
 40
0.0
 40
0.0
 40
0.0
 40
0.0
 40
0.1081837447303958
 40
0.2163660725170638
 40
0.3343559570413248
 40
0.4523437031357241
 40
0.5698707620914601
 40
0.6873969561707194
 40
0.804579614645646
 40
0.921762790076269
 40
1.0
 40
1.0
 40
1.0
 40
1.0
 10
-993.8020952027537
 20
326.3528396994414
 30
0.0
 10
-993.9482795139911
 20
326.2058482803611
 30
0.0
 10
-994.2406462218075
 20
325.9118673674301
 30
0.0
 10
-994.5782642497558
 20
324.8628023917664
 30
0.0
 10
-994.8523097757133
 20
323.3231192543253
 30
0.0
 10
-995.0514977986165
 20
321.2629524350787
 30
0.0
 10
-995.1743446495675
 20
318.7801551879468
 30
0.0
 10
-995.2240426281003
 20
315.9619582798424
 30
0.0
 10
-995.1991204786661
 20
312.8744230339038
 30
0.0
 10
-995.1166098804259
 20
309.9765376825679
 30
0.0
 10
-995.022694976939
 20
308.1242918761094
 30
0.0
 10
-994.9850958287961
 20
307.3827390246632
 30
0.0
  0
ARC
  5
D14C
330
A
100
AcDbEntity
  8
0
  6
Continuous
 62
     7
370
    15
100
AcDbCircle
 10
-994.8035615428963
 20
353.2030142957722
 30
0.0
 40
45.82063487790781
100
AcDbArc
 50
260.9639014086999
 51
269.7730023677
  0
LINE
  5
D14D
330
A
100
AcDbEntity
  8
0
  6
Continuous
 62
     7
370
    15
100
AcDbLine
 10
-1001.999999999996
 20
285.0156364649722
 30
0.0
 11
-1001.999999999996
 21
296.9510325849722
 31
0.0
  0
ARC
  5
D14E
330
A
100
AcDbEntity
  8
0
  6
Continuous
 62
     7
370
    15
100
AcDbCircle
 10
-994.7701275213963
 20
342.5072837787722
 30
0.0
 40
46.12638159329236
100
AcDbArc
 50
260.9822460241999
 51
269.7950520597999
  0
SPLINE
  5
D14F
330
A
100
AcDbEntity
  8
0
  6
Continuous
 62
     7
370
    15
100
AcDbSpline
210
0.0
220
0.0
230
1.0
 70
     8
 71
     3
 72
    16
 73
    12
 74
     0
 42
0.00000001
 43
0.00000001
 40
0.0
 40
0.0
 40
0.0
 40
0.0
 40
0.1070821586697314
 40
0.2141633615427579
 40
0.3312137638591995
 40
0.4482643676802262
 40
0.5651751344020237
 40
0.6820874325740232
 40
0.7991548447929202
 40
0.9162245164773961
 40
1.0
 40
1.0
 40
1.0
 40
1.0
 10
-994.9351219907649
 20
296.3811972797455
 30
0.0
 10
-994.9910820405352
 20
295.3616925554323
 30
0.0
 10
-995.1030016405863
 20
293.3226922067273
 30
0.0
 10
-995.1942317179241
 20
290.2403045223758
 30
0.0
 10
-995.2245847352169
 20
287.2256840964151
 30
0.0
 10
-995.1824899420734
 20
284.3771917239027
 30
0.0
 10
-995.0668130720541
 20
281.8762221814186
 30
0.0
 10
-994.8769741016024
 20
279.7731238726408
 30
0.0
 10
-994.6061679352214
 20
278.1547078144236
 30
0.0
 10
-994.289654260073
 20
277.113507549746
 30
0.0
 10
-994.0297280013416
 20
276.78405131476
 30
0.0
 10
-993.9213089160867
 20
276.6466302484812
 30
0.0
  0
ARC
  5
D150
330
A
100
AcDbEntity
  8
0
  6
Continuous
 62
     7
370
    15
100
AcDbCircle
 10
-989.9999998956963
 20
288.5156367784722
 30
0.0
 40
12.50000000000001
100
AcDbArc
 50
196.2602047083001
 51
251.7173636060999
  0
LINE
  5
D151
330
A
100
AcDbEntity
  8
0
  6
Continuous
 62
     7
370
    15
100
AcDbLine
 10
-994.9850958287963
 20
307.3827390246722
 30
0.0
 11
-994.9348304867963
 21
306.4518890962722
 31
0.0
  0
LINE
  5
D152
330
A
100
AcDbEntity
  8
0
  6
Continuous
 62
     7
370
    15
100
AcDbLine
 10
-993.9348061084963
 20
326.4518895805722
 30
0.0
 11
-993.8020952027963
 21
326.3528396994722
 31
0.0
  0
LINE
  5
D153
330
A
100
AcDbEntity
  8
0
  6
Continuous
 62
     7
370
    15
100
AcDbLine
 10
-993.9348061084963
 20
326.4518895805722
 30
0.0
 11
-977.9999997913962
 21
326.4518895805722
 31
0.0
  0
LINE
  5
D154
330
A
100
AcDbEntity
  8
0
  6
Continuous
 62
     7
370
    15
100
AcDbLine
 10
-977.9999997913962
 20
326.4518895805722
 30
0.0
 11
-977.9999997913962
 21
306.4518890962722
 31
0.0
  0
LINE
  5
D155
330
A
100
AcDbEntity
  8
0
  6
Continuous
 62
     7
370
    15
100
AcDbLine
 10
-994.9348304867963
 20
296.4518893197722
 30
0.0
 11
-994.9348304867963
 21
306.4518890962722
 31
0.0
  0
LINE
  5
D156
330
A
100
AcDbEntity
  8
0
  6
Continuous
 62
     7
370
    15
100
AcDbLine
 10
-977.9999997913962
 20
306.4518890962722
 30
0.0
 11
-977.9999997913962
 21
296.4518893197722
 31
0.0
  0
LINE
  5
D157
330
A
100
AcDbEntity
  8
0
  6
Continuous
 62
     7
370
    15
100
AcDbLine
 10
-977.9999997913962
 20
276.4518888354722
 30
0.0
 11
-993.9348061084963
 21
276.4518888354722
 31
0.0
  0
SPLINE
  5
D158
330
A
100
AcDbEntity
  8
0
  6
Continuous
 62
     7
370
    15
100
AcDbSpline
210
0.0
220
0.0
230
1.0
 70
     8
 71
     3
 72
     9
 73
     5
 74
     0
 42
0.00000001
 43
0.00000001
 40
0.0
 40
0.0
 40
0.0
 40
0.0
 40
0.7674757556439923
 40
0.9999999999999999
 40
0.9999999999999999
 40
0.9999999999999999
 40
0.9999999999999999
 10
-993.9348061084993
 20
276.451888835484
 30
0.0
 10
-993.8373169578871
 20
276.4716227720863
 30
0.0
 10
-993.7102912506967
 20
276.4973355538351
 30
0.0
 10
-993.8814989704282
 20
276.6184647692074
 30
0.0
 10
-993.9213089160867
 20
276.6466302484812
 30
0.0
  0
LINE
  5
D159
330
A
100
AcDbEntity
  8
0
  6
Continuous
 62
     7
370
    15
100
AcDbLine
 10
-994.9348304867963
 20
296.4518893197722
 30
0.0
 11
-994.9351219907962
 21
296.3811972797722
 31
0.0
  0
LINE
  5
D15A
330
A
100
AcDbEntity
  8
0
  6
Continuous
 62
     7
370
    15
100
AcDbLine
 10
-977.9999997913962
 20
296.4518893197722
 30
0.0
 11
-977.9999997913962
 21
276.4518888354722
 31
0.0
  0
LINE
  5
D15B
330
A
100
AcDbEntity
  8
0
  6
Continuous
 62
     7
370
    15
100
AcDbLine
 10
-1001.999999999996
 20
296.9510325849722
 30
0.0
 11
-1001.999999999996
 21
307.9510325253722
 31
0.0
  0
SPLINE
  5
D15C
330
A
100
AcDbEntity
  8
0
  6
Continuous
 62
     7
370
    15
100
AcDbSpline
210
0.0
220
0.0
230
1.0
 70
    24
 71
     3
 72
    12
 73
     8
 74
     0
 42
0.00000001
 43
0.00000001
 40
0.0
 40
0.0
 40
0.0
 40
0.0
 40
0.1014880547880107
 40
0.2030095566976617
 40
0.4067497406903752
 40
0.7032946373191057
 40
1.0
 40
1.0
 40
1.0
 40
1.0
 10
-993.9348061084993
 20
276.451888835484
 30
0.0
 10
-994.3339581016895
 20
276.451888835484
 30
0.0
 10
-995.1323936354258
 20
276.451888835484
 30
0.0
 10
-996.26646286018
 20
276.451888835484
 30
0.0
 10
-997.6300240630006
 20
276.451888835484
 30
0.0
 10
-998.9477395014969
 20
276.451888835484
 30
0.0
 10
-999.6491830383487
 20
276.451888835484
 30
0.0
 10
-999.999999672199
 20
276.451888835484
 30
0.0
  0
ARC
  5
D15D
330
A
100
AcDbEntity
  8
0
  6
Continuous
 62
     7
370
    15
100
AcDbCircle
 10
-989.9999998956963
 20
283.9518892079722
 30
0.0
 40
12.5
100
AcDbArc
 50
196.2602047083001
 51
216.8698976458003
  0
LINE
  5
D15E
330
A
100
AcDbEntity
  8
0
  6
Continuous
 62
     7
370
    15
100
AcDbLine
 10
-1001.999999999996
 20
285.0156364649722
 30
0.0
 11
-1001.999999999996
 21
280.4518894911722
 31
0.0
  0
SPLINE
  5
D15F
330
A
100
AcDbEntity
  8
0
  6
Continuous
 62
     7
370
    15
100
AcDbSpline
210
0.0
220
0.0
230
1.0
 70
     8
 71
     3
 72
     9
 73
     5
 74
     0
 42
0.00000001
 43
0.00000001
 40
0.0
 40
0.0
 40
0.0
 40
0.0
 40
0.4918708131196827
 40
1.0
 40
1.0
 40
1.0
 40
1.0
 10
-999.999999672199
 20
326.4518895805421
 30
0.0
 10
-1000.417032839028
 20
325.8407847739505
 30
0.0
 10
-1001.264883851337
 20
324.5983756081867
 30
0.0
 10
-1001.752319646017
 20
323.1750978797476
 30
0.0
 10
-1002.000000000025
 20
322.451888924891
 30
0.0
  0
SPLINE
  5
D160
330
A
100
AcDbEntity
  8
0
  6
Continuous
 62
     7
370
    15
100
AcDbSpline
210
0.0
220
0.0
230
1.0
 70
    24
 71
     3
 72
    12
 73
     8
 74
     0
 42
0.00000001
 43
0.00000001
 40
0.0
 40
0.0
 40
0.0
 40
0.0
 40
0.1014880547880107
 40
0.2030095566976617
 40
0.4067497406903752
 40
0.7032946373191057
 40
1.0
 40
1.0
 40
1.0
 40
1.0
 10
-993.9348061084993
 20
326.4518895805421
 30
0.0
 10
-994.3339581016895
 20
326.451889580542
 30
0.0
 10
-995.1323936354258
 20
326.4518895805421
 30
0.0
 10
-996.26646286018
 20
326.451889580542
 30
0.0
 10
-997.6300240630006
 20
326.4518895805421
 30
0.0
 10
-998.9477395014969
 20
326.4518895805421
 30
0.0
 10
-999.6491830383487
 20
326.451889580542
 30
0.0
 10
-999.999999672199
 20
326.4518895805421
 30
0.0
  0
LINE
  5
D161
330
A
100
AcDbEntity
  8
0
  6
Continuous
 62
     7
370
    15
100
AcDbLine
 10
-1001.999999999996
 20
318.0327260554722
 30
0.0
 11
-1001.999999999996
 21
322.4518889248722
 31
0.0
  0
LINE
  5
D162
330
A
100
AcDbEntity
  8
0
  6
Continuous
 62
     8
370
     0
100
AcDbLine
 10
-976.9999996274963
 20
306.4518890962722
 30
0.0
 11
-975.9999994635963
 21
306.4518890962722
 31
0.0
  0
LINE
  5
D163
330
A
100
AcDbEntity
  8
0
  6
Continuous
 62
     8
370
     0
100
AcDbLine
 10
-976.9999996274963
 20
296.4518893197722
 30
0.0
 11
-975.9999994635963
 21
296.4518893197722
 31
0.0
  0
LINE
  5
D164
330
A
100
AcDbEntity
  8
0
  6
Continuous
 62
     8
370
     0
100
AcDbLine
 10
-977.9999997913962
 20
306.4518890962722
 30
0.0
 11
-976.9999996274963
 21
306.4518890962722
 31
0.0
  0
LINE
  5
D165
330
A
100
AcDbEntity
  8
0
  6
Continuous
 62
     8
370
     0
100
AcDbLine
 10
-977.9999997913962
 20
296.4518893197722
 30
0.0
 11
-976.9999996274963
 21
296.4518893197722
 31
0.0
  0
LINE
  5
D166
330
A
100
AcDbEntity
  8
0
  6
Continuous
 62
     8
370
     0
100
AcDbLine
 10
-969.1999998390963
 20
313.2917176619722
 30
0.0
 11
-970.0000003427963
 21
313.2917176619722
 31
0.0
  0
LINE
  5
D167
330
A
100
AcDbEntity
  8
0
  6
Continuous
 62
     8
370
     0
100
AcDbLine
 10
-970.0000003427963
 20
289.6120607540722
 30
0.0
 11
-969.1999998390963
 21
289.6120607540722
 31
0.0
  0
LINE
  5
D168
330
A
100
AcDbEntity
  8
0
  6
Continuous
 62
     8
370
     0
100
AcDbLine
 10
-970.0000003427963
 20
314.5060589224722
 30
0.0
 11
-969.1999998390963
 21
314.5060589224722
 31
0.0
  0
LINE
  5
D169
330
A
100
AcDbEntity
  8
0
  6
Continuous
 62
     8
370
     0
100
AcDbLine
 10
-969.1999998390963
 20
288.3977194935722
 30
0.0
 11
-970.0000003427963
 21
288.3977194935722
 31
0.0
  0
LINE
  5
D16A
330
A
100
AcDbEntity
  8
0
  6
Continuous
 62
     8
370
     0
100
AcDbLine
 10
-963.2000007182963
 20
306.4518890962722
 30
0.0
 11
-969.1999998390963
 21
306.4518890962722
 31
0.0
  0
LINE
  5
D16B
330
A
100
AcDbEntity
  8
0
  6
Continuous
 62
     8
370
     0
100
AcDbLine
 10
-969.1999998390963
 20
296.4518893197722
 30
0.0
 11
-963.2000007182963
 21
296.4518893197722
 31
0.0
  0
LINE
  5
D16C
330
A
100
AcDbEntity
  8
0
  6
Continuous
 62
     8
370
     0
100
AcDbLine
 10
-977.9999997913962
 20
306.4518890962722
 30
0.0
 11
-994.9348304867963
 21
306.4518890962722
 31
0.0
  0
LINE
  5
D16D
330
A
100
AcDbEntity
  8
0
  6
Continuous
 62
     8
370
     0
100
AcDbLine
 10
-994.9348304867963
 20
296.4518893197722
 30
0.0
 11
-977.9999997913962
 21
296.4518893197722
 31
0.0
  0
LINE
  5
D16E
330
A
100
AcDbEntity
  8
0
  6
Continuous
 62
     7
370
    15
100
AcDbLine
 10
-649.6589651817962
 20
310.9518889025722
 30
0.0
 11
-654.6589641386963
 21
310.9518889025722
 31
0.0
  0
LINE
  5
D16F
330
A
100
AcDbEntity
  8
0
  6
Continuous
 62
     7
370
    15
100
AcDbLine
 10
-654.6589641386963
 20
291.9518895134722
 30
0.0
 11
-649.6589651817962
 21
291.9518895134722
 31
0.0
  0
LINE
  5
D170
330
A
100
AcDbEntity
  8
0
  6
Continuous
 62
     7
370
    15
100
AcDbLine
 10
-624.0814805517963
 20
283.7134947687722
 30
0.0
 11
-623.6589646453963
 21
284.8710523605722
 31
0.0
  0
LINE
  5
D171
330
A
100
AcDbEntity
  8
0
  6
Continuous
 62
     7
370
    15
100
AcDbLine
 10
-624.1886329392962
 20
283.4199325800722
 30
0.0
 11
-624.0814805517963
 21
283.7134947687722
 31
0.0
  0
LINE
  5
D172
330
A
100
AcDbEntity
  8
0
  6
Continuous
 62
     7
370
    15
100
AcDbLine
 10
-654.6589641386963
 20
309.3518888265722
 30
0.0
 11
-654.8589656615964
 21
309.3518888265722
 31
0.0
  0
LINE
  5
D173
330
A
100
AcDbEntity
  8
0
  6
Continuous
 62
     7
370
    15
100
AcDbLine
 10
-654.8589656615964
 20
293.5518895894722
 30
0.0
 11
-654.6589641386963
 21
293.5518895894722
 31
0.0
  0
LINE
  5
D174
330
A
100
AcDbEntity
  8
0
  6
Continuous
 62
     7
370
    15
100
AcDbLine
 10
-654.8589656615964
 20
309.3518888265722
 30
0.0
 11
-655.6589643025962
 21
308.5518892541722
 31
0.0
  0
LINE
  5
D175
330
A
100
AcDbEntity
  8
0
  6
Continuous
 62
     7
370
    15
100
AcDbLine
 10
-655.6589643025962
 20
294.3518891617722
 30
0.0
 11
-654.8589656615964
 21
293.5518895894722
 31
0.0
  0
LINE
  5
D176
330
A
100
AcDbEntity
  8
0
  6
Continuous
 62
     7
370
    15
100
AcDbLine
 10
-648.6589650178962
 20
296.4518893197722
 30
0.0
 11
-648.6589650178962
 21
277.4518889993722
 31
0.0
  0
LINE
  5
D177
330
A
100
AcDbEntity
  8
0
  6
Continuous
 62
     7
370
    15
100
AcDbLine
 10
-648.6589650178962
 20
277.4518889993722
 30
0.0
 11
-649.6589651817962
 21
277.4518889993722
 31
0.0
  0
LINE
  5
D178
330
A
100
AcDbEntity
  8
0
  6
Continuous
 62
     7
370
    15
100
AcDbLine
 10
-649.6589651817962
 20
296.4518893197722
 30
0.0
 11
-649.6589651817962
 21
277.4518889993722
 31
0.0
  0
LINE
  5
D179
330
A
100
AcDbEntity
  8
0
  6
Continuous
 62
     7
370
    15
100
AcDbLine
 10
-648.6589650178962
 20
306.4518890962722
 30
0.0
 11
-648.6589650178962
 21
296.4518893197722
 31
0.0
  0
LINE
  5
D17A
330
A
100
AcDbEntity
  8
0
  6
Continuous
 62
     7
370
    15
100
AcDbLine
 10
-649.6589651817962
 20
306.4518890962722
 30
0.0
 11
-649.6589651817962
 21
296.4518893197722
 31
0.0
  0
LINE
  5
D17B
330
A
100
AcDbEntity
  8
0
  6
Continuous
 62
     7
370
    15
100
AcDbLine
 10
-648.6589650178962
 20
325.4518894166722
 30
0.0
 11
-649.6589651817962
 21
325.4518894166722
 31
0.0
  0
LINE
  5
D17C
330
A
100
AcDbEntity
  8
0
  6
Continuous
 62
     7
370
    15
100
AcDbLine
 10
-648.6589650178962
 20
325.4518894166722
 30
0.0
 11
-648.6589650178962
 21
306.4518890962722
 31
0.0
  0
LINE
  5
D17D
330
A
100
AcDbEntity
  8
0
  6
Continuous
 62
     7
370
    15
100
AcDbLine
 10
-649.6589651817962
 20
325.4518894166722
 30
0.0
 11
-649.6589651817962
 21
306.4518890962722
 31
0.0
  0
LINE
  5
D17E
330
A
100
AcDbEntity
  8
0
  6
Continuous
 62
     7
370
    15
100
AcDbLine
 10
-647.6589648539963
 20
277.4518889993722
 30
0.0
 11
-648.6589650178962
 21
277.4518889993722
 31
0.0
  0
LINE
  5
D17F
330
A
100
AcDbEntity
  8
0
  6
Continuous
 62
     7
370
    15
100
AcDbLine
 10
-647.6589648539963
 20
325.4518894166722
 30
0.0
 11
-648.6589650178962
 21
325.4518894166722
 31
0.0
  0
LINE
  5
D180
330
A
100
AcDbEntity
  8
0
  6
Continuous
 62
     7
370
    15
100
AcDbLine
 10
-655.6589643025962
 20
289.6120607540722
 30
0.0
 11
-655.6589643025962
 21
313.2917176619722
 31
0.0
  0
LINE
  5
D181
330
A
100
AcDbEntity
  8
0
  6
Continuous
 62
     7
370
    15
100
AcDbLine
 10
-655.6589643025962
 20
289.6120607540722
 30
0.0
 11
-655.6589643025962
 21
288.3977194935722
 31
0.0
  0
LINE
  5
D182
330
A
100
AcDbEntity
  8
0
  6
Continuous
 62
     7
370
    15
100
AcDbLine
 10
-655.6589643025962
 20
314.5060589224722
 30
0.0
 11
-655.6589643025962
 21
313.2917176619722
 31
0.0
  0
LINE
  5
D183
330
A
100
AcDbEntity
  8
0
  6
Continuous
 62
     7
370
    15
100
AcDbLine
 10
-656.4589648062963
 20
279.9518884778722
 30
0.0
 11
-655.6589643025962
 21
279.9518884778722
 31
0.0
  0
LINE
  5
D184
330
A
100
AcDbEntity
  8
0
  6
Continuous
 62
     7
370
    15
100
AcDbLine
 10
-655.6589643025962
 20
279.9518884778722
 30
0.0
 11
-655.6589643025962
 21
288.3977194935722
 31
0.0
  0
LINE
  5
D185
330
A
100
AcDbEntity
  8
0
  6
Continuous
 62
     7
370
    15
100
AcDbLine
 10
-656.4589648062963
 20
322.9518899381722
 30
0.0
 11
-655.6589643025962
 21
322.9518899381722
 31
0.0
  0
LINE
  5
D186
330
A
100
AcDbEntity
  8
0
  6
Continuous
 62
     7
370
    15
100
AcDbLine
 10
-655.6589643025962
 20
314.5060589224722
 30
0.0
 11
-655.6589643025962
 21
322.9518899381722
 31
0.0
  0
LINE
  5
D187
330
A
100
AcDbEntity
  8
0
  6
Continuous
 62
     7
370
    15
100
AcDbLine
 10
-654.6589641386963
 20
310.9518889025722
 30
0.0
 11
-654.6589641386963
 21
291.9518895134722
 31
0.0
  0
LINE
  5
D188
330
A
100
AcDbEntity
  8
0
  6
Continuous
 62
     7
370
    15
100
AcDbLine
 10
-656.4589648062963
 20
296.4518893197722
 30
0.0
 11
-656.4589648062963
 21
276.4518888354722
 31
0.0
  0
LINE
  5
D189
330
A
100
AcDbEntity
  8
0
  6
Continuous
 62
     7
370
    15
100
AcDbLine
 10
-656.4589648062963
 20
276.4518888354722
 30
0.0
 11
-662.4589639270962
 21
276.4518888354722
 31
0.0
  0
LINE
  5
D18A
330
A
100
AcDbEntity
  8
0
  6
Continuous
 62
     7
370
    15
100
AcDbLine
 10
-662.4589639270962
 20
276.4518888354722
 30
0.0
 11
-662.4589639270962
 21
296.4518893197722
 31
0.0
  0
LINE
  5
D18B
330
A
100
AcDbEntity
  8
0
  6
Continuous
 62
     7
370
    15
100
AcDbLine
 10
-656.4589648062963
 20
306.4518890962722
 30
0.0
 11
-656.4589648062963
 21
296.4518893197722
 31
0.0
  0
LINE
  5
D18C
330
A
100
AcDbEntity
  8
0
  6
Continuous
 62
     7
370
    15
100
AcDbLine
 10
-662.4589639270962
 20
306.4518890962722
 30
0.0
 11
-662.4589639270962
 21
296.4518893197722
 31
0.0
  0
LINE
  5
D18D
330
A
100
AcDbEntity
  8
0
  6
Continuous
 62
     7
370
    15
100
AcDbLine
 10
-662.4589639270962
 20
326.4518895805722
 30
0.0
 11
-656.4589648062963
 21
326.4518895805722
 31
0.0
  0
LINE
  5
D18E
330
A
100
AcDbEntity
  8
0
  6
Continuous
 62
     7
370
    15
100
AcDbLine
 10
-656.4589648062963
 20
326.4518895805722
 30
0.0
 11
-656.4589648062963
 21
306.4518890962722
 31
0.0
  0
LINE
  5
D18F
330
A
100
AcDbEntity
  8
0
  6
Continuous
 62
     7
370
    15
100
AcDbLine
 10
-662.4589639270962
 20
306.4518890962722
 30
0.0
 11
-662.4589639270962
 21
326.4518895805722
 31
0.0
  0
LINE
  5
D190
330
A
100
AcDbEntity
  8
0
  6
Continuous
 62
     7
370
    15
100
AcDbLine
 10
-623.6589646453963
 20
294.9527458906722
 30
0.0
 11
-623.6589646453963
 21
284.8710523605722
 31
0.0
  0
ARC
  5
D191
330
A
100
AcDbEntity
  8
0
  6
Continuous
 62
     7
370
    15
100
AcDbCircle
 10
-635.5766465369963
 20
288.4140409554722
 30
0.0
 40
12.43261582938818
100
AcDbArc
 50
287.4092622868001
 51
343.4521105095001
  0
SPLINE
  5
D192
330
A
100
AcDbEntity
  8
0
  6
Continuous
 62
     7
370
    15
100
AcDbSpline
210
0.0
220
0.0
230
1.0
 70
     8
 71
     3
 72
    16
 73
    12
 74
     0
 42
0.00000001
 43
0.00000001
 40
0.0
 40
0.0
 40
0.0
 40
0.0
 40
0.1081835176101653
 40
0.2163658729477947
 40
0.3343557875207228
 40
0.4523435636632446
 40
0.5698706525497792
 40
0.6873968765596168
 40
0.8045795648776329
 40
0.9217627701514772
 40
1.0
 40
1.0
 40
1.0
 40
1.0
 10
-631.8568694426392
 20
276.5509387165846
 30
0.0
 10
-631.7106850645768
 20
276.6979303589507
 30
0.0
 10
-631.4183178789879
 20
276.9919120644739
 30
0.0
 10
-631.0807004804672
 20
278.0409759602689
 30
0.0
 10
-630.806654846119
 20
279.5806591794733
 30
0.0
 10
-630.6074668530619
 20
281.6408259762059
 30
0.0
 10
-630.4846199941437
 20
284.1236232293477
 30
0.0
 10
-630.434922017742
 20
286.9418201358447
 30
0.0
 10
-630.4598441666053
 20
290.0293553822137
 30
0.0
 10
-630.5423547649857
 20
292.9272407334439
 30
0.0
 10
-630.6362696684591
 20
294.7794865399126
 30
0.0
 10
-630.6738688165967
 20
295.5210393913629
 30
0.0
  0
ARC
  5
D193
330
A
100
AcDbEntity
  8
0
  6
Continuous
 62
     7
370
    15
100
AcDbCircle
 10
-630.8554031024962
 20
249.7007641202722
 30
0.0
 40
45.82063487790778
100
AcDbArc
 50
80.9639014087001
 51
89.7730023677001
  0
LINE
  5
D194
330
A
100
AcDbEntity
  8
0
  6
Continuous
 62
     7
370
    15
100
AcDbLine
 10
-623.6589646453963
 20
317.8881419509722
 30
0.0
 11
-623.6589646453963
 21
305.9527458310722
 31
0.0
  0
ARC
  5
D195
330
A
100
AcDbEntity
  8
0
  6
Continuous
 62
     7
370
    15
100
AcDbCircle
 10
-630.8888371239963
 20
260.3964946372722
 30
0.0
 40
46.12638159329233
100
AcDbArc
 50
80.98224602420008
 51
89.79505205980006
  0
SPLINE
  5
D196
330
A
100
AcDbEntity
  8
0
  6
Continuous
 62
     7
370
    15
100
AcDbSpline
210
0.0
220
0.0
230
1.0
 70
     8
 71
     3
 72
    16
 73
    12
 74
     0
 42
0.00000001
 43
0.00000001
 40
0.0
 40
0.0
 40
0.0
 40
0.0
 40
0.1070821586697314
 40
0.2141633615427579
 40
0.3312137638591995
 40
0.4482643676802262
 40
0.5651751344020237
 40
0.6820874325740232
 40
0.7991548447929202
 40
0.9162245164773961
 40
1.0
 40
1.0
 40
1.0
 40
1.0
 10
-630.723842654628
 20
306.5225811362805
 30
0.0
 10
-630.6678826048576
 20
307.5420858605938
 30
0.0
 10
-630.5559630048066
 20
309.5810862092987
 30
0.0
 10
-630.4647329274687
 20
312.6634738936503
 30
0.0
 10
-630.434379910176
 20
315.6780943196109
 30
0.0
 10
-630.4764747033194
 20
318.5265866921233
 30
0.0
 10
-630.5921515733387
 20
321.0275562346074
 30
0.0
 10
-630.7819905437904
 20
323.1306545433853
 30
0.0
 10
-631.0527967101715
 20
324.7490706016025
 30
0.0
 10
-631.3693103853197
 20
325.7902708662801
 30
0.0
 10
-631.6292366440512
 20
326.119727101266
 30
0.0
 10
-631.7376557293062
 20
326.2571481675448
 30
0.0
  0
ARC
  5
D197
330
A
100
AcDbEntity
  8
0
  6
Continuous
 62
     7
370
    15
100
AcDbCircle
 10
-635.6589647496962
 20
314.3881416375722
 30
0.0
 40
12.50000000000002
100
AcDbArc
 50
16.26020470830008
 51
71.71736360610049
  0
LINE
  5
D198
330
A
100
AcDbEntity
  8
0
  6
Continuous
 62
     7
370
    15
100
AcDbLine
 10
-647.6589648539963
 20
276.4518888354722
 30
0.0
 11
-647.6589648539963
 21
296.4518893197722
 31
0.0
  0
LINE
  5
D199
330
A
100
AcDbEntity
  8
0
  6
Continuous
 62
     7
370
    15
100
AcDbLine
 10
-630.6738688165963
 20
295.5210393913722
 30
0.0
 11
-630.7241341585963
 21
296.4518893197722
 31
0.0
  0
LINE
  5
D19A
330
A
100
AcDbEntity
  8
0
  6
Continuous
 62
     7
370
    15
100
AcDbLine
 10
-631.7241585368963
 20
276.4518888354722
 30
0.0
 11
-631.8568694425962
 21
276.5509387165722
 31
0.0
  0
LINE
  5
D19B
330
A
100
AcDbEntity
  8
0
  6
Continuous
 62
     7
370
    15
100
AcDbLine
 10
-631.7241585368963
 20
276.4518888354722
 30
0.0
 11
-647.6589648539963
 21
276.4518888354722
 31
0.0
  0
LINE
  5
D19C
330
A
100
AcDbEntity
  8
0
  6
Continuous
 62
     7
370
    15
100
AcDbLine
 10
-630.7241341585963
 20
306.4518890962722
 30
0.0
 11
-630.7241341585963
 21
296.4518893197722
 31
0.0
  0
LINE
  5
D19D
330
A
100
AcDbEntity
  8
0
  6
Continuous
 62
     7
370
    15
100
AcDbLine
 10
-647.6589648539963
 20
296.4518893197722
 30
0.0
 11
-647.6589648539963
 21
306.4518890962722
 31
0.0
  0
LINE
  5
D19E
330
A
100
AcDbEntity
  8
0
  6
Continuous
 62
     7
370
    15
100
AcDbLine
 10
-647.6589648539963
 20
326.4518895805722
 30
0.0
 11
-631.7241585368963
 21
326.4518895805722
 31
0.0
  0
SPLINE
  5
D19F
330
A
100
AcDbEntity
  8
0
  6
Continuous
 62
     7
370
    15
100
AcDbSpline
210
0.0
220
0.0
230
1.0
 70
     8
 71
     3
 72
     9
 73
     5
 74
     0
 42
0.00000001
 43
0.00000001
 40
0.0
 40
0.0
 40
0.0
 40
0.0
 40
0.7674757556439923
 40
0.9999999999999999
 40
0.9999999999999999
 40
0.9999999999999999
 40
0.9999999999999999
 10
-631.7241585368936
 20
326.4518895805421
 30
0.0
 10
-631.8216476875057
 20
326.4321556439397
 30
0.0
 10
-631.948673394696
 20
326.406442862191
 30
0.0
 10
-631.7774656749646
 20
326.2853136468187
 30
0.0
 10
-631.7376557293062
 20
326.2571481675448
 30
0.0
  0
LINE
  5
D1A0
330
A
100
AcDbEntity
  8
0
  6
Continuous
 62
     7
370
    15
100
AcDbLine
 10
-630.7241341585963
 20
306.4518890962722
 30
0.0
 11
-630.7238426545963
 21
306.5225811362722
 31
0.0
  0
LINE
  5
D1A1
330
A
100
AcDbEntity
  8
0
  6
Continuous
 62
     7
370
    15
100
AcDbLine
 10
-647.6589648539963
 20
306.4518890962722
 30
0.0
 11
-647.6589648539963
 21
326.4518895805722
 31
0.0
  0
LINE
  5
D1A2
330
A
100
AcDbEntity
  8
0
  6
Continuous
 62
     7
370
    15
100
AcDbLine
 10
-623.6589646453963
 20
305.9527458310722
 30
0.0
 11
-623.6589646453963
 21
294.9527458906722
 31
0.0
  0
LINE
  5
D1A3
330
A
100
AcDbEntity
  8
0
  6
Continuous
 62
     7
370
    15
100
AcDbLine
 10
-654.8589656615964
 20
309.3518888265722
 30
0.0
 11
-654.8589656615964
 21
293.5518895894722
 31
0.0
  0
SPLINE
  5
D1A4
330
A
100
AcDbEntity
  8
0
  6
Continuous
 62
     7
370
    15
100
AcDbSpline
210
0.0
220
0.0
230
1.0
 70
    24
 71
     3
 72
    12
 73
     8
 74
     0
 42
0.00000001
 43
0.00000001
 40
0.0
 40
0.0
 40
0.0
 40
0.0
 40
0.1014880547880107
 40
0.2030095566976617
 40
0.4067497406903752
 40
0.7032946373191057
 40
1.0
 40
1.0
 40
1.0
 40
1.0
 10
-631.7241585368936
 20
326.4518895805421
 30
0.0
 10
-631.3250065437034
 20
326.451889580542
 30
0.0
 10
-630.5265710099668
 20
326.4518895805421
 30
0.0
 10
-629.3925017852127
 20
326.451889580542
 30
0.0
 10
-628.0289405823921
 20
326.4518895805421
 30
0.0
 10
-626.711225143896
 20
326.4518895805421
 30
0.0
 10
-626.009781607044
 20
326.451889580542
 30
0.0
 10
-625.6589649731937
 20
326.4518895805421
 30
0.0
  0
ARC
  5
D1A5
330
A
100
AcDbEntity
  8
0
  6
Continuous
 62
     7
370
    15
100
AcDbCircle
 10
-635.6589647496962
 20
318.9518892079722
 30
0.0
 40
12.50000000000003
100
AcDbArc
 50
16.26020470830008
 51
36.86989764580025
  0
LINE
  5
D1A6
330
A
100
AcDbEntity
  8
0
  6
Continuous
 62
     7
370
    15
100
AcDbLine
 10
-623.6589646453963
 20
317.8881419509722
 30
0.0
 11
-623.6589646453963
 21
322.4518889248722
 31
0.0
  0
SPLINE
  5
D1A7
330
A
100
AcDbEntity
  8
0
  6
Continuous
 62
     7
370
    15
100
AcDbSpline
210
0.0
220
0.0
230
1.0
 70
     8
 71
     3
 72
     9
 73
     5
 74
     0
 42
0.00000001
 43
0.00000001
 40
0.0
 40
0.0
 40
0.0
 40
0.0
 40
0.4918708131196827
 40
1.0
 40
1.0
 40
1.0
 40
1.0
 10
-625.6589649731937
 20
276.451888835484
 30
0.0
 10
-625.241931806365
 20
277.0629936420756
 30
0.0
 10
-624.394080794056
 20
278.3054028078394
 30
0.0
 10
-623.9066449993757
 20
279.7286805362785
 30
0.0
 10
-623.6589646453683
 20
280.4518894911351
 30
0.0
  0
SPLINE
  5
D1A8
330
A
100
AcDbEntity
  8
0
  6
Continuous
 62
     7
370
    15
100
AcDbSpline
210
0.0
220
0.0
230
1.0
 70
    24
 71
     3
 72
    12
 73
     8
 74
     0
 42
0.00000001
 43
0.00000001
 40
0.0
 40
0.0
 40
0.0
 40
0.0
 40
0.1014880547880107
 40
0.2030095566976617
 40
0.4067497406903752
 40
0.7032946373191057
 40
1.0
 40
1.0
 40
1.0
 40
1.0
 10
-631.7241585368936
 20
276.451888835484
 30
0.0
 10
-631.3250065437034
 20
276.451888835484
 30
0.0
 10
-630.5265710099668
 20
276.451888835484
 30
0.0
 10
-629.3925017852127
 20
276.451888835484
 30
0.0
 10
-628.0289405823921
 20
276.451888835484
 30
0.0
 10
-626.711225143896
 20
276.451888835484
 30
0.0
 10
-626.009781607044
 20
276.451888835484
 30
0.0
 10
-625.6589649731937
 20
276.451888835484
 30
0.0
  0
LINE
  5
D1A9
330
A
100
AcDbEntity
  8
0
  6
Continuous
 62
     7
370
    15
100
AcDbLine
 10
-623.6589646453963
 20
284.8710523605722
 30
0.0
 11
-623.6589646453963
 21
280.4518894911722
 31
0.0
  0
ARC
  5
D1AA
330
A
100
AcDbEntity
  8
0
  6
Continuous
 62
     7
370
    15
100
AcDbCircle
 10
-635.6589647496962
 20
283.9518892079722
 30
0.0
 40
12.49999999999999
100
AcDbArc
 50
323.1301023541997
 51
343.7397952916999
  0
LINE
  5
D1AB
330
A
100
AcDbEntity
  8
0
  6
Continuous
 62
     8
370
     0
100
AcDbLine
 10
-648.6589650178962
 20
296.4518893197722
 30
0.0
 11
-649.6589651817962
 21
296.4518893197722
 31
0.0
  0
LINE
  5
D1AC
330
A
100
AcDbEntity
  8
0
  6
Continuous
 62
     8
370
     0
100
AcDbLine
 10
-648.6589650178962
 20
306.4518890962722
 30
0.0
 11
-649.6589651817962
 21
306.4518890962722
 31
0.0
  0
LINE
  5
D1AD
330
A
100
AcDbEntity
  8
0
  6
Continuous
 62
     8
370
     0
100
AcDbLine
 10
-647.6589648539963
 20
296.4518893197722
 30
0.0
 11
-648.6589650178962
 21
296.4518893197722
 31
0.0
  0
LINE
  5
D1AE
330
A
100
AcDbEntity
  8
0
  6
Continuous
 62
     8
370
     0
100
AcDbLine
 10
-647.6589648539963
 20
306.4518890962722
 30
0.0
 11
-648.6589650178962
 21
306.4518890962722
 31
0.0
  0
LINE
  5
D1AF
330
A
100
AcDbEntity
  8
0
  6
Continuous
 62
     8
370
     0
100
AcDbLine
 10
-656.4589648062963
 20
289.6120607540722
 30
0.0
 11
-655.6589643025962
 21
289.6120607540722
 31
0.0
  0
LINE
  5
D1B0
330
A
100
AcDbEntity
  8
0
  6
Continuous
 62
     8
370
     0
100
AcDbLine
 10
-655.6589643025962
 20
313.2917176619722
 30
0.0
 11
-656.4589648062963
 21
313.2917176619722
 31
0.0
  0
LINE
  5
D1B1
330
A
100
AcDbEntity
  8
0
  6
Continuous
 62
     8
370
     0
100
AcDbLine
 10
-655.6589643025962
 20
288.3977194935722
 30
0.0
 11
-656.4589648062963
 21
288.3977194935722
 31
0.0
  0
LINE
  5
D1B2
330
A
100
AcDbEntity
  8
0
  6
Continuous
 62
     8
370
     0
100
AcDbLine
 10
-656.4589648062963
 20
314.5060589224722
 30
0.0
 11
-655.6589643025962
 21
314.5060589224722
 31
0.0
  0
LINE
  5
D1B3
330
A
100
AcDbEntity
  8
0
  6
Continuous
 62
     8
370
     0
100
AcDbLine
 10
-662.4589639270962
 20
296.4518893197722
 30
0.0
 11
-656.4589648062963
 21
296.4518893197722
 31
0.0
  0
LINE
  5
D1B4
330
A
100
AcDbEntity
  8
0
  6
Continuous
 62
     8
370
     0
100
AcDbLine
 10
-656.4589648062963
 20
306.4518890962722
 30
0.0
 11
-662.4589639270962
 21
306.4518890962722
 31
0.0
  0
LINE
  5
D1B5
330
A
100
AcDbEntity
  8
0
  6
Continuous
 62
     8
370
     0
100
AcDbLine
 10
-647.6589648539963
 20
296.4518893197722
 30
0.0
 11
-630.7241341585963
 21
296.4518893197722
 31
0.0
  0
LINE
  5
D1B6
330
A
100
AcDbEntity
  8
0
  6
Continuous
 62
     8
370
     0
100
AcDbLine
 10
-630.7241341585963
 20
306.4518890962722
 30
0.0
 11
-647.6589648539963
 21
306.4518890962722
 31
0.0
  0
LINE
  5
D1B7
330
A
100
AcDbEntity
  8
0
  6
Continuous
 62
     7
370
    15
100
AcDbLine
 10
-782.9905182196962
 20
395.7937348504722
 30
0.0
 11
-782.5662542207963
 21
395.7937348504722
 31
0.0
  0
LINE
  5
D1B8
330
A
100
AcDbEntity
  8
0
  6
Continuous
 62
     7
370
    15
100
AcDbLine
 10
-781.5763048900963
 20
396.7836851124722
 30
0.0
 11
-781.5763048900963
 21
397.2079491112722
 31
0.0
  0
LINE
  5
D1B9
330
A
100
AcDbEntity
  8
0
  6
Continuous
 62
     7
370
    15
100
AcDbLine
 10
-784.2263478858963
 20
397.0295654479722
 30
0.0
 11
-782.9905182196962
 21
395.7937348504722
 31
0.0
  0
LINE
  5
D1BA
330
A
100
AcDbEntity
  8
0
  6
Continuous
 62
     7
370
    15
100
AcDbLine
 10
-781.5763048900963
 20
397.2079491112722
 30
0.0
 11
-782.8121345563962
 21
398.4437787775722
 31
0.0
  0
LINE
  5
D1BB
330
A
100
AcDbEntity
  8
0
  6
Continuous
 62
     7
370
    15
100
AcDbLine
 10
-776.4101151450963
 20
391.1275442559722
 30
0.0
 11
-776.4101151450963
 21
386.1775442827722
 31
0.0
  0
LINE
  5
D1BC
330
A
100
AcDbEntity
  8
0
  6
Continuous
 62
     7
370
    15
100
AcDbLine
 10
-757.4101138933963
 20
386.1775442827722
 30
0.0
 11
-757.4101138933963
 21
391.1275442559722
 31
0.0
  0
LINE
  5
D1BD
330
A
100
AcDbEntity
  8
0
  6
Continuous
 62
     7
370
    15
100
AcDbLine
 10
-856.9101143701963
 20
391.1275442559722
 30
0.0
 11
-856.9101143701963
 21
386.1275452990722
 31
0.0
  0
LINE
  5
D1BE
330
A
100
AcDbEntity
  8
0
  6
Continuous
 62
     7
370
    15
100
AcDbLine
 10
-837.9101149811963
 20
386.1275452990722
 30
0.0
 11
-837.9101149811963
 21
391.1275442559722
 31
0.0
  0
LINE
  5
D1BF
330
A
100
AcDbEntity
  8
0
  6
Continuous
 62
     7
370
    15
100
AcDbLine
 10
-904.9101110620962
 20
391.1275442559722
 30
0.0
 11
-904.9101110620962
 21
386.1275452990722
 31
0.0
  0
LINE
  5
D1C0
330
A
100
AcDbEntity
  8
0
  6
Continuous
 62
     7
370
    15
100
AcDbLine
 10
-885.9101172609962
 20
386.1275452990722
 30
0.0
 11
-885.9101172609962
 21
391.1275442559722
 31
0.0
  0
LINE
  5
D1C1
330
A
100
AcDbEntity
  8
0
  6
Continuous
 62
     7
370
    15
100
AcDbLine
 10
-728.4101110024963
 20
391.1275442559722
 30
0.0
 11
-728.4101110024963
 21
386.1775442827722
 31
0.0
  0
LINE
  5
D1C2
330
A
100
AcDbEntity
  8
0
  6
Continuous
 62
     7
370
    15
100
AcDbLine
 10
-709.4101172013962
 20
386.1775442827722
 30
0.0
 11
-709.4101172013962
 21
391.1275442559722
 31
0.0
  0
LINE
  5
D1C3
330
A
100
AcDbEntity
  8
0
  6
Continuous
 62
     7
370
    15
100
AcDbLine
 10
-726.8101137204962
 20
385.9775446225722
 30
0.0
 11
-725.9601142330962
 21
385.1275451351722
 31
0.0
  0
LINE
  5
D1C4
330
A
100
AcDbEntity
  8
0
  6
Continuous
 62
     7
370
    15
100
AcDbLine
 10
-711.8601139708962
 20
385.1275451351722
 30
0.0
 11
-711.0101144834963
 21
385.9775446225722
 31
0.0
  0
LINE
  5
D1C5
330
A
100
AcDbEntity
  8
0
  6
Continuous
 62
     7
370
    15
100
AcDbLine
 10
-726.8101137204962
 20
386.1775442827722
 30
0.0
 11
-726.8101137204962
 21
385.9775446225722
 31
0.0
  0
LINE
  5
D1C6
330
A
100
AcDbEntity
  8
0
  6
Continuous
 62
     7
370
    15
100
AcDbLine
 10
-711.0101144834963
 20
385.9775446225722
 30
0.0
 11
-711.0101144834963
 21
386.1775442827722
 31
0.0
  0
LINE
  5
D1C7
330
A
100
AcDbEntity
  8
0
  6
Continuous
 62
     7
370
    15
100
AcDbLine
 10
-774.8101141376962
 20
386.1775442827722
 30
0.0
 11
-774.8101141376962
 21
385.9775446225722
 31
0.0
  0
LINE
  5
D1C8
330
A
100
AcDbEntity
  8
0
  6
Continuous
 62
     7
370
    15
100
AcDbLine
 10
-759.0101149006963
 20
385.9775446225722
 30
0.0
 11
-759.0101149006963
 21
386.1775442827722
 31
0.0
  0
LINE
  5
D1C9
330
A
100
AcDbEntity
  8
0
  6
Continuous
 62
     7
370
    15
100
AcDbLine
 10
-774.8101141376962
 20
385.9775446225722
 30
0.0
 11
-773.9601146502962
 21
385.1275451351722
 31
0.0
  0
LINE
  5
D1CA
330
A
100
AcDbEntity
  8
0
  6
Continuous
 62
     7
370
    15
100
AcDbLine
 10
-759.8601143880962
 20
385.1275451351722
 30
0.0
 11
-759.0101149006963
 21
385.9775446225722
 31
0.0
  0
LINE
  5
D1CB
330
A
100
AcDbEntity
  8
0
  6
Continuous
 62
     7
370
    15
100
AcDbLine
 10
-855.3101133628962
 20
385.9275437761722
 30
0.0
 11
-854.5101147218963
 21
385.1275451351722
 31
0.0
  0
LINE
  5
D1CC
330
A
100
AcDbEntity
  8
0
  6
Continuous
 62
     7
370
    15
100
AcDbLine
 10
-840.3101146294963
 20
385.1275451351722
 30
0.0
 11
-839.5101141257962
 21
385.9275437761722
 31
0.0
  0
LINE
  5
D1CD
330
A
100
AcDbEntity
  8
0
  6
Continuous
 62
     7
370
    15
100
AcDbLine
 10
-855.3101133628962
 20
386.1275452990722
 30
0.0
 11
-855.3101133628962
 21
385.9275437761722
 31
0.0
  0
LINE
  5
D1CE
330
A
100
AcDbEntity
  8
0
  6
Continuous
 62
     7
370
    15
100
AcDbLine
 10
-839.5101141257962
 20
385.9275437761722
 30
0.0
 11
-839.5101141257962
 21
386.1275452990722
 31
0.0
  0
LINE
  5
D1CF
330
A
100
AcDbEntity
  8
0
  6
Continuous
 62
     7
370
    15
100
AcDbLine
 10
-903.3101137800963
 20
386.1275452990722
 30
0.0
 11
-903.3101137800963
 21
385.9275437761722
 31
0.0
  0
LINE
  5
D1D0
330
A
100
AcDbEntity
  8
0
  6
Continuous
 62
     7
370
    15
100
AcDbLine
 10
-887.5101145430963
 20
385.9275437761722
 30
0.0
 11
-887.5101145430963
 21
386.1275452990722
 31
0.0
  0
LINE
  5
D1D1
330
A
100
AcDbEntity
  8
0
  6
Continuous
 62
     7
370
    15
100
AcDbLine
 10
-903.3101137800963
 20
385.9275437761722
 30
0.0
 11
-902.5101151390963
 21
385.1275451351722
 31
0.0
  0
LINE
  5
D1D2
330
A
100
AcDbEntity
  8
0
  6
Continuous
 62
     7
370
    15
100
AcDbLine
 10
-888.3101131840963
 20
385.1275451351722
 30
0.0
 11
-887.5101145430963
 21
385.9275437761722
 31
0.0
  0
SPLINE
  5
D1D3
330
A
100
AcDbEntity
  8
0
  6
Continuous
 62
     7
370
    15
100
AcDbSpline
210
0.0
220
0.0
230
1.0
 70
     8
 71
     3
 72
    11
 73
     7
 74
     0
 42
0.00000001
 43
0.00000001
 40
0.0
 40
0.0
 40
0.0
 40
0.0
 40
0.1681729497041656
 40
0.451069046605043
 40
0.7290067776833926
 40
1.0
 40
1.0
 40
1.0
 40
1.0
 10
-696.9981353803616
 20
410.0590583738561
 30
0.0
 10
-697.2336528340328
 20
410.6257287834915
 30
0.0
 10
-697.8653515315528
 20
412.1456371983891
 30
0.0
 10
-699.6208958322068
 20
414.1886369753419
 30
0.0
 10
-702.0198973408002
 20
416.0829304466359
 30
0.0
 10
-703.9007484656966
 20
416.7822891992544
 30
0.0
 10
-704.8292767330151
 20
417.1275447924311
 30
0.0
  0
LWPOLYLINE
  5
D1D4
330
A
100
AcDbEntity
  8
0
  6
Continuous
 62
     7
370
    15
100
AcDbPolyline
 90
       10
 70
   128
 43
0.0
 10
-782.9905182196962
 20
395.7937348504722
 10
-782.9869270397962
 20
395.7973269615722
 10
-782.9061366690962
 20
395.8781164009722
 10
-782.7305432482963
 20
396.0537107531722
 10
-782.4868775977963
 20
396.2973764036722
 10
-782.2122361584962
 20
396.5720178429722
 10
-781.9484297259962
 20
396.8358233441722
 10
-781.7356225176962
 20
397.0486314837722
 10
-781.6062096579963
 20
397.1780434120722
 10
-781.5763048900963
 20
397.2079491112722
  0
LWPOLYLINE
  5
D1D5
330
A
100
AcDbEntity
  8
0
  6
Continuous
 62
     7
370
    15
100
AcDbPolyline
 90
       10
 70
   128
 43
0.0
 10
-781.5763048900963
 20
396.7836851124722
 10
-781.5972391589962
 20
396.7627508435722
 10
-781.6878270431963
 20
396.6721629593722
 10
-781.8367920889963
 20
396.5231969822722
 10
-782.0214565916963
 20
396.3385334108722
 10
-782.2137057854962
 20
396.1462842170722
 10
-782.3842719270963
 20
395.9757180754722
 10
-782.5071878804963
 20
395.8528021220722
 10
-782.5637396498962
 20
395.7962494213722
 10
-782.5662542207963
 20
395.7937348504722
  0
ARC
  5
D1D6
330
A
100
AcDbEntity
  8
0
  6
Continuous
 62
     7
370
    15
100
AcDbCircle
 10
-790.9101142807963
 20
405.1275446881722
 30
0.0
 40
10.5
100
AcDbArc
 50
269.9999999990999
 51
19.83336190889983
  0
LINE
  5
D1D7
330
A
100
AcDbEntity
  8
0
  6
Continuous
 62
     7
370
    15
100
AcDbLine
 10
-825.9101139454963
 20
402.8181436341722
 30
0.0
 11
-823.9101145489963
 21
403.9728441611722
 31
0.0
  0
LINE
  5
D1D8
330
A
100
AcDbEntity
  8
0
  6
Continuous
 62
     7
370
    15
100
AcDbLine
 10
-823.9101145489963
 20
403.9728441611722
 30
0.0
 11
-823.9101145489963
 21
406.2822452150722
 31
0.0
  0
LINE
  5
D1D9
330
A
100
AcDbEntity
  8
0
  6
Continuous
 62
     7
370
    15
100
AcDbLine
 10
-823.9101145489963
 20
406.2822452150722
 30
0.0
 11
-825.9101139454963
 21
407.4369457420722
 31
0.0
  0
LINE
  5
D1DA
330
A
100
AcDbEntity
  8
0
  6
Continuous
 62
     7
370
    15
100
AcDbLine
 10
-825.9101139454963
 20
407.4369457420722
 30
0.0
 11
-827.9101152046962
 21
406.2822452150722
 31
0.0
  0
LINE
  5
D1DB
330
A
100
AcDbEntity
  8
0
  6
Continuous
 62
     7
370
    15
100
AcDbLine
 10
-827.9101152046962
 20
406.2822452150722
 30
0.0
 11
-827.9101152046962
 21
403.9728441611722
 31
0.0
  0
LINE
  5
D1DC
330
A
100
AcDbEntity
  8
0
  6
Continuous
 62
     7
370
    15
100
AcDbLine
 10
-827.9101152046962
 20
403.9728441611722
 30
0.0
 11
-825.9101139454963
 21
402.8181436341722
 31
0.0
  0
CIRCLE
  5
D1DD
330
A
100
AcDbEntity
  8
0
  6
Continuous
 62
     7
370
    15
100
AcDbCircle
 10
-825.9101142807963
 20
405.1275446881722
 30
0.0
 40
5.999999999959471
  0
LINE
  5
D1DE
330
A
100
AcDbEntity
  8
0
  6
Continuous
 62
     7
370
    15
100
AcDbLine
 10
-788.8778850509963
 20
404.0305602001722
 30
0.0
 11
-788.9439828767963
 21
406.3390151467722
 31
0.0
  0
LINE
  5
D1DF
330
A
100
AcDbEntity
  8
0
  6
Continuous
 62
     7
370
    15
100
AcDbLine
 10
-788.9439828767963
 20
406.3390151467722
 30
0.0
 11
-790.9762125535963
 21
407.4359997511722
 31
0.0
  0
LINE
  5
D1E0
330
A
100
AcDbEntity
  8
0
  6
Continuous
 62
     7
370
    15
100
AcDbLine
 10
-790.9762125535963
 20
407.4359997511722
 30
0.0
 11
-792.9423444046963
 21
406.2245291760722
 31
0.0
  0
LINE
  5
D1E1
330
A
100
AcDbEntity
  8
0
  6
Continuous
 62
     7
370
    15
100
AcDbLine
 10
-792.9423444046963
 20
406.2245291760722
 30
0.0
 11
-792.8762465788963
 21
403.9160742294722
 31
0.0
  0
LINE
  5
D1E2
330
A
100
AcDbEntity
  8
0
  6
Continuous
 62
     7
370
    15
100
AcDbLine
 10
-792.8762465788963
 20
403.9160742294722
 30
0.0
 11
-790.8440150393963
 21
402.8190896250722
 31
0.0
  0
LINE
  5
D1E3
330
A
100
AcDbEntity
  8
0
  6
Continuous
 62
     7
370
    15
100
AcDbLine
 10
-790.8440150393963
 20
402.8190896250722
 30
0.0
 11
-788.8778850509963
 21
404.0305602001722
 31
0.0
  0
CIRCLE
  5
D1E4
330
A
100
AcDbEntity
  8
0
  6
Continuous
 62
     7
370
    15
100
AcDbCircle
 10
-790.9101142807963
 20
405.1275446881722
 30
0.0
 40
5.999999999999975
  0
LINE
  5
D1E5
330
A
100
AcDbEntity
  8
0
  6
Continuous
 62
     7
370
    15
100
AcDbLine
 10
-837.9101149811963
 20
392.1275444198722
 30
0.0
 11
-837.9101149811963
 21
391.1275442559722
 31
0.0
  0
LINE
  5
D1E6
330
A
100
AcDbEntity
  8
0
  6
Continuous
 62
     7
370
    15
100
AcDbLine
 10
-839.9101134462962
 20
392.1275444198722
 30
0.0
 11
-837.9101149811963
 21
392.1275444198722
 31
0.0
  0
LINE
  5
D1E7
330
A
100
AcDbEntity
  8
0
  6
Continuous
 62
     7
370
    15
100
AcDbLine
 10
-837.9101149811963
 20
391.1275442559722
 30
0.0
 11
-839.9101134462962
 21
391.1275442559722
 31
0.0
  0
LINE
  5
D1E8
330
A
100
AcDbEntity
  8
0
  6
Continuous
 62
     7
370
    15
100
AcDbLine
 10
-897.4101107640963
 20
392.1275444198722
 30
0.0
 11
-839.9101134462962
 21
392.1275444198722
 31
0.0
  0
LINE
  5
D1E9
330
A
100
AcDbEntity
  8
0
  6
Continuous
 62
     7
370
    15
100
AcDbLine
 10
-897.4101107640963
 20
391.1275442559722
 30
0.0
 11
-839.9101134462962
 21
391.1275442559722
 31
0.0
  0
LINE
  5
D1EA
330
A
100
AcDbEntity
  8
0
  6
Continuous
 62
     7
370
    15
100
AcDbLine
 10
-916.4101120157962
 20
392.1275444198722
 30
0.0
 11
-916.4101120157962
 21
391.1275442559722
 31
0.0
  0
LINE
  5
D1EB
330
A
100
AcDbEntity
  8
0
  6
Continuous
 62
     7
370
    15
100
AcDbLine
 10
-916.4101120157962
 20
392.1275444198722
 30
0.0
 11
-897.4101107640963
 21
392.1275444198722
 31
0.0
  0
LINE
  5
D1EC
330
A
100
AcDbEntity
  8
0
  6
Continuous
 62
     7
370
    15
100
AcDbLine
 10
-916.4101120157962
 20
391.1275442559722
 30
0.0
 11
-897.4101107640963
 21
391.1275442559722
 31
0.0
  0
LINE
  5
D1ED
330
A
100
AcDbEntity
  8
0
  6
Continuous
 62
     7
370
    15
100
AcDbLine
 10
-837.9101149811963
 20
392.1275444198722
 30
0.0
 11
-835.9101146532962
 21
392.1275444198722
 31
0.0
  0
LINE
  5
D1EE
330
A
100
AcDbEntity
  8
0
  6
Continuous
 62
     7
370
    15
100
AcDbLine
 10
-835.9101146532962
 20
391.1275442559722
 30
0.0
 11
-837.9101149811963
 21
391.1275442559722
 31
0.0
  0
LINE
  5
D1EF
330
A
100
AcDbEntity
  8
0
  6
Continuous
 62
     7
370
    15
100
AcDbLine
 10
-825.9101139454963
 20
392.1275444198722
 30
0.0
 11
-825.9101139454963
 21
391.1275442559722
 31
0.0
  0
LINE
  5
D1F0
330
A
100
AcDbEntity
  8
0
  6
Continuous
 62
     7
370
    15
100
AcDbLine
 10
-827.9101152046962
 20
392.1275444198722
 30
0.0
 11
-825.9101139454963
 21
392.1275444198722
 31
0.0
  0
LINE
  5
D1F1
330
A
100
AcDbEntity
  8
0
  6
Continuous
 62
     7
370
    15
100
AcDbLine
 10
-825.9101139454963
 20
391.1275442559722
 30
0.0
 11
-827.9101152046962
 21
391.1275442559722
 31
0.0
  0
LINE
  5
D1F2
330
A
100
AcDbEntity
  8
0
  6
Continuous
 62
     7
370
    15
100
AcDbLine
 10
-835.9101146532962
 20
392.1275444198722
 30
0.0
 11
-827.9101152046962
 21
392.1275444198722
 31
0.0
  0
LINE
  5
D1F3
330
A
100
AcDbEntity
  8
0
  6
Continuous
 62
     7
370
    15
100
AcDbLine
 10
-835.9101146532962
 20
391.1275442559722
 30
0.0
 11
-827.9101152046962
 21
391.1275442559722
 31
0.0
  0
LINE
  5
D1F4
330
A
100
AcDbEntity
  8
0
  6
Continuous
 62
     7
370
    15
100
AcDbLine
 10
-697.9101162477963
 20
393.1275445837722
 30
0.0
 11
-697.9101162477963
 21
392.1275444198722
 31
0.0
  0
LINE
  5
D1F5
330
A
100
AcDbEntity
  8
0
  6
Continuous
 62
     7
370
    15
100
AcDbLine
 10
-716.9101174993963
 20
392.1275444198722
 30
0.0
 11
-697.9101162477963
 21
392.1275444198722
 31
0.0
  0
LINE
  5
D1F6
330
A
100
AcDbEntity
  8
0
  6
Continuous
 62
     7
370
    15
100
AcDbLine
 10
-774.4101148171962
 20
392.1275444198722
 30
0.0
 11
-716.9101174993963
 21
392.1275444198722
 31
0.0
  0
LINE
  5
D1F7
330
A
100
AcDbEntity
  8
0
  6
Continuous
 62
     7
370
    15
100
AcDbLine
 10
-776.4101151450963
 20
392.1275444198722
 30
0.0
 11
-776.4101151450963
 21
393.1275445837722
 31
0.0
  0
LINE
  5
D1F8
330
A
100
AcDbEntity
  8
0
  6
Continuous
 62
     7
370
    15
100
AcDbLine
 10
-774.4101148171962
 20
392.1275444198722
 30
0.0
 11
-776.4101151450963
 21
392.1275444198722
 31
0.0
  0
LINE
  5
D1F9
330
A
100
AcDbEntity
  8
0
  6
Continuous
 62
     7
370
    15
100
AcDbLine
 10
-776.4101151450963
 20
392.1275444198722
 30
0.0
 11
-778.4101154728962
 21
392.1275444198722
 31
0.0
  0
LINE
  5
D1FA
330
A
100
AcDbEntity
  8
0
  6
Continuous
 62
     7
370
    15
100
AcDbLine
 10
-786.4101149214963
 20
392.1275444198722
 30
0.0
 11
-778.4101154728962
 21
392.1275444198722
 31
0.0
  0
LINE
  5
D1FB
330
A
100
AcDbEntity
  8
0
  6
Continuous
 62
     7
370
    15
100
AcDbLine
 10
-788.4101133866963
 20
392.1275444198722
 30
0.0
 11
-788.4101133866963
 21
393.1275445837722
 31
0.0
  0
LINE
  5
D1FC
330
A
100
AcDbEntity
  8
0
  6
Continuous
 62
     7
370
    15
100
AcDbLine
 10
-786.4101149214963
 20
392.1275444198722
 30
0.0
 11
-788.4101133866963
 21
392.1275444198722
 31
0.0
  0
LINE
  5
D1FD
330
A
100
AcDbEntity
  8
0
  6
Continuous
 62
     7
370
    15
100
AcDbLine
 10
-697.9101162477963
 20
392.1275444198722
 30
0.0
 11
-697.9101162477963
 21
391.1275442559722
 31
0.0
  0
LINE
  5
D1FE
330
A
100
AcDbEntity
  8
0
  6
Continuous
 62
     7
370
    15
100
AcDbLine
 10
-716.9101174993963
 20
391.1275442559722
 30
0.0
 11
-697.9101162477963
 21
391.1275442559722
 31
0.0
  0
LINE
  5
D1FF
330
A
100
AcDbEntity
  8
0
  6
Continuous
 62
     7
370
    15
100
AcDbLine
 10
-774.4101148171962
 20
391.1275442559722
 30
0.0
 11
-716.9101174993963
 21
391.1275442559722
 31
0.0
  0
LINE
  5
D200
330
A
100
AcDbEntity
  8
0
  6
Continuous
 62
     7
370
    15
100
AcDbLine
 10
-776.4101151450963
 20
391.1275442559722
 30
0.0
 11
-776.4101151450963
 21
392.1275444198722
 31
0.0
  0
LINE
  5
D201
330
A
100
AcDbEntity
  8
0
  6
Continuous
 62
     7
370
    15
100
AcDbLine
 10
-774.4101148171962
 20
391.1275442559722
 30
0.0
 11
-776.4101151450963
 21
391.1275442559722
 31
0.0
  0
LINE
  5
D202
330
A
100
AcDbEntity
  8
0
  6
Continuous
 62
     7
370
    15
100
AcDbLine
 10
-776.4101151450963
 20
391.1275442559722
 30
0.0
 11
-778.4101154728962
 21
391.1275442559722
 31
0.0
  0
LINE
  5
D203
330
A
100
AcDbEntity
  8
0
  6
Continuous
 62
     7
370
    15
100
AcDbLine
 10
-786.4101149214963
 20
391.1275442559722
 30
0.0
 11
-778.4101154728962
 21
391.1275442559722
 31
0.0
  0
LINE
  5
D204
330
A
100
AcDbEntity
  8
0
  6
Continuous
 62
     7
370
    15
100
AcDbLine
 10
-788.4101133866963
 20
391.1275442559722
 30
0.0
 11
-788.4101133866963
 21
392.1275444198722
 31
0.0
  0
LINE
  5
D205
330
A
100
AcDbEntity
  8
0
  6
Continuous
 62
     7
370
    15
100
AcDbLine
 10
-786.4101149214963
 20
391.1275442559722
 30
0.0
 11
-788.4101133866963
 21
391.1275442559722
 31
0.0
  0
LINE
  5
D206
330
A
100
AcDbEntity
  8
0
  6
Continuous
 62
     7
370
    15
100
AcDbLine
 10
-837.9101149811963
 20
393.1275445837722
 30
0.0
 11
-837.9101149811963
 21
392.1275444198722
 31
0.0
  0
LINE
  5
D207
330
A
100
AcDbEntity
  8
0
  6
Continuous
 62
     7
370
    15
100
AcDbLine
 10
-916.4101120157962
 20
393.1275445837722
 30
0.0
 11
-916.4101120157962
 21
392.1275444198722
 31
0.0
  0
LINE
  5
D208
330
A
100
AcDbEntity
  8
0
  6
Continuous
 62
     7
370
    15
100
AcDbLine
 10
-825.9101139454963
 20
393.1275445837722
 30
0.0
 11
-825.9101139454963
 21
392.1275444198722
 31
0.0
  0
LINE
  5
D209
330
A
100
AcDbEntity
  8
0
  6
Continuous
 62
     7
370
    15
100
AcDbLine
 10
-829.9101136698963
 20
385.1275451351722
 30
0.0
 11
-829.9101136698963
 21
384.3275446314722
 31
0.0
  0
LINE
  5
D20A
330
A
100
AcDbEntity
  8
0
  6
Continuous
 62
     7
370
    15
100
AcDbLine
 10
-831.9101139976963
 20
385.1275451351722
 30
0.0
 11
-829.9101136698963
 21
385.1275451351722
 31
0.0
  0
LINE
  5
D20B
330
A
100
AcDbEntity
  8
0
  6
Continuous
 62
     7
370
    15
100
AcDbLine
 10
-831.9101139976963
 20
385.1275451351722
 30
0.0
 11
-892.4159716887963
 21
385.1275451351722
 31
0.0
  0
LINE
  5
D20C
330
A
100
AcDbEntity
  8
0
  6
Continuous
 62
     7
370
    15
100
AcDbLine
 10
-892.4159716887963
 20
385.1275451351722
 30
0.0
 11
-909.4992589278963
 21
385.1275451351722
 31
0.0
  0
LINE
  5
D20D
330
A
100
AcDbEntity
  8
0
  6
Continuous
 62
     7
370
    15
100
AcDbLine
 10
-909.9101137443963
 20
384.3275446314722
 30
0.0
 11
-909.9101137443963
 21
385.1275451351722
 31
0.0
  0
LINE
  5
D20E
330
A
100
AcDbEntity
  8
0
  6
Continuous
 62
     7
370
    15
100
AcDbLine
 10
-909.9101137443963
 20
385.1275451351722
 30
0.0
 11
-909.4992589278963
 21
385.1275451351722
 31
0.0
  0
LINE
  5
D20F
330
A
100
AcDbEntity
  8
0
  6
Continuous
 62
     7
370
    15
100
AcDbLine
 10
-704.8209693356962
 20
385.1275451351722
 30
0.0
 11
-721.9042565746963
 21
385.1275451351722
 31
0.0
  0
LINE
  5
D210
330
A
100
AcDbEntity
  8
0
  6
Continuous
 62
     7
370
    15
100
AcDbLine
 10
-721.9042565746963
 20
385.1275451351722
 30
0.0
 11
-782.4101142658963
 21
385.1275451351722
 31
0.0
  0
LINE
  5
D211
330
A
100
AcDbEntity
  8
0
  6
Continuous
 62
     7
370
    15
100
AcDbLine
 10
-784.4101145936963
 20
384.3275446314722
 30
0.0
 11
-784.4101145936963
 21
385.1275451351722
 31
0.0
  0
LINE
  5
D212
330
A
100
AcDbEntity
  8
0
  6
Continuous
 62
     7
370
    15
100
AcDbLine
 10
-784.4101145936963
 20
385.1275451351722
 30
0.0
 11
-782.4101142658963
 21
385.1275451351722
 31
0.0
  0
LINE
  5
D213
330
A
100
AcDbEntity
  8
0
  6
Continuous
 62
     7
370
    15
100
AcDbLine
 10
-704.4101145191962
 20
385.1275451351722
 30
0.0
 11
-704.4101145191962
 21
384.3275446314722
 31
0.0
  0
LINE
  5
D214
330
A
100
AcDbEntity
  8
0
  6
Continuous
 62
     7
370
    15
100
AcDbLine
 10
-704.8209693356962
 20
385.1275451351722
 30
0.0
 11
-704.4101145191962
 21
385.1275451351722
 31
0.0
  0
LINE
  5
D215
330
A
100
AcDbEntity
  8
0
  6
Continuous
 62
     7
370
    15
100
AcDbLine
 10
-776.4101151450963
 20
386.1775442827722
 30
0.0
 11
-757.4101138933963
 21
386.1775442827722
 31
0.0
  0
LINE
  5
D216
330
A
100
AcDbEntity
  8
0
  6
Continuous
 62
     7
370
    15
100
AcDbLine
 10
-856.9101143701963
 20
386.1275452990722
 30
0.0
 11
-837.9101149811963
 21
386.1275452990722
 31
0.0
  0
LINE
  5
D217
330
A
100
AcDbEntity
  8
0
  6
Continuous
 62
     7
370
    15
100
AcDbLine
 10
-904.9101110620962
 20
386.1275452990722
 30
0.0
 11
-885.9101172609962
 21
386.1275452990722
 31
0.0
  0
LINE
  5
D218
330
A
100
AcDbEntity
  8
0
  6
Continuous
 62
     7
370
    15
100
AcDbLine
 10
-728.4101110024963
 20
386.1775442827722
 30
0.0
 11
-709.4101172013962
 21
386.1775442827722
 31
0.0
  0
LINE
  5
D219
330
A
100
AcDbEntity
  8
0
  6
Continuous
 62
     7
370
    15
100
AcDbLine
 10
-726.8101137204962
 20
385.9775446225722
 30
0.0
 11
-711.0101144834963
 21
385.9775446225722
 31
0.0
  0
LINE
  5
D21A
330
A
100
AcDbEntity
  8
0
  6
Continuous
 62
     7
370
    15
100
AcDbLine
 10
-774.8101141376962
 20
385.9775446225722
 30
0.0
 11
-759.0101149006963
 21
385.9775446225722
 31
0.0
  0
LINE
  5
D21B
330
A
100
AcDbEntity
  8
0
  6
Continuous
 62
     7
370
    15
100
AcDbLine
 10
-696.9155382438962
 20
384.3275446314722
 30
0.0
 11
-696.9155382438962
 21
378.3275455106722
 31
0.0
  0
LINE
  5
D21C
330
A
100
AcDbEntity
  8
0
  6
Continuous
 62
     7
370
    15
100
AcDbLine
 10
-696.9155382438962
 20
378.3275455106722
 30
0.0
 11
-716.9155415220962
 21
378.3275455106722
 31
0.0
  0
LINE
  5
D21D
330
A
100
AcDbEntity
  8
0
  6
Continuous
 62
     7
370
    15
100
AcDbLine
 10
-716.9155415220962
 20
384.3275446314722
 30
0.0
 11
-696.9155382438962
 21
384.3275446314722
 31
0.0
  0
LINE
  5
D21E
330
A
100
AcDbEntity
  8
0
  6
Continuous
 62
     7
370
    15
100
AcDbLine
 10
-790.4155414624963
 20
378.3275455106722
 30
0.0
 11
-790.4155414624963
 21
384.3275446314722
 31
0.0
  0
LINE
  5
D21F
330
A
100
AcDbEntity
  8
0
  6
Continuous
 62
     7
370
    15
100
AcDbLine
 10
-790.4155414624963
 20
378.3275455106722
 30
0.0
 11
-716.9155415220962
 21
378.3275455106722
 31
0.0
  0
LINE
  5
D220
330
A
100
AcDbEntity
  8
0
  6
Continuous
 62
     7
370
    15
100
AcDbLine
 10
-790.4155414624963
 20
384.3275446314722
 30
0.0
 11
-716.9155415220962
 21
384.3275446314722
 31
0.0
  0
LINE
  5
D221
330
A
100
AcDbEntity
  8
0
  6
Continuous
 62
     7
370
    15
100
AcDbLine
 10
-823.9046877323963
 20
378.3275455106722
 30
0.0
 11
-823.9046877323963
 21
384.3275446314722
 31
0.0
  0
LINE
  5
D222
330
A
100
AcDbEntity
  8
0
  6
Continuous
 62
     7
370
    15
100
AcDbLine
 10
-897.4046867413963
 20
378.3275455106722
 30
0.0
 11
-823.9046877323963
 21
378.3275455106722
 31
0.0
  0
LINE
  5
D223
330
A
100
AcDbEntity
  8
0
  6
Continuous
 62
     7
370
    15
100
AcDbLine
 10
-897.4046867413963
 20
384.3275446314722
 30
0.0
 11
-823.9046877323963
 21
384.3275446314722
 31
0.0
  0
LINE
  5
D224
330
A
100
AcDbEntity
  8
0
  6
Continuous
 62
     7
370
    15
100
AcDbLine
 10
-917.4046900196963
 20
378.3275455106722
 30
0.0
 11
-917.4046900196963
 21
384.3275446314722
 31
0.0
  0
LINE
  5
D225
330
A
100
AcDbEntity
  8
0
  6
Continuous
 62
     7
370
    15
100
AcDbLine
 10
-897.4046867413963
 20
378.3275455106722
 30
0.0
 11
-917.4046900196963
 21
378.3275455106722
 31
0.0
  0
LINE
  5
D226
330
A
100
AcDbEntity
  8
0
  6
Continuous
 62
     7
370
    15
100
AcDbLine
 10
-917.4046900196963
 20
384.3275446314722
 30
0.0
 11
-897.4046867413963
 21
384.3275446314722
 31
0.0
  0
SPLINE
  5
D227
330
A
100
AcDbEntity
  8
0
  6
Continuous
 62
     7
370
    15
100
AcDbSpline
210
0.0
220
0.0
230
1.0
 70
     8
 71
     3
 72
    12
 73
     8
 74
     0
 42
0.00000001
 43
0.00000001
 40
0.0
 40
0.0
 40
0.0
 40
0.0
 40
0.1014880547880107
 40
0.2030095566976617
 40
0.4067497406903752
 40
0.7032946373191057
 40
1.0
 40
1.0
 40
1.0
 40
1.0
 10
-897.4101107641203
 20
409.0623509009058
 30
0.0
 10
-895.3731528997591
 20
409.4615028940962
 30
0.0
 10
-891.2985658567864
 20
410.2599384278324
 30
0.0
 10
-883.0559754884047
 20
411.3940076525867
 30
0.0
 10
-870.8250692570493
 20
412.7575688554073
 30
0.0
 10
-854.5780572293202
 20
414.0752842939035
 30
0.0
 10
-842.4671868871426
 20
414.7767278307553
 30
0.0
 10
-836.4101138039572
 20
415.1275444646056
 30
0.0
  0
LINE
  5
D228
330
A
100
AcDbEntity
  8
0
  6
Continuous
 62
     7
370
    15
100
AcDbLine
 10
-836.4101138039963
 20
393.1275445837722
 30
0.0
 11
-836.4101138039963
 21
415.1275444645722
 31
0.0
  0
LINE
  5
D229
330
A
100
AcDbEntity
  8
0
  6
Continuous
 62
     7
370
    15
100
AcDbLine
 10
-836.4101138039963
 20
393.1275445837722
 30
0.0
 11
-897.4101107640963
 21
393.1275445837722
 31
0.0
  0
LINE
  5
D22A
330
A
100
AcDbEntity
  8
0
  6
Continuous
 62
     7
370
    15
100
AcDbLine
 10
-898.2011091037963
 20
417.1275447924722
 30
0.0
 11
-836.4101138039963
 21
417.1275447924722
 31
0.0
  0
LINE
  5
D22B
330
A
100
AcDbEntity
  8
0
  6
Continuous
 62
     7
370
    15
100
AcDbLine
 10
-897.4101107640963
 20
409.0623509008722
 30
0.0
 11
-899.3981268330963
 21
408.9296399951722
 31
0.0
  0
ARC
  5
D22C
330
A
100
AcDbEntity
  8
0
  6
Continuous
 62
     7
370
    15
100
AcDbCircle
 10
-871.9388222803963
 20
409.1065111478723
 30
0.0
 40
27.45987417887919
100
AcDbArc
 50
163.0162685424999
 51
180.3690490558999
  0
SPLINE
  5
D22D
330
A
100
AcDbEntity
  8
0
  6
Continuous
 62
     7
370
    15
100
AcDbSpline
210
0.0
220
0.0
230
1.0
 70
    24
 71
     3
 72
     9
 73
     5
 74
     0
 42
0.00000001
 43
0.00000001
 40
0.0
 40
0.0
 40
0.0
 40
0.0
 40
0.4918708131196827
 40
1.0
 40
1.0
 40
1.0
 40
1.0
 10
-836.4101138039572
 20
415.1275444646056
 30
0.0
 10
-836.4101138039572
 20
415.5445776314344
 30
0.0
 10
-836.4101138039572
 20
416.3924286437436
 30
0.0
 10
-836.4101138039572
 20
416.8798644384239
 30
0.0
 10
-836.4101138039572
 20
417.1275447924311
 30
0.0
  0
LINE
  5
D22E
330
A
100
AcDbEntity
  8
0
  6
Continuous
 62
     7
370
    15
100
AcDbLine
 10
-917.4101140423963
 20
393.1275445837722
 30
0.0
 11
-917.4101140423963
 21
410.0623752791722
 31
0.0
  0
LINE
  5
D22F
330
A
100
AcDbEntity
  8
0
  6
Continuous
 62
     7
370
    15
100
AcDbLine
 10
-917.3884403033962
 20
410.1126406211722
 30
0.0
 11
-917.4101140423963
 21
410.0623752791722
 31
0.0
  0
SPLINE
  5
D230
330
A
100
AcDbEntity
  8
0
  6
Continuous
 62
     7
370
    15
100
AcDbSpline
210
0.0
220
0.0
230
1.0
 70
     8
 71
     3
 72
    16
 73
    12
 74
     0
 42
0.00000001
 43
0.00000001
 40
0.0
 40
0.0
 40
0.0
 40
0.0
 40
0.1068840878038635
 40
0.2163641882461979
 40
0.3326549314890046
 40
0.4523436796178287
 40
0.5681817791366297
 40
0.687398704536405
 40
0.8029062745073583
 40
0.9217661514979465
 40
1.0
 40
1.0
 40
1.0
 40
1.0
 10
-899.3981268330557
 20
408.9296399951602
 30
0.0
 10
-900.3960961097598
 20
409.0740686894279
 30
0.0
 10
-902.4162734521999
 20
409.3664339781884
 30
0.0
 10
-905.4042183356244
 20
409.7031176683909
 30
0.0
 10
-908.3092064965674
 20
409.9788032489453
 30
0.0
 10
-910.9675290771779
 20
410.1774170309361
 30
0.0
 10
-913.2655587889751
 20
410.3017058186988
 30
0.0
 10
-915.09789121051
 20
410.3513524256103
 30
0.0
 10
-916.4385905669031
 20
410.3271898263162
 30
0.0
 10
-917.1800614638582
 20
410.2449169835114
 30
0.0
 10
-917.3292298206889
 20
410.150226718153
 30
0.0
 10
-917.3884403034193
 20
410.1126406212027
 30
0.0
  0
LINE
  5
D231
330
A
100
AcDbEntity
  8
0
  6
Continuous
 62
     7
370
    15
100
AcDbLine
 10
-897.4101107640963
 20
393.1275445837722
 30
0.0
 11
-917.4101140423963
 21
393.1275445837722
 31
0.0
  0
LINE
  5
D232
330
A
100
AcDbEntity
  8
0
  6
Continuous
 62
     7
370
    15
100
AcDbLine
 10
-909.4458159132963
 20
417.1275447924722
 30
0.0
 11
-898.2011091037963
 21
417.1275447924722
 31
0.0
  0
ARC
  5
D233
330
A
100
AcDbEntity
  8
0
  6
Continuous
 62
     7
370
    15
100
AcDbCircle
 10
-905.9382493544963
 20
405.1521331521722
 30
0.0
 40
12.47852183223462
100
AcDbArc
 50
106.3251689229998
 51
156.5765394989998
  0
LINE
  5
D234
330
A
100
AcDbEntity
  8
0
  6
Continuous
 62
     7
370
    15
100
AcDbLine
 10
-810.9101142807963
 20
393.1275445837722
 30
0.0
 11
-810.9101142807963
 21
394.6275448296722
 31
0.0
  0
LINE
  5
D235
330
A
100
AcDbEntity
  8
0
  6
Continuous
 62
     7
370
    15
100
AcDbLine
 10
-810.9101142807963
 20
393.1275445837722
 30
0.0
 11
-836.4101138039963
 21
393.1275445837722
 31
0.0
  0
LINE
  5
D236
330
A
100
AcDbEntity
  8
0
  6
Continuous
 62
     7
370
    15
100
AcDbLine
 10
-847.4101137443963
 20
385.9275437761722
 30
0.0
 11
-839.5101141257962
 21
385.9275437761722
 31
0.0
  0
LINE
  5
D237
330
A
100
AcDbEntity
  8
0
  6
Continuous
 62
     7
370
    15
100
AcDbLine
 10
-855.3101133628962
 20
385.9275437761722
 30
0.0
 11
-847.4101137443963
 21
385.9275437761722
 31
0.0
  0
LINE
  5
D238
330
A
100
AcDbEntity
  8
0
  6
Continuous
 62
     7
370
    15
100
AcDbLine
 10
-895.4101141615963
 20
385.9275437761722
 30
0.0
 11
-887.5101145430963
 21
385.9275437761722
 31
0.0
  0
LINE
  5
D239
330
A
100
AcDbEntity
  8
0
  6
Continuous
 62
     7
370
    15
100
AcDbLine
 10
-903.3101137800963
 20
385.9275437761722
 30
0.0
 11
-895.4101141615963
 21
385.9275437761722
 31
0.0
  0
LINE
  5
D23A
330
A
100
AcDbEntity
  8
0
  6
Continuous
 62
     7
370
    15
100
AcDbLine
 10
-909.4909515305962
 20
417.1275447924722
 30
0.0
 11
-909.4458159132963
 21
417.1275447924722
 31
0.0
  0
LINE
  5
D23B
330
A
100
AcDbEntity
  8
0
  6
Continuous
 62
     7
370
    15
100
AcDbLine
 10
-696.9101142211963
 20
393.1275445837722
 30
0.0
 11
-716.9101174993963
 21
393.1275445837722
 31
0.0
  0
SPLINE
  5
D23C
330
A
100
AcDbEntity
  8
0
  6
Continuous
 62
     7
370
    15
100
AcDbSpline
210
0.0
220
0.0
230
1.0
 70
     8
 71
     3
 72
     9
 73
     5
 74
     0
 42
0.00000001
 43
0.00000001
 40
0.0
 40
0.0
 40
0.0
 40
0.0
 40
0.7674757556439923
 40
0.9999999999999999
 40
0.9999999999999999
 40
0.9999999999999999
 40
0.9999999999999999
 10
-716.910117499445
 20
409.0623509009058
 30
0.0
 10
-716.1902286507305
 20
408.9648617502937
 30
0.0
 10
-715.2522330939714
 20
408.8378360431034
 30
0.0
 10
-714.3384168252801
 20
409.0090437628348
 30
0.0
 10
-714.1259323879225
 20
409.0488537084933
 30
0.0
  0
SPLINE
  5
D23D
330
A
100
AcDbEntity
  8
0
  6
Continuous
 62
     7
370
    15
100
AcDbSpline
210
0.0
220
0.0
230
1.0
 70
     8
 71
     3
 72
    16
 73
    12
 74
     0
 42
0.00000001
 43
0.00000001
 40
0.0
 40
0.0
 40
0.0
 40
0.0
 40
0.1058017793635645
 40
0.2141618077719971
 40
0.329536220379934
 40
0.4482645821721397
 40
0.5635099889841251
 40
0.682089350352282
 40
0.7974973153536926
 40
0.9162280697546551
 40
1.0
 40
1.0
 40
1.0
 40
1.0
 10
-696.9102408810597
 20
410.0626667831714
 30
0.0
 10
-696.957909693582
 20
410.1180654435217
 30
0.0
 10
-697.0543999334013
 20
410.230202283943
 30
0.0
 10
-697.8063355584338
 20
410.3211074386309
 30
0.0
 10
-699.0514098186103
 20
410.3523999808521
 30
0.0
 10
-700.8295731937978
 20
410.3106736082642
 30
0.0
 10
-703.0707918572512
 20
410.1952826615571
 30
0.0
 10
-705.6741152612123
 20
410.0066487171378
 30
0.0
 10
-708.6124978110809
 20
409.7351788242372
 30
0.0
 10
-711.4616489479083
 20
409.4193408488137
 30
0.0
 10
-713.3462888048714
 20
409.1572685705218
 30
0.0
 10
-714.1259323879225
 20
409.0488537084933
 30
0.0
  0
LINE
  5
D23E
330
A
100
AcDbEntity
  8
0
  6
Continuous
 62
     7
370
    15
100
AcDbLine
 10
-696.9101142211963
 20
410.0623752791722
 30
0.0
 11
-696.9102408810963
 21
410.0626667831722
 31
0.0
  0
LINE
  5
D23F
330
A
100
AcDbEntity
  8
0
  6
Continuous
 62
     7
370
    15
100
AcDbLine
 10
-696.9101142211963
 20
410.0623752791722
 30
0.0
 11
-696.9101142211963
 21
393.1275445837722
 31
0.0
  0
LINE
  5
D240
330
A
100
AcDbEntity
  8
0
  6
Continuous
 62
     7
370
    15
100
AcDbLine
 10
-714.1259323878962
 20
417.1275447924722
 30
0.0
 11
-714.1259323878962
 21
409.0488537084722
 31
0.0
  0
SPLINE
  5
D241
330
A
100
AcDbEntity
  8
0
  6
Continuous
 62
     7
370
    15
100
AcDbSpline
210
0.0
220
0.0
230
1.0
 70
     8
 71
     3
 72
    12
 73
     8
 74
     0
 42
0.00000001
 43
0.00000001
 40
0.0
 40
0.0
 40
0.0
 40
0.0
 40
0.1014880547880107
 40
0.2030095566976617
 40
0.4067497406903752
 40
0.7032946373191057
 40
1.0
 40
1.0
 40
1.0
 40
1.0
 10
-716.910117499445
 20
409.0623509009058
 30
0.0
 10
-718.9470753638061
 20
409.4615028940962
 30
0.0
 10
-723.021662406779
 20
410.2599384278324
 30
0.0
 10
-731.2642527751607
 20
411.3940076525867
 30
0.0
 10
-743.4951590065159
 20
412.7575688554073
 30
0.0
 10
-759.7421710342452
 20
414.0752842939035
 30
0.0
 10
-771.8530413764228
 20
414.7767278307553
 30
0.0
 10
-777.9101144596082
 20
415.1275444646056
 30
0.0
  0
LINE
  5
D242
330
A
100
AcDbEntity
  8
0
  6
Continuous
 62
     7
370
    15
100
AcDbLine
 10
-777.9101144595963
 20
417.1275447924722
 30
0.0
 11
-777.9101144595963
 21
415.1275444645722
 31
0.0
  0
LINE
  5
D243
330
A
100
AcDbEntity
  8
0
  6
Continuous
 62
     7
370
    15
100
AcDbLine
 10
-714.1259323878962
 20
417.1275447924722
 30
0.0
 11
-777.9101144595963
 21
417.1275447924722
 31
0.0
  0
LINE
  5
D244
330
A
100
AcDbEntity
  8
0
  6
Continuous
 62
     7
370
    15
100
AcDbLine
 10
-777.9101144595963
 20
393.1275445837722
 30
0.0
 11
-777.9101144595963
 21
415.1275444645722
 31
0.0
  0
LINE
  5
D245
330
A
100
AcDbEntity
  8
0
  6
Continuous
 62
     7
370
    15
100
AcDbLine
 10
-716.9101174993963
 20
393.1275445837722
 30
0.0
 11
-777.9101144595963
 21
393.1275445837722
 31
0.0
  0
LINE
  5
D246
330
A
100
AcDbEntity
  8
0
  6
Continuous
 62
     7
370
    15
100
AcDbLine
 10
-714.1259323878962
 20
417.1275447924722
 30
0.0
 11
-704.8292767329963
 21
417.1275447924722
 31
0.0
  0
LINE
  5
D247
330
A
100
AcDbEntity
  8
0
  6
Continuous
 62
     7
370
    15
100
AcDbLine
 10
-803.4101144483963
 20
394.3275444079722
 30
0.0
 11
-803.4101144483963
 21
394.6275448296722
 31
0.0
  0
LINE
  5
D248
330
A
100
AcDbEntity
  8
0
  6
Continuous
 62
     7
370
    15
100
AcDbLine
 10
-790.4101137145963
 20
394.3275444079722
 30
0.0
 11
-790.4101137145963
 21
393.1275445837722
 31
0.0
  0
LINE
  5
D249
330
A
100
AcDbEntity
  8
0
  6
Continuous
 62
     7
370
    15
100
AcDbLine
 10
-803.4101144483963
 20
394.3275444079722
 30
0.0
 11
-790.4101137145963
 21
394.3275444079722
 31
0.0
  0
ARC
  5
D24A
330
A
100
AcDbEntity
  8
0
  6
Continuous
 62
     7
370
    15
100
AcDbCircle
 10
-782.8101142807963
 20
397.0275446881722
 30
0.0
 40
1.499999999999998
100
AcDbArc
 50
193.5945285417979
 51
76.40547145810311
  0
ARC
  5
D24B
330
A
100
AcDbEntity
  8
0
  6
Continuous
 62
     7
370
    15
100
AcDbCircle
 10
-790.9101142807963
 20
405.1275446881722
 30
0.0
 40
10.74999999999997
100
AcDbArc
 50
258.1654416854999
 51
308.1602303515997
  0
ARC
  5
D24C
330
A
100
AcDbEntity
  8
0
  6
Continuous
 62
     7
370
    15
100
AcDbCircle
 10
-790.9101142807963
 20
405.1275446881722
 30
0.0
 40
10.75000000000002
100
AcDbArc
 50
321.8397696484
 51
27.06119349170002
  0
LINE
  5
D24D
330
A
100
AcDbEntity
  8
0
  6
Continuous
 62
     7
370
    15
100
AcDbLine
 10
-777.9101144595963
 20
417.1275447924722
 30
0.0
 11
-790.9101147277963
 21
417.1275447924722
 31
0.0
  0
LINE
  5
D24E
330
A
100
AcDbEntity
  8
0
  6
Continuous
 62
     7
370
    15
100
AcDbLine
 10
-777.9101144595963
 20
393.1275445837722
 30
0.0
 11
-790.4101137145963
 21
393.1275445837722
 31
0.0
  0
LINE
  5
D24F
330
A
100
AcDbEntity
  8
0
  6
Continuous
 62
     7
370
    15
100
AcDbLine
 10
-782.4575409366962
 20
398.4855197240722
 30
0.0
 11
-782.7448669894962
 21
398.5261249225722
 31
0.0
  0
ARC
  5
D250
330
A
100
AcDbEntity
  8
0
  6
Continuous
 62
     7
370
    15
100
AcDbCircle
 10
-790.9101142807963
 20
405.1275446881722
 30
0.0
 40
10.50000000000001
100
AcDbArc
 50
321.0452348445997
 51
19.83336190889983
  0
ARC
  5
D251
330
A
100
AcDbEntity
  8
0
  6
Continuous
 62
     7
370
    15
100
AcDbCircle
 10
-790.9101142807963
 20
405.1275446881722
 30
0.0
 40
10.49999999999998
100
AcDbArc
 50
270.0
 51
308.9547651554001
  0
LINE
  5
D252
330
A
100
AcDbEntity
  8
0
  6
Continuous
 62
     7
370
    15
100
AcDbLine
 10
-784.3086954279963
 20
396.9622978810722
 30
0.0
 11
-784.2680897636963
 21
396.6749708969722
 31
0.0
  0
ARC
  5
D253
330
A
100
AcDbEntity
  8
0
  6
Continuous
 62
     7
370
    15
100
AcDbCircle
 10
-790.9101142807963
 20
371.6275446881722
 30
0.0
 40
25.00000000000001
100
AcDbArc
 50
90.0
 51
113.0739180655999
  0
SPLINE
  5
D254
330
A
100
AcDbEntity
  8
0
  6
Continuous
 62
     7
370
    15
100
AcDbSpline
210
0.0
220
0.0
230
1.0
 70
    24
 71
     3
 72
    18
 73
    14
 74
     0
 42
0.00000001
 43
0.00000001
 40
0.0
 40
0.0
 40
0.0
 40
0.0
 40
0.25
 40
0.25
 40
0.5
 40
0.5
 40
0.625
 40
0.625
 40
0.75
 40
0.75
 40
0.875
 40
0.875
 40
1.0
 40
1.0
 40
1.0
 40
1.0
 10
-800.7080732519271
 20
394.627544688123
 30
0.0
 10
-799.9225039579975
 20
394.627544688123
 30
0.0
 10
-799.1412610839142
 20
394.627544688123
 30
0.0
 10
-797.5764971269323
 20
394.627544688123
 30
0.0
 10
-796.7933666201495
 20
394.627544688123
 30
0.0
 10
-795.601097775577
 20
394.627544688123
 30
0.0
 10
-795.2006378968345
 20
394.627544688123
 30
0.0
 10
-794.3883172079163
 20
394.627544688123
 30
0.0
 10
-793.9765139162074
 20
394.627544688123
 30
0.0
 10
-793.1328632888409
 20
394.627544688123
 30
0.0
 10
-792.6988788218121
 20
394.627544688123
 30
0.0
 10
-791.8064494341497
 20
394.627544688123
 30
0.0
 10
-791.3589967319288
 20
394.627544688123
 30
0.0
 10
-790.9101142807942
 20
394.627544688123
 30
0.0
  0
LINE
  5
D255
330
A
100
AcDbEntity
  8
0
  6
Continuous
 62
     7
370
    15
100
AcDbLine
 10
-836.4101138039963
 20
415.1275444645722
 30
0.0
 11
-836.4101138039963
 21
394.6275448296722
 31
0.0
  0
LINE
  5
D256
330
A
100
AcDbEntity
  8
0
  6
Continuous
 62
     7
370
    15
100
AcDbLine
 10
-790.9101147277963
 20
415.1275444645722
 30
0.0
 11
-836.4101138039963
 21
415.1275444645722
 31
0.0
  0
ARC
  5
D257
330
A
100
AcDbEntity
  8
0
  6
Continuous
 62
     7
370
    15
100
AcDbCircle
 10
-790.9101142807963
 20
407.1275446881722
 30
0.0
 40
8.000000000000057
100
AcDbArc
 50
0.0
 51
90.0
  0
LINE
  5
D258
330
A
100
AcDbEntity
  8
0
  6
Continuous
 62
     7
370
    15
100
AcDbLine
 10
-782.9101134164963
 20
407.1275447830722
 30
0.0
 11
-782.9101134164963
 21
404.6275446643722
 31
0.0
  0
ARC
  5
D259
330
A
100
AcDbEntity
  8
0
  6
Continuous
 62
     7
370
    15
100
AcDbCircle
 10
-790.9101142807963
 20
404.6275446881722
 30
0.0
 40
8.000000000000057
100
AcDbArc
 50
270.0
 51
0.0
  0
CIRCLE
  5
D25A
330
A
100
AcDbEntity
  8
0
  6
Continuous
 62
     7
370
    15
100
AcDbCircle
 10
-790.9101142807963
 20
405.1275446881722
 30
0.0
 40
6.19999999999996
  0
CIRCLE
  5
D25B
330
A
100
AcDbEntity
  8
0
  6
Continuous
 62
     7
370
    15
100
AcDbCircle
 10
-825.9101142807963
 20
405.1275446881722
 30
0.0
 40
6.19999999999996
  0
LINE
  5
D25C
330
A
100
AcDbEntity
  8
0
  6
Continuous
 62
     7
370
    15
100
AcDbLine
 10
-836.4101138039963
 20
394.6275448296722
 30
0.0
 11
-800.7080733849963
 21
394.6275448296722
 31
0.0
  0
ARC
  5
D25D
330
A
100
AcDbEntity
  8
0
  6
Continuous
 62
     7
370
    15
100
AcDbCircle
 10
-790.9101142807963
 20
407.1275446881722
 30
0.0
 40
10.00000000000006
100
AcDbArc
 50
0.0
 51
90.0
  0
LINE
  5
D25E
330
A
100
AcDbEntity
  8
0
  6
Continuous
 62
     7
370
    15
100
AcDbLine
 10
-780.9101149513963
 20
404.6275446643722
 30
0.0
 11
-780.9101149513963
 21
407.1275447830722
 31
0.0
  0
ARC
  5
D25F
330
A
100
AcDbEntity
  8
0
  6
Continuous
 62
     7
370
    15
100
AcDbCircle
 10
-790.9101142807963
 20
404.6275446881722
 30
0.0
 40
10.00000000000003
100
AcDbArc
 50
270.0
 51
0.0
  0
LINE
  5
D260
330
A
100
AcDbEntity
  8
0
  6
Continuous
 62
     7
370
    15
100
AcDbLine
 10
-836.4101138039963
 20
417.1275447924722
 30
0.0
 11
-836.4101138039963
 21
415.1275444645722
 31
0.0
  0
LINE
  5
D261
330
A
100
AcDbEntity
  8
0
  6
Continuous
 62
     7
370
    15
100
AcDbLine
 10
-836.4101138039963
 20
417.1275447924722
 30
0.0
 11
-790.9101147277963
 21
417.1275447924722
 31
0.0
  0
LINE
  5
D262
330
A
100
AcDbEntity
  8
0
  6
Continuous
 62
     8
370
     0
100
AcDbLine
 10
-839.9101134462962
 20
391.1275442559722
 30
0.0
 11
-839.9101134462962
 21
392.1275444198722
 31
0.0
  0
LINE
  5
D263
330
A
100
AcDbEntity
  8
0
  6
Continuous
 62
     8
370
     0
100
AcDbLine
 10
-897.4101107640963
 20
392.1275444198722
 30
0.0
 11
-897.4101107640963
 21
391.1275442559722
 31
0.0
  0
LINE
  5
D264
330
A
100
AcDbEntity
  8
0
  6
Continuous
 62
     8
370
     0
100
AcDbLine
 10
-835.9101146532962
 20
392.1275444198722
 30
0.0
 11
-835.9101146532962
 21
391.1275442559722
 31
0.0
  0
LINE
  5
D265
330
A
100
AcDbEntity
  8
0
  6
Continuous
 62
     8
370
     0
100
AcDbLine
 10
-827.9101152046962
 20
391.1275442559722
 30
0.0
 11
-827.9101152046962
 21
392.1275444198722
 31
0.0
  0
LINE
  5
D266
330
A
100
AcDbEntity
  8
0
  6
Continuous
 62
     8
370
     0
100
AcDbLine
 10
-716.9101174993963
 20
393.1275445837722
 30
0.0
 11
-716.9101174993963
 21
392.1275444198722
 31
0.0
  0
LINE
  5
D267
330
A
100
AcDbEntity
  8
0
  6
Continuous
 62
     8
370
     0
100
AcDbLine
 10
-774.4101148171962
 20
393.1275445837722
 30
0.0
 11
-774.4101148171962
 21
392.1275444198722
 31
0.0
  0
LINE
  5
D268
330
A
100
AcDbEntity
  8
0
  6
Continuous
 62
     8
370
     0
100
AcDbLine
 10
-778.4101154728962
 20
392.1275444198722
 30
0.0
 11
-778.4101154728962
 21
393.1275445837722
 31
0.0
  0
LINE
  5
D269
330
A
100
AcDbEntity
  8
0
  6
Continuous
 62
     8
370
     0
100
AcDbLine
 10
-786.4101149214963
 20
393.1275445837722
 30
0.0
 11
-786.4101149214963
 21
392.1275444198722
 31
0.0
  0
LINE
  5
D26A
330
A
100
AcDbEntity
  8
0
  6
Continuous
 62
     8
370
     0
100
AcDbLine
 10
-716.9101174993963
 20
392.1275444198722
 30
0.0
 11
-716.9101174993963
 21
391.1275442559722
 31
0.0
  0
LINE
  5
D26B
330
A
100
AcDbEntity
  8
0
  6
Continuous
 62
     8
370
     0
100
AcDbLine
 10
-774.4101148171962
 20
392.1275444198722
 30
0.0
 11
-774.4101148171962
 21
391.1275442559722
 31
0.0
  0
LINE
  5
D26C
330
A
100
AcDbEntity
  8
0
  6
Continuous
 62
     8
370
     0
100
AcDbLine
 10
-778.4101154728962
 20
391.1275442559722
 30
0.0
 11
-778.4101154728962
 21
392.1275444198722
 31
0.0
  0
LINE
  5
D26D
330
A
100
AcDbEntity
  8
0
  6
Continuous
 62
     8
370
     0
100
AcDbLine
 10
-786.4101149214963
 20
392.1275444198722
 30
0.0
 11
-786.4101149214963
 21
391.1275442559722
 31
0.0
  0
LINE
  5
D26E
330
A
100
AcDbEntity
  8
0
  6
Continuous
 62
     8
370
     0
100
AcDbLine
 10
-839.9101134462962
 20
392.1275444198722
 30
0.0
 11
-839.9101134462962
 21
393.1275445837722
 31
0.0
  0
LINE
  5
D26F
330
A
100
AcDbEntity
  8
0
  6
Continuous
 62
     8
370
     0
100
AcDbLine
 10
-897.4101107640963
 20
393.1275445837722
 30
0.0
 11
-897.4101107640963
 21
392.1275444198722
 31
0.0
  0
LINE
  5
D270
330
A
100
AcDbEntity
  8
0
  6
Continuous
 62
     8
370
     0
100
AcDbLine
 10
-835.9101146532962
 20
393.1275445837722
 30
0.0
 11
-835.9101146532962
 21
392.1275444198722
 31
0.0
  0
LINE
  5
D271
330
A
100
AcDbEntity
  8
0
  6
Continuous
 62
     8
370
     0
100
AcDbLine
 10
-827.9101152046962
 20
392.1275444198722
 30
0.0
 11
-827.9101152046962
 21
393.1275445837722
 31
0.0
  0
LINE
  5
D272
330
A
100
AcDbEntity
  8
0
  6
Continuous
 62
     8
370
     0
100
AcDbLine
 10
-831.9101139976963
 20
384.3275446314722
 30
0.0
 11
-831.9101139976963
 21
385.1275451351722
 31
0.0
  0
LINE
  5
D273
330
A
100
AcDbEntity
  8
0
  6
Continuous
 62
     8
370
     0
100
AcDbLine
 10
-892.4159716887963
 20
384.3275446314722
 30
0.0
 11
-892.4159716887963
 21
385.1275451351722
 31
0.0
  0
LINE
  5
D274
330
A
100
AcDbEntity
  8
0
  6
Continuous
 62
     8
370
     0
100
AcDbLine
 10
-909.4992589278963
 20
385.1275451351722
 30
0.0
 11
-909.4992589278963
 21
384.3275446314722
 31
0.0
  0
LINE
  5
D275
330
A
100
AcDbEntity
  8
0
  6
Continuous
 62
     8
370
     0
100
AcDbLine
 10
-721.9042565746963
 20
384.3275446314722
 30
0.0
 11
-721.9042565746963
 21
385.1275451351722
 31
0.0
  0
LINE
  5
D276
330
A
100
AcDbEntity
  8
0
  6
Continuous
 62
     8
370
     0
100
AcDbLine
 10
-704.8209693356962
 20
384.3275446314722
 30
0.0
 11
-704.8209693356962
 21
385.1275451351722
 31
0.0
  0
LINE
  5
D277
330
A
100
AcDbEntity
  8
0
  6
Continuous
 62
     8
370
     0
100
AcDbLine
 10
-782.4101142658963
 20
385.1275451351722
 30
0.0
 11
-782.4101142658963
 21
384.3275446314722
 31
0.0
  0
LINE
  5
D278
330
A
100
AcDbEntity
  8
0
  6
Continuous
 62
     8
370
     0
100
AcDbLine
 10
-716.9155415220962
 20
378.3275455106722
 30
0.0
 11
-716.9155415220962
 21
384.3275446314722
 31
0.0
  0
LINE
  5
D279
330
A
100
AcDbEntity
  8
0
  6
Continuous
 62
     8
370
     0
100
AcDbLine
 10
-897.4046867413963
 20
384.3275446314722
 30
0.0
 11
-897.4046867413963
 21
378.3275455106722
 31
0.0
  0
LINE
  5
D27A
330
A
100
AcDbEntity
  8
0
  6
Continuous
 62
     8
370
     0
100
AcDbLine
 10
-897.4101107640963
 20
409.0623509008722
 30
0.0
 11
-897.4101107640963
 21
393.1275445837722
 31
0.0
  0
LINE
  5
D27B
330
A
100
AcDbEntity
  8
0
  6
Continuous
 62
     8
370
     0
100
AcDbLine
 10
-716.9101174993963
 20
393.1275445837722
 30
0.0
 11
-716.9101174993963
 21
409.0623509008722
 31
0.0
  0
LINE
  5
D27C
330
A
100
AcDbEntity
  8
0
  6
Continuous
 62
     8
370
     0
100
AcDbLine
 10
-790.9101147277963
 20
394.6275448296722
 30
0.0
 11
-790.9101147277963
 21
396.6275442261722
 31
0.0
  0
LINE
  5
D27D
330
A
100
AcDbEntity
  8
0
  6
Continuous
 62
     8
370
     0
100
AcDbLine
 10
-790.9101147277963
 20
417.1275447924722
 30
0.0
 11
-790.9101147277963
 21
415.1275444645722
 31
0.0
  0
LINE
  5
D27E
330
A
100
AcDbEntity
  8
0
  6
Continuous
 62
     8
370
     0
100
AcDbLine
 10
-780.9101149513963
 20
407.1275447830722
 30
0.0
 11
-782.9101134164963
 21
407.1275447830722
 31
0.0
  0
LINE
  5
D27F
330
A
100
AcDbEntity
  8
0
  6
Continuous
 62
     8
370
     0
100
AcDbLine
 10
-780.9101149513963
 20
404.6275446643722
 30
0.0
 11
-782.9101134164963
 21
404.6275446643722
 31
0.0
  0
INSERT
  5
D280
330
A
100
AcDbEntity
  8
0
  6
Continuous
 62
     7
370
     0
100
AcDbBlockReference
  2
SW_CENTERMARKSYMBOL_4
 10
-790.9101142807963
 20
405.1275446881722
 30
0.0
  0
INSERT
  5
D281
330
A
100
AcDbEntity
  8
0
  6
Continuous
 62
     7
370
     0
100
AcDbBlockReference
  2
SW_CENTERMARKSYMBOL_5
 10
-825.9101142807963
 20
405.1275446881722
 30
0.0
  0
LINE
  5
D282
330
A
100
AcDbEntity
  8
0
  6
Continuous
 62
     7
370
    15
100
AcDbLine
 10
-781.6987793965963
 20
182.6564630443722
 30
0.0
 11
-781.6987793965963
 21
183.0807265775722
 31
0.0
  0
LINE
  5
D283
330
A
100
AcDbEntity
  8
0
  6
Continuous
 62
     7
370
    15
100
AcDbLine
 10
-782.6887287272963
 20
184.0706768395722
 30
0.0
 11
-783.1129927261962
 21
184.0706768395722
 31
0.0
  0
LINE
  5
D284
330
A
100
AcDbEntity
  8
0
  6
Continuous
 62
     7
370
    15
100
AcDbLine
 10
-783.1129927261962
 20
184.0706768395722
 30
0.0
 11
-784.2263478858963
 21
182.9573207485722
 31
0.0
  0
LINE
  5
D285
330
A
100
AcDbEntity
  8
0
  6
Continuous
 62
     7
370
    15
100
AcDbLine
 10
-782.8121345563962
 20
181.5431074189722
 30
0.0
 11
-781.6987793965963
 21
182.6564630443722
 31
0.0
  0
LINE
  5
D286
330
A
100
AcDbEntity
  8
0
  6
Continuous
 62
     7
370
    15
100
AcDbLine
 10
-757.4101138933963
 20
188.8593419405722
 30
0.0
 11
-757.4101138933963
 21
193.8093419137722
 31
0.0
  0
LINE
  5
D287
330
A
100
AcDbEntity
  8
0
  6
Continuous
 62
     7
370
    15
100
AcDbLine
 10
-776.4101151450963
 20
193.8093419137722
 30
0.0
 11
-776.4101151450963
 21
188.8593419405722
 31
0.0
  0
LINE
  5
D288
330
A
100
AcDbEntity
  8
0
  6
Continuous
 62
     7
370
    15
100
AcDbLine
 10
-837.9101149811963
 20
188.8593419405722
 30
0.0
 11
-837.9101149811963
 21
193.8593408974722
 31
0.0
  0
LINE
  5
D289
330
A
100
AcDbEntity
  8
0
  6
Continuous
 62
     7
370
    15
100
AcDbLine
 10
-856.9101143701963
 20
193.8593408974722
 30
0.0
 11
-856.9101143701963
 21
188.8593419405722
 31
0.0
  0
LINE
  5
D28A
330
A
100
AcDbEntity
  8
0
  6
Continuous
 62
     7
370
    15
100
AcDbLine
 10
-885.9101172609962
 20
188.8593419405722
 30
0.0
 11
-885.9101172609962
 21
193.8593408974722
 31
0.0
  0
LINE
  5
D28B
330
A
100
AcDbEntity
  8
0
  6
Continuous
 62
     7
370
    15
100
AcDbLine
 10
-904.9101110620962
 20
193.8593408974722
 30
0.0
 11
-904.9101110620962
 21
188.8593419405722
 31
0.0
  0
LINE
  5
D28C
330
A
100
AcDbEntity
  8
0
  6
Continuous
 62
     7
370
    15
100
AcDbLine
 10
-709.4101172013962
 20
188.8593419405722
 30
0.0
 11
-709.4101172013962
 21
193.8093419137722
 31
0.0
  0
LINE
  5
D28D
330
A
100
AcDbEntity
  8
0
  6
Continuous
 62
     7
370
    15
100
AcDbLine
 10
-728.4101110024963
 20
193.8093419137722
 30
0.0
 11
-728.4101110024963
 21
188.8593419405722
 31
0.0
  0
LINE
  5
D28E
330
A
100
AcDbEntity
  8
0
  6
Continuous
 62
     7
370
    15
100
AcDbLine
 10
-759.0101149006963
 20
194.0093415739722
 30
0.0
 11
-759.8601143880962
 21
194.8593410613722
 31
0.0
  0
LINE
  5
D28F
330
A
100
AcDbEntity
  8
0
  6
Continuous
 62
     7
370
    15
100
AcDbLine
 10
-773.9601146502962
 20
194.8593410613722
 30
0.0
 11
-774.8101141376962
 21
194.0093415739722
 31
0.0
  0
LINE
  5
D290
330
A
100
AcDbEntity
  8
0
  6
Continuous
 62
     7
370
    15
100
AcDbLine
 10
-759.0101149006963
 20
193.8093419137722
 30
0.0
 11
-759.0101149006963
 21
194.0093415739722
 31
0.0
  0
LINE
  5
D291
330
A
100
AcDbEntity
  8
0
  6
Continuous
 62
     7
370
    15
100
AcDbLine
 10
-774.8101141376962
 20
194.0093415739722
 30
0.0
 11
-774.8101141376962
 21
193.8093419137722
 31
0.0
  0
LINE
  5
D292
330
A
100
AcDbEntity
  8
0
  6
Continuous
 62
     7
370
    15
100
AcDbLine
 10
-711.0101144834963
 20
194.0093415739722
 30
0.0
 11
-711.8601139708962
 21
194.8593410613722
 31
0.0
  0
LINE
  5
D293
330
A
100
AcDbEntity
  8
0
  6
Continuous
 62
     7
370
    15
100
AcDbLine
 10
-725.9601142330962
 20
194.8593410613722
 30
0.0
 11
-726.8101137204962
 21
194.0093415739722
 31
0.0
  0
LINE
  5
D294
330
A
100
AcDbEntity
  8
0
  6
Continuous
 62
     7
370
    15
100
AcDbLine
 10
-711.0101144834963
 20
193.8093419137722
 30
0.0
 11
-711.0101144834963
 21
194.0093415739722
 31
0.0
  0
LINE
  5
D295
330
A
100
AcDbEntity
  8
0
  6
Continuous
 62
     7
370
    15
100
AcDbLine
 10
-726.8101137204962
 20
194.0093415739722
 30
0.0
 11
-726.8101137204962
 21
193.8093419137722
 31
0.0
  0
SPLINE
  5
D296
330
A
100
AcDbEntity
  8
0
  6
Continuous
 62
     7
370
    15
100
AcDbSpline
210
0.0
220
0.0
230
1.0
 70
     8
 71
     3
 72
    11
 73
     7
 74
     0
 42
0.00000001
 43
0.00000001
 40
0.0
 40
0.0
 40
0.0
 40
0.0
 40
0.1681729497041656
 40
0.451069046605043
 40
0.7290067776833926
 40
1.0
 40
1.0
 40
1.0
 40
1.0
 10
-917.3220928832037
 20
169.9278278226851
 30
0.0
 10
-917.0865754295327
 20
169.3611574130497
 30
0.0
 10
-916.4548767320125
 20
167.8412489981521
 30
0.0
 10
-914.6993324313586
 20
165.7982492211993
 30
0.0
 10
-912.3003309227652
 20
163.9039557499053
 30
0.0
 10
-910.4194797978689
 20
163.2045969972868
 30
0.0
 10
-909.4909515305502
 20
162.8593414041101
 30
0.0
  0
LINE
  5
D297
330
A
100
AcDbEntity
  8
0
  6
Continuous
 62
     7
370
    15
100
AcDbLine
 10
-887.5101145430963
 20
194.0593424203722
 30
0.0
 11
-888.3101131840963
 21
194.8593410613722
 31
0.0
  0
LINE
  5
D298
330
A
100
AcDbEntity
  8
0
  6
Continuous
 62
     7
370
    15
100
AcDbLine
 10
-902.5101151390963
 20
194.8593410613722
 30
0.0
 11
-903.3101137800963
 21
194.0593424203722
 31
0.0
  0
LINE
  5
D299
330
A
100
AcDbEntity
  8
0
  6
Continuous
 62
     7
370
    15
100
AcDbLine
 10
-887.5101145430963
 20
193.8593408974722
 30
0.0
 11
-887.5101145430963
 21
194.0593424203722
 31
0.0
  0
LINE
  5
D29A
330
A
100
AcDbEntity
  8
0
  6
Continuous
 62
     7
370
    15
100
AcDbLine
 10
-903.3101137800963
 20
194.0593424203722
 30
0.0
 11
-903.3101137800963
 21
193.8593408974722
 31
0.0
  0
LINE
  5
D29B
330
A
100
AcDbEntity
  8
0
  6
Continuous
 62
     7
370
    15
100
AcDbLine
 10
-839.5101141257962
 20
194.0593424203722
 30
0.0
 11
-840.3101146294963
 21
194.8593410613722
 31
0.0
  0
LINE
  5
D29C
330
A
100
AcDbEntity
  8
0
  6
Continuous
 62
     7
370
    15
100
AcDbLine
 10
-854.5101147218963
 20
194.8593410613722
 30
0.0
 11
-855.3101133628962
 21
194.0593424203722
 31
0.0
  0
LINE
  5
D29D
330
A
100
AcDbEntity
  8
0
  6
Continuous
 62
     7
370
    15
100
AcDbLine
 10
-839.5101141257962
 20
193.8593408974722
 30
0.0
 11
-839.5101141257962
 21
194.0593424203722
 31
0.0
  0
LINE
  5
D29E
330
A
100
AcDbEntity
  8
0
  6
Continuous
 62
     7
370
    15
100
AcDbLine
 10
-855.3101133628962
 20
194.0593424203722
 30
0.0
 11
-855.3101133628962
 21
193.8593408974722
 31
0.0
  0
LWPOLYLINE
  5
D29F
330
A
100
AcDbEntity
  8
0
  6
Continuous
 62
     7
370
    15
100
AcDbPolyline
 90
       10
 70
   128
 43
0.0
 10
-782.6887287272963
 20
184.0706768395722
 10
-782.6597999854963
 20
184.0417471664722
 10
-782.5605154110963
 20
183.9424635233722
 10
-782.4053961856963
 20
183.7873442980722
 10
-782.2180569245963
 20
183.6000041055722
 10
-782.0270165874963
 20
183.4089637684722
 10
-781.8613603784963
 20
183.2433075594722
 10
-781.7463085128962
 20
183.1282566251722
 10
-781.6993754430963
 20
183.0813235553722
 10
-781.6987793965963
 20
183.0807265775722
  0
LINE
  5
D2A0
330
A
100
AcDbEntity
  8
0
  6
Continuous
 62
     7
370
    15
100
AcDbLine
 10
-783.0716662182963
 20
184.0293494003722
 30
0.0
 11
-783.1129927261962
 21
184.0706768395722
 31
0.0
  0
LWPOLYLINE
  5
D2A1
330
A
100
AcDbEntity
  8
0
  6
Continuous
 62
     7
370
    15
100
AcDbPolyline
 90
        9
 70
   128
 43
0.0
 10
-781.6987793965963
 20
182.6564630443722
 10
-781.6996324880963
 20
182.6573156701722
 10
-781.7666784002963
 20
182.7243615823722
 10
-781.9310382081962
 20
182.8887213903722
 10
-782.1676891370962
 20
183.1253723191722
 10
-782.4406039042963
 20
183.3982870864722
 10
-782.7082324846963
 20
183.6659156667722
 10
-782.9298313780963
 20
183.8875154914722
 10
-783.0716662182963
 20
184.0293494003722
  0
ARC
  5
D2A2
330
A
100
AcDbEntity
  8
0
  6
Continuous
 62
     7
370
    15
100
AcDbCircle
 10
-790.9101142807963
 20
174.8593415083722
 30
0.0
 40
10.5
100
AcDbArc
 50
340.1666380911
 51
90.00000000030026
  0
LINE
  5
D2A3
330
A
100
AcDbEntity
  8
0
  6
Continuous
 62
     7
370
    15
100
AcDbLine
 10
-823.6809104754963
 20
174.2560299296722
 30
0.0
 11
-824.2730295358963
 21
176.4882326076722
 31
0.0
  0
LINE
  5
D2A4
330
A
100
AcDbEntity
  8
0
  6
Continuous
 62
     7
370
    15
100
AcDbLine
 10
-824.2730295358963
 20
176.4882326076722
 30
0.0
 11
-826.5022330059962
 21
177.0915443027722
 31
0.0
  0
LINE
  5
D2A5
330
A
100
AcDbEntity
  8
0
  6
Continuous
 62
     7
370
    15
100
AcDbLine
 10
-826.5022330059962
 20
177.0915443027722
 30
0.0
 11
-828.1393174155962
 21
175.4626530871722
 31
0.0
  0
LINE
  5
D2A6
330
A
100
AcDbEntity
  8
0
  6
Continuous
 62
     7
370
    15
100
AcDbLine
 10
-828.1393174155962
 20
175.4626530871722
 30
0.0
 11
-827.5471992863963
 21
173.2304504091722
 31
0.0
  0
LINE
  5
D2A7
330
A
100
AcDbEntity
  8
0
  6
Continuous
 62
     7
370
    15
100
AcDbLine
 10
-827.5471992863963
 20
173.2304504091722
 30
0.0
 11
-825.3179958163962
 21
172.6271387139722
 31
0.0
  0
LINE
  5
D2A8
330
A
100
AcDbEntity
  8
0
  6
Continuous
 62
     7
370
    15
100
AcDbLine
 10
-825.3179958163962
 20
172.6271387139722
 30
0.0
 11
-823.6809104754963
 21
174.2560299296722
 31
0.0
  0
CIRCLE
  5
D2A9
330
A
100
AcDbEntity
  8
0
  6
Continuous
 62
     7
370
    15
100
AcDbCircle
 10
-825.9101142807963
 20
174.8593415083722
 30
0.0
 40
5.999999999959439
  0
LINE
  5
D2AA
330
A
100
AcDbEntity
  8
0
  6
Continuous
 62
     7
370
    15
100
AcDbLine
 10
-789.4364755673963
 20
176.6374651758722
 30
0.0
 11
-791.7131960465963
 21
177.0246115463722
 31
0.0
  0
LINE
  5
D2AB
330
A
100
AcDbEntity
  8
0
  6
Continuous
 62
     7
370
    15
100
AcDbLine
 10
-791.7131960465963
 20
177.0246115463722
 30
0.0
 11
-793.1868333442962
 21
175.2464877915722
 31
0.0
  0
LINE
  5
D2AC
330
A
100
AcDbEntity
  8
0
  6
Continuous
 62
     7
370
    15
100
AcDbLine
 10
-793.1868333442962
 20
175.2464877915722
 30
0.0
 11
-792.3837520255963
 21
173.0812178409722
 31
0.0
  0
LINE
  5
D2AD
330
A
100
AcDbEntity
  8
0
  6
Continuous
 62
     7
370
    15
100
AcDbLine
 10
-792.3837520255963
 20
173.0812178409722
 30
0.0
 11
-790.1070334090963
 21
172.6940714704722
 31
0.0
  0
LINE
  5
D2AE
330
A
100
AcDbEntity
  8
0
  6
Continuous
 62
     7
370
    15
100
AcDbLine
 10
-790.1070334090963
 20
172.6940714704722
 30
0.0
 11
-788.6333942486963
 21
174.4721952252722
 31
0.0
  0
LINE
  5
D2AF
330
A
100
AcDbEntity
  8
0
  6
Continuous
 62
     7
370
    15
100
AcDbLine
 10
-788.6333942486963
 20
174.4721952252722
 30
0.0
 11
-789.4364755673963
 21
176.6374651758722
 31
0.0
  0
CIRCLE
  5
D2B0
330
A
100
AcDbEntity
  8
0
  6
Continuous
 62
     7
370
    15
100
AcDbCircle
 10
-790.9101142807963
 20
174.8593415083722
 30
0.0
 40
6.000000000000016
  0
LINE
  5
D2B1
330
A
100
AcDbEntity
  8
0
  6
Continuous
 62
     7
370
    15
100
AcDbLine
 10
-897.4101107640963
 20
187.8593417766722
 30
0.0
 11
-916.4101120157962
 21
187.8593417766722
 31
0.0
  0
LINE
  5
D2B2
330
A
100
AcDbEntity
  8
0
  6
Continuous
 62
     7
370
    15
100
AcDbLine
 10
-916.4101120157962
 20
187.8593417766722
 30
0.0
 11
-916.4101120157962
 21
188.8593419405722
 31
0.0
  0
LINE
  5
D2B3
330
A
100
AcDbEntity
  8
0
  6
Continuous
 62
     7
370
    15
100
AcDbLine
 10
-897.4101107640963
 20
188.8593419405722
 30
0.0
 11
-916.4101120157962
 21
188.8593419405722
 31
0.0
  0
LINE
  5
D2B4
330
A
100
AcDbEntity
  8
0
  6
Continuous
 62
     7
370
    15
100
AcDbLine
 10
-839.9101134462962
 20
187.8593417766722
 30
0.0
 11
-897.4101107640963
 21
187.8593417766722
 31
0.0
  0
LINE
  5
D2B5
330
A
100
AcDbEntity
  8
0
  6
Continuous
 62
     7
370
    15
100
AcDbLine
 10
-839.9101134462962
 20
188.8593419405722
 30
0.0
 11
-897.4101107640963
 21
188.8593419405722
 31
0.0
  0
LINE
  5
D2B6
330
A
100
AcDbEntity
  8
0
  6
Continuous
 62
     7
370
    15
100
AcDbLine
 10
-837.9101149811963
 20
188.8593419405722
 30
0.0
 11
-837.9101149811963
 21
187.8593417766722
 31
0.0
  0
LINE
  5
D2B7
330
A
100
AcDbEntity
  8
0
  6
Continuous
 62
     7
370
    15
100
AcDbLine
 10
-837.9101149811963
 20
187.8593417766722
 30
0.0
 11
-839.9101134462962
 21
187.8593417766722
 31
0.0
  0
LINE
  5
D2B8
330
A
100
AcDbEntity
  8
0
  6
Continuous
 62
     7
370
    15
100
AcDbLine
 10
-839.9101134462962
 20
188.8593419405722
 30
0.0
 11
-837.9101149811963
 21
188.8593419405722
 31
0.0
  0
LINE
  5
D2B9
330
A
100
AcDbEntity
  8
0
  6
Continuous
 62
     7
370
    15
100
AcDbLine
 10
-835.9101146532962
 20
187.8593417766722
 30
0.0
 11
-837.9101149811963
 21
187.8593417766722
 31
0.0
  0
LINE
  5
D2BA
330
A
100
AcDbEntity
  8
0
  6
Continuous
 62
     7
370
    15
100
AcDbLine
 10
-837.9101149811963
 20
188.8593419405722
 30
0.0
 11
-835.9101146532962
 21
188.8593419405722
 31
0.0
  0
LINE
  5
D2BB
330
A
100
AcDbEntity
  8
0
  6
Continuous
 62
     7
370
    15
100
AcDbLine
 10
-827.9101152046962
 20
187.8593417766722
 30
0.0
 11
-835.9101146532962
 21
187.8593417766722
 31
0.0
  0
LINE
  5
D2BC
330
A
100
AcDbEntity
  8
0
  6
Continuous
 62
     7
370
    15
100
AcDbLine
 10
-827.9101152046962
 20
188.8593419405722
 30
0.0
 11
-835.9101146532962
 21
188.8593419405722
 31
0.0
  0
LINE
  5
D2BD
330
A
100
AcDbEntity
  8
0
  6
Continuous
 62
     7
370
    15
100
AcDbLine
 10
-825.9101139454963
 20
188.8593419405722
 30
0.0
 11
-825.9101139454963
 21
187.8593417766722
 31
0.0
  0
LINE
  5
D2BE
330
A
100
AcDbEntity
  8
0
  6
Continuous
 62
     7
370
    15
100
AcDbLine
 10
-825.9101139454963
 20
187.8593417766722
 30
0.0
 11
-827.9101152046962
 21
187.8593417766722
 31
0.0
  0
LINE
  5
D2BF
330
A
100
AcDbEntity
  8
0
  6
Continuous
 62
     7
370
    15
100
AcDbLine
 10
-827.9101152046962
 20
188.8593419405722
 30
0.0
 11
-825.9101139454963
 21
188.8593419405722
 31
0.0
  0
LINE
  5
D2C0
330
A
100
AcDbEntity
  8
0
  6
Continuous
 62
     7
370
    15
100
AcDbLine
 10
-776.4101151450963
 20
186.8593416127722
 30
0.0
 11
-776.4101151450963
 21
187.8593417766722
 31
0.0
  0
LINE
  5
D2C1
330
A
100
AcDbEntity
  8
0
  6
Continuous
 62
     7
370
    15
100
AcDbLine
 10
-776.4101151450963
 20
187.8593417766722
 30
0.0
 11
-774.4101148171962
 21
187.8593417766722
 31
0.0
  0
LINE
  5
D2C2
330
A
100
AcDbEntity
  8
0
  6
Continuous
 62
     7
370
    15
100
AcDbLine
 10
-716.9101174993963
 20
187.8593417766722
 30
0.0
 11
-774.4101148171962
 21
187.8593417766722
 31
0.0
  0
LINE
  5
D2C3
330
A
100
AcDbEntity
  8
0
  6
Continuous
 62
     7
370
    15
100
AcDbLine
 10
-697.9101162477963
 20
186.8593416127722
 30
0.0
 11
-697.9101162477963
 21
187.8593417766722
 31
0.0
  0
LINE
  5
D2C4
330
A
100
AcDbEntity
  8
0
  6
Continuous
 62
     7
370
    15
100
AcDbLine
 10
-697.9101162477963
 20
187.8593417766722
 30
0.0
 11
-716.9101174993963
 21
187.8593417766722
 31
0.0
  0
LINE
  5
D2C5
330
A
100
AcDbEntity
  8
0
  6
Continuous
 62
     7
370
    15
100
AcDbLine
 10
-778.4101154728962
 20
187.8593417766722
 30
0.0
 11
-776.4101151450963
 21
187.8593417766722
 31
0.0
  0
LINE
  5
D2C6
330
A
100
AcDbEntity
  8
0
  6
Continuous
 62
     7
370
    15
100
AcDbLine
 10
-788.4101133866963
 20
186.8593416127722
 30
0.0
 11
-788.4101133866963
 21
187.8593417766722
 31
0.0
  0
LINE
  5
D2C7
330
A
100
AcDbEntity
  8
0
  6
Continuous
 62
     7
370
    15
100
AcDbLine
 10
-788.4101133866963
 20
187.8593417766722
 30
0.0
 11
-786.4101149214963
 21
187.8593417766722
 31
0.0
  0
LINE
  5
D2C8
330
A
100
AcDbEntity
  8
0
  6
Continuous
 62
     7
370
    15
100
AcDbLine
 10
-778.4101154728962
 20
187.8593417766722
 30
0.0
 11
-786.4101149214963
 21
187.8593417766722
 31
0.0
  0
LINE
  5
D2C9
330
A
100
AcDbEntity
  8
0
  6
Continuous
 62
     7
370
    15
100
AcDbLine
 10
-776.4101151450963
 20
187.8593417766722
 30
0.0
 11
-776.4101151450963
 21
188.8593419405722
 31
0.0
  0
LINE
  5
D2CA
330
A
100
AcDbEntity
  8
0
  6
Continuous
 62
     7
370
    15
100
AcDbLine
 10
-776.4101151450963
 20
188.8593419405722
 30
0.0
 11
-774.4101148171962
 21
188.8593419405722
 31
0.0
  0
LINE
  5
D2CB
330
A
100
AcDbEntity
  8
0
  6
Continuous
 62
     7
370
    15
100
AcDbLine
 10
-716.9101174993963
 20
188.8593419405722
 30
0.0
 11
-774.4101148171962
 21
188.8593419405722
 31
0.0
  0
LINE
  5
D2CC
330
A
100
AcDbEntity
  8
0
  6
Continuous
 62
     7
370
    15
100
AcDbLine
 10
-697.9101162477963
 20
187.8593417766722
 30
0.0
 11
-697.9101162477963
 21
188.8593419405722
 31
0.0
  0
LINE
  5
D2CD
330
A
100
AcDbEntity
  8
0
  6
Continuous
 62
     7
370
    15
100
AcDbLine
 10
-697.9101162477963
 20
188.8593419405722
 30
0.0
 11
-716.9101174993963
 21
188.8593419405722
 31
0.0
  0
LINE
  5
D2CE
330
A
100
AcDbEntity
  8
0
  6
Continuous
 62
     7
370
    15
100
AcDbLine
 10
-778.4101154728962
 20
188.8593419405722
 30
0.0
 11
-776.4101151450963
 21
188.8593419405722
 31
0.0
  0
LINE
  5
D2CF
330
A
100
AcDbEntity
  8
0
  6
Continuous
 62
     7
370
    15
100
AcDbLine
 10
-788.4101133866963
 20
187.8593417766722
 30
0.0
 11
-788.4101133866963
 21
188.8593419405722
 31
0.0
  0
LINE
  5
D2D0
330
A
100
AcDbEntity
  8
0
  6
Continuous
 62
     7
370
    15
100
AcDbLine
 10
-788.4101133866963
 20
188.8593419405722
 30
0.0
 11
-786.4101149214963
 21
188.8593419405722
 31
0.0
  0
LINE
  5
D2D1
330
A
100
AcDbEntity
  8
0
  6
Continuous
 62
     7
370
    15
100
AcDbLine
 10
-778.4101154728962
 20
188.8593419405722
 30
0.0
 11
-786.4101149214963
 21
188.8593419405722
 31
0.0
  0
LINE
  5
D2D2
330
A
100
AcDbEntity
  8
0
  6
Continuous
 62
     7
370
    15
100
AcDbLine
 10
-916.4101120157962
 20
186.8593416127722
 30
0.0
 11
-916.4101120157962
 21
187.8593417766722
 31
0.0
  0
LINE
  5
D2D3
330
A
100
AcDbEntity
  8
0
  6
Continuous
 62
     7
370
    15
100
AcDbLine
 10
-837.9101149811963
 20
187.8593417766722
 30
0.0
 11
-837.9101149811963
 21
186.8593416127722
 31
0.0
  0
LINE
  5
D2D4
330
A
100
AcDbEntity
  8
0
  6
Continuous
 62
     7
370
    15
100
AcDbLine
 10
-825.9101139454963
 20
187.8593417766722
 30
0.0
 11
-825.9101139454963
 21
186.8593416127722
 31
0.0
  0
LINE
  5
D2D5
330
A
100
AcDbEntity
  8
0
  6
Continuous
 62
     7
370
    15
100
AcDbLine
 10
-909.4992589278963
 20
194.8593410613722
 30
0.0
 11
-892.4159716887963
 21
194.8593410613722
 31
0.0
  0
LINE
  5
D2D6
330
A
100
AcDbEntity
  8
0
  6
Continuous
 62
     7
370
    15
100
AcDbLine
 10
-892.4159716887963
 20
194.8593410613722
 30
0.0
 11
-831.9101139976963
 21
194.8593410613722
 31
0.0
  0
LINE
  5
D2D7
330
A
100
AcDbEntity
  8
0
  6
Continuous
 62
     7
370
    15
100
AcDbLine
 10
-829.9101136698963
 20
195.6593415650722
 30
0.0
 11
-829.9101136698963
 21
194.8593410613722
 31
0.0
  0
LINE
  5
D2D8
330
A
100
AcDbEntity
  8
0
  6
Continuous
 62
     7
370
    15
100
AcDbLine
 10
-829.9101136698963
 20
194.8593410613722
 30
0.0
 11
-831.9101139976963
 21
194.8593410613722
 31
0.0
  0
LINE
  5
D2D9
330
A
100
AcDbEntity
  8
0
  6
Continuous
 62
     7
370
    15
100
AcDbLine
 10
-909.9101137443963
 20
194.8593410613722
 30
0.0
 11
-909.9101137443963
 21
195.6593415650722
 31
0.0
  0
LINE
  5
D2DA
330
A
100
AcDbEntity
  8
0
  6
Continuous
 62
     7
370
    15
100
AcDbLine
 10
-909.4992589278963
 20
194.8593410613722
 30
0.0
 11
-909.9101137443963
 21
194.8593410613722
 31
0.0
  0
LINE
  5
D2DB
330
A
100
AcDbEntity
  8
0
  6
Continuous
 62
     7
370
    15
100
AcDbLine
 10
-782.4101142658963
 20
194.8593410613722
 30
0.0
 11
-721.9042565746963
 21
194.8593410613722
 31
0.0
  0
LINE
  5
D2DC
330
A
100
AcDbEntity
  8
0
  6
Continuous
 62
     7
370
    15
100
AcDbLine
 10
-782.4101142658963
 20
194.8593410613722
 30
0.0
 11
-784.4101145936963
 21
194.8593410613722
 31
0.0
  0
LINE
  5
D2DD
330
A
100
AcDbEntity
  8
0
  6
Continuous
 62
     7
370
    15
100
AcDbLine
 10
-784.4101145936963
 20
194.8593410613722
 30
0.0
 11
-784.4101145936963
 21
195.6593415650722
 31
0.0
  0
LINE
  5
D2DE
330
A
100
AcDbEntity
  8
0
  6
Continuous
 62
     7
370
    15
100
AcDbLine
 10
-721.9042565746963
 20
194.8593410613722
 30
0.0
 11
-704.8209693356962
 21
194.8593410613722
 31
0.0
  0
LINE
  5
D2DF
330
A
100
AcDbEntity
  8
0
  6
Continuous
 62
     7
370
    15
100
AcDbLine
 10
-704.4101145191962
 20
195.6593415650722
 30
0.0
 11
-704.4101145191962
 21
194.8593410613722
 31
0.0
  0
LINE
  5
D2E0
330
A
100
AcDbEntity
  8
0
  6
Continuous
 62
     7
370
    15
100
AcDbLine
 10
-704.4101145191962
 20
194.8593410613722
 30
0.0
 11
-704.8209693356962
 21
194.8593410613722
 31
0.0
  0
LINE
  5
D2E1
330
A
100
AcDbEntity
  8
0
  6
Continuous
 62
     7
370
    15
100
AcDbLine
 10
-766.9101145191962
 20
193.8093419137722
 30
0.0
 11
-776.4101151450963
 21
193.8093419137722
 31
0.0
  0
LINE
  5
D2E2
330
A
100
AcDbEntity
  8
0
  6
Continuous
 62
     7
370
    15
100
AcDbLine
 10
-757.4101138933963
 20
193.8093419137722
 30
0.0
 11
-766.9101145191962
 21
193.8093419137722
 31
0.0
  0
LINE
  5
D2E3
330
A
100
AcDbEntity
  8
0
  6
Continuous
 62
     7
370
    15
100
AcDbLine
 10
-839.0874911172963
 20
193.8593408974722
 30
0.0
 11
-856.9101143701963
 21
193.8593408974722
 31
0.0
  0
LINE
  5
D2E4
330
A
100
AcDbEntity
  8
0
  6
Continuous
 62
     7
370
    15
100
AcDbLine
 10
-837.9101149811963
 20
193.8593408974722
 30
0.0
 11
-839.0874911172963
 21
193.8593408974722
 31
0.0
  0
LINE
  5
D2E5
330
A
100
AcDbEntity
  8
0
  6
Continuous
 62
     7
370
    15
100
AcDbLine
 10
-889.3140416665963
 20
193.8593408974722
 30
0.0
 11
-904.9101110620962
 21
193.8593408974722
 31
0.0
  0
LINE
  5
D2E6
330
A
100
AcDbEntity
  8
0
  6
Continuous
 62
     7
370
    15
100
AcDbLine
 10
-885.9101172609962
 20
193.8593408974722
 30
0.0
 11
-889.3140416665963
 21
193.8593408974722
 31
0.0
  0
LINE
  5
D2E7
330
A
100
AcDbEntity
  8
0
  6
Continuous
 62
     7
370
    15
100
AcDbLine
 10
-718.9214687867963
 20
193.8093419137722
 30
0.0
 11
-728.4101110024963
 21
193.8093419137722
 31
0.0
  0
LINE
  5
D2E8
330
A
100
AcDbEntity
  8
0
  6
Continuous
 62
     7
370
    15
100
AcDbLine
 10
-709.4101172013962
 20
193.8093419137722
 30
0.0
 11
-718.9214687867963
 21
193.8093419137722
 31
0.0
  0
LINE
  5
D2E9
330
A
100
AcDbEntity
  8
0
  6
Continuous
 62
     7
370
    15
100
AcDbLine
 10
-766.9101145191962
 20
194.0093415739722
 30
0.0
 11
-774.8101141376962
 21
194.0093415739722
 31
0.0
  0
LINE
  5
D2EA
330
A
100
AcDbEntity
  8
0
  6
Continuous
 62
     7
370
    15
100
AcDbLine
 10
-759.0101149006963
 20
194.0093415739722
 30
0.0
 11
-766.9101145191962
 21
194.0093415739722
 31
0.0
  0
LINE
  5
D2EB
330
A
100
AcDbEntity
  8
0
  6
Continuous
 62
     7
370
    15
100
AcDbLine
 10
-718.9101141019962
 20
194.0093415739722
 30
0.0
 11
-726.8101137204962
 21
194.0093415739722
 31
0.0
  0
LINE
  5
D2EC
330
A
100
AcDbEntity
  8
0
  6
Continuous
 62
     7
370
    15
100
AcDbLine
 10
-711.0101144834963
 20
194.0093415739722
 30
0.0
 11
-718.9101141019962
 21
194.0093415739722
 31
0.0
  0
LINE
  5
D2ED
330
A
100
AcDbEntity
  8
0
  6
Continuous
 62
     7
370
    15
100
AcDbLine
 10
-790.4155414624963
 20
201.6593406858722
 30
0.0
 11
-790.4155414624963
 21
195.6593415650722
 31
0.0
  0
LINE
  5
D2EE
330
A
100
AcDbEntity
  8
0
  6
Continuous
 62
     7
370
    15
100
AcDbLine
 10
-716.9155415220962
 20
201.6593406858722
 30
0.0
 11
-790.4155414624963
 21
201.6593406858722
 31
0.0
  0
LINE
  5
D2EF
330
A
100
AcDbEntity
  8
0
  6
Continuous
 62
     7
370
    15
100
AcDbLine
 10
-716.9155415220962
 20
195.6593415650722
 30
0.0
 11
-790.4155414624963
 21
195.6593415650722
 31
0.0
  0
LINE
  5
D2F0
330
A
100
AcDbEntity
  8
0
  6
Continuous
 62
     7
370
    15
100
AcDbLine
 10
-696.9155382438962
 20
201.6593406858722
 30
0.0
 11
-696.9155382438962
 21
195.6593415650722
 31
0.0
  0
LINE
  5
D2F1
330
A
100
AcDbEntity
  8
0
  6
Continuous
 62
     7
370
    15
100
AcDbLine
 10
-696.9155382438962
 20
195.6593415650722
 30
0.0
 11
-716.9155415220962
 21
195.6593415650722
 31
0.0
  0
LINE
  5
D2F2
330
A
100
AcDbEntity
  8
0
  6
Continuous
 62
     7
370
    15
100
AcDbLine
 10
-716.9155415220962
 20
201.6593406858722
 30
0.0
 11
-696.9155382438962
 21
201.6593406858722
 31
0.0
  0
LINE
  5
D2F3
330
A
100
AcDbEntity
  8
0
  6
Continuous
 62
     7
370
    15
100
AcDbLine
 10
-897.4046867413963
 20
195.6593415650722
 30
0.0
 11
-917.4046900196963
 21
195.6593415650722
 31
0.0
  0
LINE
  5
D2F4
330
A
100
AcDbEntity
  8
0
  6
Continuous
 62
     7
370
    15
100
AcDbLine
 10
-917.4046900196963
 20
195.6593415650722
 30
0.0
 11
-917.4046900196963
 21
201.6593406858722
 31
0.0
  0
LINE
  5
D2F5
330
A
100
AcDbEntity
  8
0
  6
Continuous
 62
     7
370
    15
100
AcDbLine
 10
-917.4046900196963
 20
201.6593406858722
 30
0.0
 11
-897.4046867413963
 21
201.6593406858722
 31
0.0
  0
LINE
  5
D2F6
330
A
100
AcDbEntity
  8
0
  6
Continuous
 62
     7
370
    15
100
AcDbLine
 10
-823.9046877323963
 20
201.6593406858722
 30
0.0
 11
-823.9046877323963
 21
195.6593415650722
 31
0.0
  0
LINE
  5
D2F7
330
A
100
AcDbEntity
  8
0
  6
Continuous
 62
     7
370
    15
100
AcDbLine
 10
-823.9046877323963
 20
195.6593415650722
 30
0.0
 11
-897.4046867413963
 21
195.6593415650722
 31
0.0
  0
LINE
  5
D2F8
330
A
100
AcDbEntity
  8
0
  6
Continuous
 62
     7
370
    15
100
AcDbLine
 10
-823.9046877323963
 20
201.6593406858722
 30
0.0
 11
-897.4046867413963
 21
201.6593406858722
 31
0.0
  0
LINE
  5
D2F9
330
A
100
AcDbEntity
  8
0
  6
Continuous
 62
     7
370
    15
100
AcDbLine
 10
-917.4101140423963
 20
186.8593416127722
 30
0.0
 11
-897.4101107640963
 21
186.8593416127722
 31
0.0
  0
SPLINE
  5
D2FA
330
A
100
AcDbEntity
  8
0
  6
Continuous
 62
     7
370
    15
100
AcDbSpline
210
0.0
220
0.0
230
1.0
 70
     8
 71
     3
 72
     9
 73
     5
 74
     0
 42
0.00000001
 43
0.00000001
 40
0.0
 40
0.0
 40
0.0
 40
0.0
 40
0.7674757556439923
 40
0.9999999999999999
 40
0.9999999999999999
 40
0.9999999999999999
 40
0.9999999999999999
 10
-897.4101107641203
 20
170.9245352956353
 30
0.0
 10
-898.1299996128348
 20
171.0220244462475
 30
0.0
 10
-899.067995169594
 20
171.1490501534378
 30
0.0
 10
-899.9818114382853
 20
170.9778424337064
 30
0.0
 10
-900.1942958756429
 20
170.938032488048
 30
0.0
  0
SPLINE
  5
D2FB
330
A
100
AcDbEntity
  8
0
  6
Continuous
 62
     7
370
    15
100
AcDbSpline
210
0.0
220
0.0
230
1.0
 70
     8
 71
     3
 72
    16
 73
    12
 74
     0
 42
0.00000001
 43
0.00000001
 40
0.0
 40
0.0
 40
0.0
 40
0.0
 40
0.1058017793635645
 40
0.2141618077719971
 40
0.329536220379934
 40
0.4482645821721397
 40
0.5635099889841251
 40
0.682089350352282
 40
0.7974973153536926
 40
0.9162280697546551
 40
1.0
 40
1.0
 40
1.0
 40
1.0
 10
-917.4099873825056
 20
169.9242194133698
 30
0.0
 10
-917.3623185699834
 20
169.8688207530195
 30
0.0
 10
-917.2658283301641
 20
169.7566839125984
 30
0.0
 10
-916.5138927051316
 20
169.6657787579103
 30
0.0
 10
-915.2688184449551
 20
169.6344862156891
 30
0.0
 10
-913.4906550697675
 20
169.6762125882771
 30
0.0
 10
-911.2494364063143
 20
169.7916035349841
 30
0.0
 10
-908.6461130023531
 20
169.9802374794034
 30
0.0
 10
-905.7077304524846
 20
170.2517073723041
 30
0.0
 10
-902.8585793156569
 20
170.5675453477275
 30
0.0
 10
-900.973939458694
 20
170.8296176260195
 30
0.0
 10
-900.1942958756429
 20
170.938032488048
 30
0.0
  0
LINE
  5
D2FC
330
A
100
AcDbEntity
  8
0
  6
Continuous
 62
     7
370
    15
100
AcDbLine
 10
-917.4101140423963
 20
169.9245109173722
 30
0.0
 11
-917.4099873824963
 21
169.9242194133722
 31
0.0
  0
LINE
  5
D2FD
330
A
100
AcDbEntity
  8
0
  6
Continuous
 62
     7
370
    15
100
AcDbLine
 10
-917.4101140423963
 20
169.9245109173722
 30
0.0
 11
-917.4101140423963
 21
186.8593416127722
 31
0.0
  0
LINE
  5
D2FE
330
A
100
AcDbEntity
  8
0
  6
Continuous
 62
     7
370
    15
100
AcDbLine
 10
-836.4101138039963
 20
186.8593416127722
 30
0.0
 11
-836.4101138039963
 21
164.8593417319722
 31
0.0
  0
SPLINE
  5
D2FF
330
A
100
AcDbEntity
  8
0
  6
Continuous
 62
     7
370
    15
100
AcDbSpline
210
0.0
220
0.0
230
1.0
 70
     8
 71
     3
 72
    12
 73
     8
 74
     0
 42
0.00000001
 43
0.00000001
 40
0.0
 40
0.0
 40
0.0
 40
0.0
 40
0.1014880547880107
 40
0.2030095566976617
 40
0.4067497406903752
 40
0.7032946373191057
 40
1.0
 40
1.0
 40
1.0
 40
1.0
 10
-897.4101107641203
 20
170.9245352956353
 30
0.0
 10
-895.3731528997591
 20
170.5253833024451
 30
0.0
 10
-891.2985658567864
 20
169.7269477687087
 30
0.0
 10
-883.0559754884047
 20
168.5928785439545
 30
0.0
 10
-870.8250692570493
 20
167.2293173411339
 30
0.0
 10
-854.5780572293202
 20
165.9116019026377
 30
0.0
 10
-842.4671868871426
 20
165.2101583657858
 30
0.0
 10
-836.4101138039572
 20
164.8593417319356
 30
0.0
  0
LINE
  5
D300
330
A
100
AcDbEntity
  8
0
  6
Continuous
 62
     7
370
    15
100
AcDbLine
 10
-897.4101107640963
 20
186.8593416127722
 30
0.0
 11
-836.4101138039963
 21
186.8593416127722
 31
0.0
  0
LINE
  5
D301
330
A
100
AcDbEntity
  8
0
  6
Continuous
 62
     7
370
    15
100
AcDbLine
 10
-900.1942958755963
 20
162.8593414040722
 30
0.0
 11
-900.1942958755963
 21
170.9380324880722
 31
0.0
  0
LINE
  5
D302
330
A
100
AcDbEntity
  8
0
  6
Continuous
 62
     7
370
    15
100
AcDbLine
 10
-836.4101138039963
 20
162.8593414040722
 30
0.0
 11
-836.4101138039963
 21
164.8593417319722
 31
0.0
  0
LINE
  5
D303
330
A
100
AcDbEntity
  8
0
  6
Continuous
 62
     7
370
    15
100
AcDbLine
 10
-900.1942958755963
 20
162.8593414040722
 30
0.0
 11
-836.4101138039963
 21
162.8593414040722
 31
0.0
  0
LINE
  5
D304
330
A
100
AcDbEntity
  8
0
  6
Continuous
 62
     7
370
    15
100
AcDbLine
 10
-900.1942958755963
 20
162.8593414040722
 30
0.0
 11
-909.4909515305962
 21
162.8593414040722
 31
0.0
  0
LINE
  5
D305
330
A
100
AcDbEntity
  8
0
  6
Continuous
 62
     7
370
    15
100
AcDbLine
 10
-810.9101142807963
 20
186.8593416127722
 30
0.0
 11
-810.9101142807963
 21
185.3593413668722
 31
0.0
  0
LINE
  5
D306
330
A
100
AcDbEntity
  8
0
  6
Continuous
 62
     7
370
    15
100
AcDbLine
 10
-836.4101138039963
 20
186.8593416127722
 30
0.0
 11
-810.9101142807963
 21
186.8593416127722
 31
0.0
  0
LINE
  5
D307
330
A
100
AcDbEntity
  8
0
  6
Continuous
 62
     7
370
    15
100
AcDbLine
 10
-887.5101145430963
 20
194.0593424203722
 30
0.0
 11
-903.3101137800963
 21
194.0593424203722
 31
0.0
  0
LINE
  5
D308
330
A
100
AcDbEntity
  8
0
  6
Continuous
 62
     7
370
    15
100
AcDbLine
 10
-839.5101141257962
 20
194.0593424203722
 30
0.0
 11
-855.3101133628962
 21
194.0593424203722
 31
0.0
  0
LINE
  5
D309
330
A
100
AcDbEntity
  8
0
  6
Continuous
 62
     7
370
    15
100
AcDbLine
 10
-777.9101144595963
 20
186.8593416127722
 30
0.0
 11
-777.9101144595963
 21
164.8593417319722
 31
0.0
  0
SPLINE
  5
D30A
330
A
100
AcDbEntity
  8
0
  6
Continuous
 62
     7
370
    15
100
AcDbSpline
210
0.0
220
0.0
230
1.0
 70
     8
 71
     3
 72
    12
 73
     8
 74
     0
 42
0.00000001
 43
0.00000001
 40
0.0
 40
0.0
 40
0.0
 40
0.0
 40
0.1014880547880107
 40
0.2030095566976617
 40
0.4067497406903752
 40
0.7032946373191057
 40
1.0
 40
1.0
 40
1.0
 40
1.0
 10
-716.910117499445
 20
170.9245352956353
 30
0.0
 10
-718.9470753638061
 20
170.5253833024451
 30
0.0
 10
-723.021662406779
 20
169.7269477687087
 30
0.0
 10
-731.2642527751607
 20
168.5928785439545
 30
0.0
 10
-743.4951590065159
 20
167.2293173411339
 30
0.0
 10
-759.7421710342452
 20
165.9116019026377
 30
0.0
 10
-771.8530413764228
 20
165.2101583657858
 30
0.0
 10
-777.9101144596082
 20
164.8593417319356
 30
0.0
  0
LINE
  5
D30B
330
A
100
AcDbEntity
  8
0
  6
Continuous
 62
     7
370
    15
100
AcDbLine
 10
-777.9101144595963
 20
186.8593416127722
 30
0.0
 11
-716.9101174993963
 21
186.8593416127722
 31
0.0
  0
LINE
  5
D30C
330
A
100
AcDbEntity
  8
0
  6
Continuous
 62
     7
370
    15
100
AcDbLine
 10
-716.1191191597964
 20
162.8593414040722
 30
0.0
 11
-777.9101144595963
 21
162.8593414040722
 31
0.0
  0
LINE
  5
D30D
330
A
100
AcDbEntity
  8
0
  6
Continuous
 62
     7
370
    15
100
AcDbLine
 10
-716.9101174993963
 20
170.9245352956722
 30
0.0
 11
-714.9221088810963
 21
171.0572462013722
 31
0.0
  0
ARC
  5
D30E
330
A
100
AcDbEntity
  8
0
  6
Continuous
 62
     7
370
    15
100
AcDbCircle
 10
-742.3810317906963
 20
170.8802954551722
 30
0.0
 40
27.45949305658267
100
AcDbArc
 50
343.0161993117998
 51
0.3692202579999804
  0
SPLINE
  5
D30F
330
A
100
AcDbEntity
  8
0
  6
Continuous
 62
     7
370
    15
100
AcDbSpline
210
0.0
220
0.0
230
1.0
 70
    24
 71
     3
 72
     9
 73
     5
 74
     0
 42
0.00000001
 43
0.00000001
 40
0.0
 40
0.0
 40
0.0
 40
0.0
 40
0.4918708131196827
 40
1.0
 40
1.0
 40
1.0
 40
1.0
 10
-777.9101144596082
 20
164.8593417319356
 30
0.0
 10
-777.9101144596082
 20
164.4423085651068
 30
0.0
 10
-777.9101144596082
 20
163.5944575527977
 30
0.0
 10
-777.9101144596082
 20
163.1070217581174
 30
0.0
 10
-777.9101144596082
 20
162.8593414041101
 30
0.0
  0
LINE
  5
D310
330
A
100
AcDbEntity
  8
0
  6
Continuous
 62
     7
370
    15
100
AcDbLine
 10
-696.9101142211963
 20
186.8593416127722
 30
0.0
 11
-696.9101142211963
 21
169.9245109173722
 31
0.0
  0
LINE
  5
D311
330
A
100
AcDbEntity
  8
0
  6
Continuous
 62
     7
370
    15
100
AcDbLine
 10
-696.9317879600962
 20
169.8742455753722
 30
0.0
 11
-696.9101142211963
 21
169.9245109173722
 31
0.0
  0
SPLINE
  5
D312
330
A
100
AcDbEntity
  8
0
  6
Continuous
 62
     7
370
    15
100
AcDbSpline
210
0.0
220
0.0
230
1.0
 70
     8
 71
     3
 72
    16
 73
    12
 74
     0
 42
0.00000001
 43
0.00000001
 40
0.0
 40
0.0
 40
0.0
 40
0.0
 40
0.1068843152987932
 40
0.2163643878543018
 40
0.3326551014754726
 40
0.4523438191171192
 40
0.5681818891295818
 40
0.6873987841623626
 40
0.8029063247111702
 40
0.9217661714257113
 40
1.0
 40
1.0
 40
1.0
 40
1.0
 10
-714.9221088810903
 20
171.057246201381
 30
0.0
 10
-713.9241370672089
 20
170.9128175734309
 30
0.0
 10
-711.9039570248646
 20
170.62045277147
 30
0.0
 10
-708.9160099494665
 20
170.283768442745
 30
0.0
 10
-706.0110217608855
 20
170.0080829718483
 30
0.0
 10
-703.3526991879844
 20
169.8094691592686
 30
0.0
 10
-701.054669474154
 20
169.685180379573
 30
0.0
 10
-699.2223370531694
 20
169.6355337704779
 30
0.0
 10
-697.8816376966308
 20
169.6596963703497
 30
0.0
 10
-697.1401667997119
 20
169.7419692130106
 30
0.0
 10
-696.990998442878
 20
169.8366594783827
 30
0.0
 10
-696.931787960146
 20
169.8742455753385
 30
0.0
  0
LINE
  5
D313
330
A
100
AcDbEntity
  8
0
  6
Continuous
 62
     7
370
    15
100
AcDbLine
 10
-716.9101174993963
 20
186.8593416127722
 30
0.0
 11
-696.9101142211963
 21
186.8593416127722
 31
0.0
  0
LINE
  5
D314
330
A
100
AcDbEntity
  8
0
  6
Continuous
 62
     7
370
    15
100
AcDbLine
 10
-704.8744123502963
 20
162.8593414040722
 30
0.0
 11
-716.1191191597964
 21
162.8593414040722
 31
0.0
  0
ARC
  5
D315
330
A
100
AcDbEntity
  8
0
  6
Continuous
 62
     7
370
    15
100
AcDbCircle
 10
-708.3819789090962
 20
174.8347530443722
 30
0.0
 40
12.47852183223459
100
AcDbArc
 50
286.3251689229999
 51
336.5765394989999
  0
ARC
  5
D316
330
A
100
AcDbEntity
  8
0
  6
Continuous
 62
     7
370
    15
100
AcDbCircle
 10
-790.9101142807963
 20
174.8593415083722
 30
0.0
 40
10.75000000000001
100
AcDbArc
 50
332.9388065083
 51
38.16023035159999
  0
ARC
  5
D317
330
A
100
AcDbEntity
  8
0
  6
Continuous
 62
     7
370
    15
100
AcDbCircle
 10
-790.9101142807963
 20
174.8593415083722
 30
0.0
 40
10.75000000000002
100
AcDbArc
 50
51.83976964839992
 51
100.7699928919999
  0
ARC
  5
D318
330
A
100
AcDbEntity
  8
0
  6
Continuous
 62
     7
370
    15
100
AcDbCircle
 10
-782.8101142807963
 20
182.9593415083722
 30
0.0
 40
1.499999999999983
100
AcDbArc
 50
283.5945285418969
 51
166.405471458101
  0
LINE
  5
D319
330
A
100
AcDbEntity
  8
0
  6
Continuous
 62
     7
370
    15
100
AcDbLine
 10
-803.4101144483963
 20
185.6593417885722
 30
0.0
 11
-803.4101144483963
 21
185.3593413668722
 31
0.0
  0
LINE
  5
D31A
330
A
100
AcDbEntity
  8
0
  6
Continuous
 62
     7
370
    15
100
AcDbLine
 10
-790.4101137145963
 20
185.6593417885722
 30
0.0
 11
-803.4101144483963
 21
185.6593417885722
 31
0.0
  0
LINE
  5
D31B
330
A
100
AcDbEntity
  8
0
  6
Continuous
 62
     7
370
    15
100
AcDbLine
 10
-790.4101137145963
 20
186.8593416127722
 30
0.0
 11
-790.4101137145963
 21
185.6593417885722
 31
0.0
  0
LINE
  5
D31C
330
A
100
AcDbEntity
  8
0
  6
Continuous
 62
     7
370
    15
100
AcDbLine
 10
-790.9101147277963
 20
162.8593414040722
 30
0.0
 11
-777.9101144595963
 21
162.8593414040722
 31
0.0
  0
LINE
  5
D31D
330
A
100
AcDbEntity
  8
0
  6
Continuous
 62
     7
370
    15
100
AcDbLine
 10
-790.4101137145963
 20
186.8593416127722
 30
0.0
 11
-777.9101144595963
 21
186.8593416127722
 31
0.0
  0
ARC
  5
D31E
330
A
100
AcDbEntity
  8
0
  6
Continuous
 62
     7
370
    15
100
AcDbCircle
 10
-790.9101142807963
 20
174.8593415083722
 30
0.0
 40
10.50000000000001
100
AcDbArc
 50
51.04523484459994
 51
90.00000000040012
  0
ARC
  5
D31F
330
A
100
AcDbEntity
  8
0
  6
Continuous
 62
     7
370
    15
100
AcDbCircle
 10
-790.9101142807963
 20
174.8593415083722
 30
0.0
 40
10.50000000000002
100
AcDbArc
 50
340.1666380911
 51
38.95476515540027
  0
LINE
  5
D320
330
A
100
AcDbEntity
  8
0
  6
Continuous
 62
     7
370
    15
100
AcDbLine
 10
-782.7448669894962
 20
181.4607612738722
 30
0.0
 11
-782.4575409366962
 21
181.5013664724722
 31
0.0
  0
LINE
  5
D321
330
A
100
AcDbEntity
  8
0
  6
Continuous
 62
     7
370
    15
100
AcDbLine
 10
-784.2680897636963
 20
183.3119152995722
 30
0.0
 11
-784.3086954279963
 21
183.0245883154722
 31
0.0
  0
LINE
  5
D322
330
A
100
AcDbEntity
  8
0
  6
Continuous
 62
     7
370
    15
100
AcDbLine
 10
-704.8292767329963
 20
162.8593414040722
 30
0.0
 11
-704.8744123502963
 21
162.8593414040722
 31
0.0
  0
ARC
  5
D323
330
A
100
AcDbEntity
  8
0
  6
Continuous
 62
     7
370
    15
100
AcDbCircle
 10
-790.9101142807963
 20
208.3593415083722
 30
0.0
 40
25.00000000000001
100
AcDbArc
 50
246.9260819343999
 51
270.0
  0
SPLINE
  5
D324
330
A
100
AcDbEntity
  8
0
  6
Continuous
 62
     7
370
    15
100
AcDbSpline
210
0.0
220
0.0
230
1.0
 70
    24
 71
     3
 72
    18
 73
    14
 74
     0
 42
0.00000001
 43
0.00000001
 40
0.0
 40
0.0
 40
0.0
 40
0.0
 40
0.2499999999999996
 40
0.2499999999999996
 40
0.4999999999999991
 40
0.4999999999999991
 40
0.6249999999999993
 40
0.6249999999999993
 40
0.7499999999999996
 40
0.7499999999999996
 40
0.8749999999999998
 40
0.8749999999999998
 40
1.0
 40
1.0
 40
1.0
 40
1.0
 10
-800.708073251927
 20
185.3593415084182
 30
0.0
 10
-799.9225039579974
 20
185.3593415084182
 30
0.0
 10
-799.1412610839142
 20
185.3593415084182
 30
0.0
 10
-797.5764971269323
 20
185.3593415084182
 30
0.0
 10
-796.7933666201495
 20
185.3593415084182
 30
0.0
 10
-795.601097775577
 20
185.3593415084182
 30
0.0
 10
-795.2006378968345
 20
185.3593415084182
 30
0.0
 10
-794.3883172079163
 20
185.3593415084182
 30
0.0
 10
-793.9765139162074
 20
185.3593415084182
 30
0.0
 10
-793.1328632888409
 20
185.3593415084182
 30
0.0
 10
-792.6988788218121
 20
185.3593415084182
 30
0.0
 10
-791.8064494341497
 20
185.3593415084182
 30
0.0
 10
-791.3589967319288
 20
185.3593415084182
 30
0.0
 10
-790.9101142807942
 20
185.3593415084182
 30
0.0
  0
CIRCLE
  5
D325
330
A
100
AcDbEntity
  8
0
  6
Continuous
 62
     7
370
    15
100
AcDbCircle
 10
-790.9101142807963
 20
174.8593415083722
 30
0.0
 40
6.200000000000003
  0
CIRCLE
  5
D326
330
A
100
AcDbEntity
  8
0
  6
Continuous
 62
     7
370
    15
100
AcDbCircle
 10
-825.9101142807963
 20
174.8593415083722
 30
0.0
 40
6.200000000000003
  0
ARC
  5
D327
330
A
100
AcDbEntity
  8
0
  6
Continuous
 62
     7
370
    15
100
AcDbCircle
 10
-790.9101142807963
 20
175.3593415083722
 30
0.0
 40
8.000000000000057
100
AcDbArc
 50
0.0
 51
90.0
  0
LINE
  5
D328
330
A
100
AcDbEntity
  8
0
  6
Continuous
 62
     7
370
    15
100
AcDbLine
 10
-782.9101134164963
 20
175.3593415321722
 30
0.0
 11
-782.9101134164963
 21
172.8593414134722
 31
0.0
  0
ARC
  5
D329
330
A
100
AcDbEntity
  8
0
  6
Continuous
 62
     7
370
    15
100
AcDbCircle
 10
-790.9101142807963
 20
172.8593415083722
 30
0.0
 40
8.000000000000057
100
AcDbArc
 50
270.0
 51
0.0
  0
LINE
  5
D32A
330
A
100
AcDbEntity
  8
0
  6
Continuous
 62
     7
370
    15
100
AcDbLine
 10
-836.4101138039963
 20
164.8593417319722
 30
0.0
 11
-790.9101147277963
 21
164.8593417319722
 31
0.0
  0
LINE
  5
D32B
330
A
100
AcDbEntity
  8
0
  6
Continuous
 62
     7
370
    15
100
AcDbLine
 10
-836.4101138039963
 20
164.8593417319722
 30
0.0
 11
-836.4101138039963
 21
185.3593413668722
 31
0.0
  0
LINE
  5
D32C
330
A
100
AcDbEntity
  8
0
  6
Continuous
 62
     7
370
    15
100
AcDbLine
 10
-836.4101138039963
 20
185.3593413668722
 30
0.0
 11
-800.7080733849963
 21
185.3593413668722
 31
0.0
  0
LINE
  5
D32D
330
A
100
AcDbEntity
  8
0
  6
Continuous
 62
     7
370
    15
100
AcDbLine
 10
-836.4101138039963
 20
162.8593414040722
 30
0.0
 11
-790.9101147277963
 21
162.8593414040722
 31
0.0
  0
ARC
  5
D32E
330
A
100
AcDbEntity
  8
0
  6
Continuous
 62
     7
370
    15
100
AcDbCircle
 10
-790.9101142807963
 20
175.3593415083722
 30
0.0
 40
10.0
100
AcDbArc
 50
0.0
 51
90.0
  0
ARC
  5
D32F
330
A
100
AcDbEntity
  8
0
  6
Continuous
 62
     7
370
    15
100
AcDbCircle
 10
-790.9101142807963
 20
172.8593415083722
 30
0.0
 40
10.00000000000006
100
AcDbArc
 50
270.0
 51
0.0
  0
LINE
  5
D330
330
A
100
AcDbEntity
  8
0
  6
Continuous
 62
     7
370
    15
100
AcDbLine
 10
-780.9101149513963
 20
175.3593415321722
 30
0.0
 11
-780.9101149513963
 21
172.8593414134722
 31
0.0
  0
LINE
  5
D331
330
A
100
AcDbEntity
  8
0
  6
Continuous
 62
     8
370
     0
100
AcDbLine
 10
-897.4101107640963
 20
187.8593417766722
 30
0.0
 11
-897.4101107640963
 21
188.8593419405722
 31
0.0
  0
LINE
  5
D332
330
A
100
AcDbEntity
  8
0
  6
Continuous
 62
     8
370
     0
100
AcDbLine
 10
-839.9101134462962
 20
187.8593417766722
 30
0.0
 11
-839.9101134462962
 21
188.8593419405722
 31
0.0
  0
LINE
  5
D333
330
A
100
AcDbEntity
  8
0
  6
Continuous
 62
     8
370
     0
100
AcDbLine
 10
-835.9101146532962
 20
188.8593419405722
 30
0.0
 11
-835.9101146532962
 21
187.8593417766722
 31
0.0
  0
LINE
  5
D334
330
A
100
AcDbEntity
  8
0
  6
Continuous
 62
     8
370
     0
100
AcDbLine
 10
-827.9101152046962
 20
187.8593417766722
 30
0.0
 11
-827.9101152046962
 21
188.8593419405722
 31
0.0
  0
LINE
  5
D335
330
A
100
AcDbEntity
  8
0
  6
Continuous
 62
     8
370
     0
100
AcDbLine
 10
-774.4101148171962
 20
187.8593417766722
 30
0.0
 11
-774.4101148171962
 21
186.8593416127722
 31
0.0
  0
LINE
  5
D336
330
A
100
AcDbEntity
  8
0
  6
Continuous
 62
     8
370
     0
100
AcDbLine
 10
-716.9101174993963
 20
186.8593416127722
 30
0.0
 11
-716.9101174993963
 21
187.8593417766722
 31
0.0
  0
LINE
  5
D337
330
A
100
AcDbEntity
  8
0
  6
Continuous
 62
     8
370
     0
100
AcDbLine
 10
-778.4101154728962
 20
186.8593416127722
 30
0.0
 11
-778.4101154728962
 21
187.8593417766722
 31
0.0
  0
LINE
  5
D338
330
A
100
AcDbEntity
  8
0
  6
Continuous
 62
     8
370
     0
100
AcDbLine
 10
-786.4101149214963
 20
187.8593417766722
 30
0.0
 11
-786.4101149214963
 21
186.8593416127722
 31
0.0
  0
LINE
  5
D339
330
A
100
AcDbEntity
  8
0
  6
Continuous
 62
     8
370
     0
100
AcDbLine
 10
-774.4101148171962
 20
188.8593419405722
 30
0.0
 11
-774.4101148171962
 21
187.8593417766722
 31
0.0
  0
LINE
  5
D33A
330
A
100
AcDbEntity
  8
0
  6
Continuous
 62
     8
370
     0
100
AcDbLine
 10
-716.9101174993963
 20
187.8593417766722
 30
0.0
 11
-716.9101174993963
 21
188.8593419405722
 31
0.0
  0
LINE
  5
D33B
330
A
100
AcDbEntity
  8
0
  6
Continuous
 62
     8
370
     0
100
AcDbLine
 10
-778.4101154728962
 20
187.8593417766722
 30
0.0
 11
-778.4101154728962
 21
188.8593419405722
 31
0.0
  0
LINE
  5
D33C
330
A
100
AcDbEntity
  8
0
  6
Continuous
 62
     8
370
     0
100
AcDbLine
 10
-786.4101149214963
 20
188.8593419405722
 30
0.0
 11
-786.4101149214963
 21
187.8593417766722
 31
0.0
  0
LINE
  5
D33D
330
A
100
AcDbEntity
  8
0
  6
Continuous
 62
     8
370
     0
100
AcDbLine
 10
-897.4101107640963
 20
186.8593416127722
 30
0.0
 11
-897.4101107640963
 21
187.8593417766722
 31
0.0
  0
LINE
  5
D33E
330
A
100
AcDbEntity
  8
0
  6
Continuous
 62
     8
370
     0
100
AcDbLine
 10
-839.9101134462962
 20
186.8593416127722
 30
0.0
 11
-839.9101134462962
 21
187.8593417766722
 31
0.0
  0
LINE
  5
D33F
330
A
100
AcDbEntity
  8
0
  6
Continuous
 62
     8
370
     0
100
AcDbLine
 10
-835.9101146532962
 20
187.8593417766722
 30
0.0
 11
-835.9101146532962
 21
186.8593416127722
 31
0.0
  0
LINE
  5
D340
330
A
100
AcDbEntity
  8
0
  6
Continuous
 62
     8
370
     0
100
AcDbLine
 10
-827.9101152046962
 20
186.8593416127722
 30
0.0
 11
-827.9101152046962
 21
187.8593417766722
 31
0.0
  0
LINE
  5
D341
330
A
100
AcDbEntity
  8
0
  6
Continuous
 62
     8
370
     0
100
AcDbLine
 10
-892.4159716887963
 20
195.6593415650722
 30
0.0
 11
-892.4159716887963
 21
194.8593410613722
 31
0.0
  0
LINE
  5
D342
330
A
100
AcDbEntity
  8
0
  6
Continuous
 62
     8
370
     0
100
AcDbLine
 10
-909.4992589278963
 20
195.6593415650722
 30
0.0
 11
-909.4992589278963
 21
194.8593410613722
 31
0.0
  0
LINE
  5
D343
330
A
100
AcDbEntity
  8
0
  6
Continuous
 62
     8
370
     0
100
AcDbLine
 10
-831.9101139976963
 20
194.8593410613722
 30
0.0
 11
-831.9101139976963
 21
195.6593415650722
 31
0.0
  0
LINE
  5
D344
330
A
100
AcDbEntity
  8
0
  6
Continuous
 62
     8
370
     0
100
AcDbLine
 10
-721.9042565746963
 20
195.6593415650722
 30
0.0
 11
-721.9042565746963
 21
194.8593410613722
 31
0.0
  0
LINE
  5
D345
330
A
100
AcDbEntity
  8
0
  6
Continuous
 62
     8
370
     0
100
AcDbLine
 10
-782.4101142658963
 20
195.6593415650722
 30
0.0
 11
-782.4101142658963
 21
194.8593410613722
 31
0.0
  0
LINE
  5
D346
330
A
100
AcDbEntity
  8
0
  6
Continuous
 62
     8
370
     0
100
AcDbLine
 10
-704.8209693356962
 20
194.8593410613722
 30
0.0
 11
-704.8209693356962
 21
195.6593415650722
 31
0.0
  0
LINE
  5
D347
330
A
100
AcDbEntity
  8
0
  6
Continuous
 62
     8
370
     0
100
AcDbLine
 10
-716.9155415220962
 20
195.6593415650722
 30
0.0
 11
-716.9155415220962
 21
201.6593406858722
 31
0.0
  0
LINE
  5
D348
330
A
100
AcDbEntity
  8
0
  6
Continuous
 62
     8
370
     0
100
AcDbLine
 10
-897.4046867413963
 20
201.6593406858722
 30
0.0
 11
-897.4046867413963
 21
195.6593415650722
 31
0.0
  0
LINE
  5
D349
330
A
100
AcDbEntity
  8
0
  6
Continuous
 62
     8
370
     0
100
AcDbLine
 10
-897.4101107640963
 20
186.8593416127722
 30
0.0
 11
-897.4101107640963
 21
170.9245352956722
 31
0.0
  0
LINE
  5
D34A
330
A
100
AcDbEntity
  8
0
  6
Continuous
 62
     8
370
     0
100
AcDbLine
 10
-716.9101174993963
 20
170.9245352956722
 30
0.0
 11
-716.9101174993963
 21
186.8593416127722
 31
0.0
  0
LINE
  5
D34B
330
A
100
AcDbEntity
  8
0
  6
Continuous
 62
     8
370
     0
100
AcDbLine
 10
-790.9101147277963
 20
185.3593413668722
 30
0.0
 11
-790.9101147277963
 21
183.3593419703722
 31
0.0
  0
LINE
  5
D34C
330
A
100
AcDbEntity
  8
0
  6
Continuous
 62
     8
370
     0
100
AcDbLine
 10
-790.9101147277963
 20
162.8593414040722
 30
0.0
 11
-790.9101147277963
 21
164.8593417319722
 31
0.0
  0
LINE
  5
D34D
330
A
100
AcDbEntity
  8
0
  6
Continuous
 62
     8
370
     0
100
AcDbLine
 10
-780.9101149513963
 20
175.3593415321722
 30
0.0
 11
-782.9101134164963
 21
175.3593415321722
 31
0.0
  0
LINE
  5
D34E
330
A
100
AcDbEntity
  8
0
  6
Continuous
 62
     8
370
     0
100
AcDbLine
 10
-780.9101149513963
 20
172.8593414134722
 30
0.0
 11
-782.9101134164963
 21
172.8593414134722
 31
0.0
  0
INSERT
  5
D34F
330
A
100
AcDbEntity
  8
0
  6
Continuous
 62
     7
370
     0
100
AcDbBlockReference
  2
SW_CENTERMARKSYMBOL_6
 10
-825.9101142807963
 20
174.8593415083722
 30
0.0
  0
INSERT
  5
D350
330
A
100
AcDbEntity
  8
0
  6
Continuous
 62
     7
370
     0
100
AcDbBlockReference
  2
SW_CENTERMARKSYMBOL_7
 10
-790.9101142807963
 20
174.8593415083722
 30
0.0
  0
LINE
  5
D351
330
A
100
AcDbEntity
  8
0
  6
Continuous
 62
     7
370
    15
100
AcDbLine
 10
-564.9155902273963
 20
202.8560011355722
 30
0.0
 11
-564.9155902273963
 21
202.5961939557722
 31
0.0
  0
LINE
  5
D352
330
A
100
AcDbEntity
  8
0
  6
Continuous
 62
     7
370
    15
100
AcDbLine
 10
-552.9155896852963
 20
202.5961938293722
 30
0.0
 11
-552.9155896852963
 21
202.8560010091722
 31
0.0
  0
LINE
  5
D353
330
A
100
AcDbEntity
  8
0
  6
Continuous
 62
     7
370
    15
100
AcDbLine
 10
-534.6047009658962
 20
194.1060010982722
 30
0.0
 11
-534.6047009658962
 21
193.8461939184722
 31
0.0
  0
LINE
  5
D354
330
A
100
AcDbEntity
  8
0
  6
Continuous
 62
     7
370
    15
100
AcDbLine
 10
-522.6047012303964
 20
193.8461940249722
 30
0.0
 11
-522.6047012303964
 21
194.1060012047722
 31
0.0
  0
LINE
  5
D355
330
A
100
AcDbEntity
  8
0
  6
Continuous
 62
     7
370
    15
100
AcDbLine
 10
-541.4600096091963
 20
179.6801986709722
 30
0.0
 11
-541.3547005214963
 21
179.6497985558722
 31
0.0
  0
LINE
  5
D356
330
A
100
AcDbEntity
  8
0
  6
Continuous
 62
     7
370
    15
100
AcDbLine
 10
-541.4600096091963
 20
165.8237919555722
 30
0.0
 11
-541.3547005214963
 21
165.7933918404722
 31
0.0
  0
LINE
  5
D357
330
A
100
AcDbEntity
  8
0
  6
Continuous
 62
     7
370
    15
100
AcDbLine
 10
-543.7136129537962
 20
165.2153986066722
 30
0.0
 11
-544.3913431809963
 21
165.4110424712722
 31
0.0
  0
LINE
  5
D358
330
A
100
AcDbEntity
  8
0
  6
Continuous
 62
     7
370
    15
100
AcDbLine
 10
-545.5007439450962
 20
161.5679662990722
 30
0.0
 11
-544.8230137178963
 21
161.3723224344722
 31
0.0
  0
LINE
  5
D359
330
A
100
AcDbEntity
  8
0
  6
Continuous
 62
     7
370
    15
100
AcDbLine
 10
-543.7136129537962
 20
182.5359071017722
 30
0.0
 11
-544.3913431809963
 21
182.7315509663722
 31
0.0
  0
LINE
  5
D35A
330
A
100
AcDbEntity
  8
0
  6
Continuous
 62
     7
370
    15
100
AcDbLine
 10
-545.5007439450962
 20
178.8884747941722
 30
0.0
 11
-544.8230137178963
 21
178.6928309295722
 31
0.0
  0
LINE
  5
D35B
330
A
100
AcDbEntity
  8
0
  6
Continuous
 62
     7
370
    15
100
AcDbLine
 10
-512.0527930145963
 20
198.1693972146722
 30
0.0
 11
-512.5527930965964
 21
197.7363844418722
 31
0.0
  0
LINE
  5
D35C
330
A
100
AcDbEntity
  8
0
  6
Continuous
 62
     7
370
    15
100
AcDbLine
 10
-441.0304495386963
 20
143.8610922043722
 30
0.0
 11
-438.0304499782964
 21
146.4591680350722
 31
0.0
  0
LINE
  5
D35D
330
A
100
AcDbEntity
  8
0
  6
Continuous
 62
     7
370
    15
100
AcDbLine
 10
-620.5247776310963
 20
230.4788656168722
 30
0.0
 11
-623.5247771914962
 21
227.8807897861722
 31
0.0
  0
LINE
  5
D35E
330
A
100
AcDbEntity
  8
0
  6
Continuous
 62
     7
370
    15
100
AcDbLine
 10
-625.9557474417963
 20
176.6315627967722
 30
0.0
 11
-604.2162319368963
 21
168.8004464332722
 31
0.0
  0
SPLINE
  5
D35F
330
A
100
AcDbEntity
  8
0
  6
Continuous
 62
     7
370
    15
100
AcDbSpline
210
0.0
220
0.0
230
1.0
 70
     8
 71
     3
 72
     9
 73
     5
 74
     0
 42
0.00000001
 43
0.00000001
 40
0.0
 40
0.0
 40
0.0
 40
0.0
 40
0.0283363955559243
 40
1.0
 40
1.0
 40
1.0
 40
1.0
 10
-640.4261254940106
 20
209.5338701289739
 30
0.0
 10
-640.4354711115759
 20
209.5005069511395
 30
0.0
 10
-640.7652807920931
 20
208.3231102787726
 30
0.0
 10
-640.7377906235151
 20
207.0453974501862
 30
0.0
 10
-640.711079427228
 20
205.8038903977176
 30
0.0
  0
LINE
  5
D360
330
A
100
AcDbEntity
  8
0
  6
Continuous
 62
     7
370
    15
100
AcDbLine
 10
-627.9294809614962
 20
224.0716358984722
 30
0.0
 11
-636.4907980718963
 21
216.6573177909722
 31
0.0
  0
LINE
  5
D361
330
A
100
AcDbEntity
  8
0
  6
Continuous
 62
     7
370
    15
100
AcDbLine
 10
-640.7123724097962
 20
205.8942621518722
 30
0.0
 11
-640.7123724097962
 21
196.3681731074722
 31
0.0
  0
SPLINE
  5
D362
330
A
100
AcDbEntity
  8
0
  6
Continuous
 62
     7
370
    15
100
AcDbSpline
210
0.0
220
0.0
230
1.0
 70
     8
 71
     3
 72
    17
 73
    13
 74
     0
 42
0.00000001
 43
0.00000001
 40
0.0
 40
0.0
 40
0.0
 40
0.0
 40
0.0907368010996069
 40
0.174100785144115
 40
0.3193067228095184
 40
0.4375403244680287
 40
0.5303423173346363
 40
0.6130948880804213
 40
0.7173424987738403
 40
0.8001591641892778
 40
0.8941985031461833
 40
1.0
 40
1.0
 40
1.0
 40
1.0
 10
-640.7114965078158
 20
196.294569732158
 30
0.0
 10
-640.6649380779704
 20
195.5300337758326
 30
0.0
 10
-640.5756043226152
 20
194.0630842178352
 30
0.0
 10
-640.0147239975161
 20
191.3613046746973
 30
0.0
 10
-638.9964091679096
 20
188.4814385285304
 30
0.0
 10
-637.4769464709948
 20
185.7137674712095
 30
0.0
 10
-635.9513194210922
 20
183.60848255424
 30
0.0
 10
-634.2973873525002
 20
181.7677442562639
 30
0.0
 10
-632.5132039634468
 20
180.1760691266861
 30
0.0
 10
-630.488317918642
 20
178.7463892208368
 30
0.0
 10
-628.3265016392079
 20
177.5196010544503
 30
0.0
 10
-626.713500882764
 20
176.9186689994107
 30
0.0
 10
-625.8595318039929
 20
176.60051825373
 30
0.0
  0
SPLINE
  5
D363
330
A
100
AcDbEntity
  8
0
  6
Continuous
 62
     7
370
    15
100
AcDbSpline
210
0.0
220
0.0
230
1.0
 70
     8
 71
     3
 72
     9
 73
     5
 74
     0
 42
0.00000001
 43
0.00000001
 40
0.0
 40
0.0
 40
0.0
 40
0.0
 40
0.6745550432597469
 40
1.0
 40
1.0
 40
1.0
 40
1.0
 10
-465.3488860687236
 20
130.3397700107623
 30
0.0
 10
-464.0787691014939
 20
130.1434870212201
 30
0.0
 10
-462.1958731393025
 20
129.8525055935315
 30
0.0
 10
-460.3867759745773
 20
130.1371641477914
 30
0.0
 10
-459.7980144260644
 20
130.2298048386682
 30
0.0
  0
LINE
  5
D364
330
A
100
AcDbEntity
  8
0
  6
Continuous
 62
     7
370
    15
100
AcDbLine
 10
-453.9870628314964
 20
132.6349044725722
 30
0.0
 11
-445.4257457210963
 21
140.0492225800722
 31
0.0
  0
LINE
  5
D365
330
A
100
AcDbEntity
  8
0
  6
Continuous
 62
     7
370
    15
100
AcDbLine
 10
-483.4396858778963
 20
134.2665523621722
 30
0.0
 11
-465.4144253440963
 21
130.3528119783722
 31
0.0
  0
LINE
  5
D366
330
A
100
AcDbEntity
  8
0
  6
Continuous
 62
     7
370
    15
100
AcDbLine
 10
-541.3547010173963
 20
183.1507801673722
 30
0.0
 11
-541.3547010173963
 21
159.5948896786722
 31
0.0
  0
SPLINE
  5
D367
330
A
100
AcDbEntity
  8
0
  6
Continuous
 62
     7
370
    15
100
AcDbSpline
210
0.0
220
0.0
230
1.0
 70
     8
 71
     3
 72
    11
 73
     7
 74
     0
 42
0.00000001
 43
0.00000001
 40
0.0
 40
0.0
 40
0.0
 40
0.0
 40
0.3078210769211686
 40
0.6223924677570184
 40
0.9258798092818142
 40
1.0
 40
1.0
 40
1.0
 40
1.0
 10
-518.5075036975982
 20
192.0563057470973
 30
0.0
 10
-518.6988559982101
 20
192.5602268570363
 30
0.0
 10
-519.0857568296285
 20
193.5791197356749
 30
0.0
 10
-519.9367964441865
 20
194.9588936930494
 30
0.0
 10
-520.6626515284556
 20
195.9340845254129
 30
0.0
 10
-521.14389741936
 20
196.3828530484227
 30
0.0
 10
-521.2383606759702
 20
196.4709413561856
 30
0.0
  0
LINE
  5
D368
330
A
100
AcDbEntity
  8
0
  6
Continuous
 62
     7
370
    15
100
AcDbLine
 10
-518.3547002797964
 20
190.3291718029722
 30
0.0
 11
-518.3547002797964
 21
191.2048162522722
 31
0.0
  0
LWPOLYLINE
  5
D369
330
A
100
AcDbEntity
  8
0
  6
Continuous
 62
     7
370
    15
100
AcDbPolyline
 90
        6
 70
   128
 43
0.0
 10
-563.1475729401963
 20
204.9826366747722
 10
-564.0143709533963
 20
204.4373316536722
 10
-564.6062930121963
 20
203.8067768734722
 10
-564.8914279206963
 20
203.1249654481722
 10
-564.8544027717962
 20
202.4286539580722
 10
-564.7464711217963
 20
202.1487471127722
  0
LWPOLYLINE
  5
D36A
330
A
100
AcDbEntity
  8
0
  6
Continuous
 62
     7
370
    15
100
AcDbPolyline
 90
       13
 70
   128
 43
0.0
 10
-553.0847093243963
 20
202.1487469424722
 10
-553.0426082368963
 20
202.2419791152722
 10
-552.9177092552964
 20
202.9357315701722
 10
-553.1161571217963
 20
203.6251857330722
 10
-553.6272535179962
 20
204.2731727387722
 10
-554.4234463664963
 20
204.8447599231722
 10
-555.4618113949963
 20
205.3091323860722
 10
-556.6863702035962
 20
205.6412558276722
 10
-558.0311079250962
 20
205.8232259559722
 10
-559.4235270909962
 20
205.8452317571722
 10
-560.7885639029962
 20
205.7060875665722
 10
-562.0526268747963
 20
205.4132940864722
 10
-563.1475729401963
 20
204.9826366747722
  0
LINE
  5
D36B
330
A
100
AcDbEntity
  8
0
  6
Continuous
 62
     7
370
    15
100
AcDbLine
 10
-557.2866985071962
 20
202.0374585116722
 30
0.0
 11
-556.6833873165963
 21
203.1520603894722
 31
0.0
  0
LINE
  5
D36C
330
A
100
AcDbEntity
  8
0
  6
Continuous
 62
     7
370
    15
100
AcDbLine
 10
-556.6833873165963
 20
203.1520603894722
 30
0.0
 11
-558.3122783042963
 21
203.9706028842722
 31
0.0
  0
LINE
  5
D36D
330
A
100
AcDbEntity
  8
0
  6
Continuous
 62
     7
370
    15
100
AcDbLine
 10
-558.3122783042963
 20
203.9706028842722
 30
0.0
 11
-560.5444805989963
 21
203.6745434002722
 31
0.0
  0
LINE
  5
D36E
330
A
100
AcDbEntity
  8
0
  6
Continuous
 62
     7
370
    15
100
AcDbLine
 10
-560.5444805989963
 20
203.6745434002722
 30
0.0
 11
-561.1477925960962
 21
202.5599417551722
 31
0.0
  0
LINE
  5
D36F
330
A
100
AcDbEntity
  8
0
  6
Continuous
 62
     7
370
    15
100
AcDbLine
 10
-561.1477925960962
 20
202.5599417551722
 30
0.0
 11
-559.5189016083963
 21
201.7413992604722
 31
0.0
  0
LINE
  5
D370
330
A
100
AcDbEntity
  8
0
  6
Continuous
 62
     7
370
    15
100
AcDbLine
 10
-559.5189016083963
 20
201.7413992604722
 30
0.0
 11
-557.2866985071962
 21
202.0374585116722
 31
0.0
  0
LINE
  5
D371
330
A
100
AcDbEntity
  8
0
  6
Continuous
 62
     7
370
    15
100
AcDbLine
 10
-564.9155902273963
 20
202.5961939557722
 30
0.0
 11
-564.9022401092963
 21
202.3961832225722
 31
0.0
  0
LINE
  5
D372
330
A
100
AcDbEntity
  8
0
  6
Continuous
 62
     7
370
    15
100
AcDbLine
 10
-552.9289394713962
 20
202.3961831778722
 30
0.0
 11
-552.9155896852963
 21
202.5961938293722
 31
0.0
  0
LINE
  5
D373
330
A
100
AcDbEntity
  8
0
  6
Continuous
 62
     7
370
    15
100
AcDbLine
 10
-560.5444805989963
 20
202.2567689692722
 30
0.0
 11
-560.5444805989963
 21
203.6745434002722
 31
0.0
  0
LINE
  5
D374
330
A
100
AcDbEntity
  8
0
  6
Continuous
 62
     7
370
    15
100
AcDbLine
 10
-558.3122783042963
 20
201.9014352773722
 30
0.0
 11
-558.3122783042963
 21
203.9706028842722
 31
0.0
  0
LINE
  5
D375
330
A
100
AcDbEntity
  8
0
  6
Continuous
 62
     7
370
    15
100
AcDbLine
 10
-522.6047012303964
 20
193.8461940249722
 30
0.0
 11
-522.6180510163963
 21
193.6461833733722
 31
0.0
  0
LINE
  5
D376
330
A
100
AcDbEntity
  8
0
  6
Continuous
 62
     7
370
    15
100
AcDbLine
 10
-534.5913508477963
 20
193.6461831852722
 30
0.0
 11
-534.6047009658962
 21
193.8461939184722
 31
0.0
  0
LWPOLYLINE
  5
D377
330
A
100
AcDbEntity
  8
0
  6
Continuous
 62
     7
370
    15
100
AcDbPolyline
 90
       17
 70
   128
 43
0.0
 10
-534.4355818602962
 20
193.3987470754722
 10
-534.5923103421962
 20
193.9133056971722
 10
-534.5197909263964
 20
194.6089188285722
 10
-534.1283875930962
 20
195.2774195127722
 10
-533.4392003976963
 20
195.8827686564722
 10
-532.4893842507963
 20
196.3923318837722
 10
-531.3301438130964
 20
196.7786383601722
 10
-530.0239735003963
 20
197.0208620472722
 10
-528.6412908846962
 20
197.1059453984722
 10
-527.2566345187963
 20
197.0293002689722
 10
-525.9446540422963
 20
196.7950600717722
 10
-524.7760764953963
 20
196.4158514878722
 10
-523.8139014171963
 20
195.9121184482722
 10
-523.1099989934962
 20
195.3110169710722
 10
-522.7023181971963
 20
194.6449530929722
 10
-522.6128350639963
 20
193.9498337275722
 10
-522.7738208693963
 20
193.3987471380722
  0
LINE
  5
D378
330
A
100
AcDbEntity
  8
0
  6
Continuous
 62
     7
370
    15
100
AcDbLine
 10
-526.4394303154963
 20
194.5075414949722
 30
0.0
 11
-528.2175549024962
 21
195.2443609106722
 31
0.0
  0
LINE
  5
D379
330
A
100
AcDbEntity
  8
0
  6
Continuous
 62
     7
370
    15
100
AcDbLine
 10
-528.2175549024962
 20
195.2443609106722
 30
0.0
 11
-530.3828241156963
 21
194.8428200637722
 31
0.0
  0
LINE
  5
D37A
330
A
100
AcDbEntity
  8
0
  6
Continuous
 62
     7
370
    15
100
AcDbLine
 10
-530.3828241156963
 20
194.8428200637722
 30
0.0
 11
-530.7699702676963
 21
193.7044603423722
 31
0.0
  0
LINE
  5
D37B
330
A
100
AcDbEntity
  8
0
  6
Continuous
 62
     7
370
    15
100
AcDbLine
 10
-530.7699702676963
 20
193.7044603423722
 30
0.0
 11
-528.9918472937964
 21
192.9676413923722
 31
0.0
  0
LINE
  5
D37C
330
A
100
AcDbEntity
  8
0
  6
Continuous
 62
     7
370
    15
100
AcDbLine
 10
-528.9918472937964
 20
192.9676413923722
 30
0.0
 11
-526.8265764674964
 21
193.3691817736722
 31
0.0
  0
LINE
  5
D37D
330
A
100
AcDbEntity
  8
0
  6
Continuous
 62
     7
370
    15
100
AcDbLine
 10
-526.8265764674964
 20
193.3691817736722
 30
0.0
 11
-526.4394303154963
 21
194.5075414949722
 31
0.0
  0
LINE
  5
D37E
330
A
100
AcDbEntity
  8
0
  6
Continuous
 62
     7
370
    15
100
AcDbLine
 10
-530.3828241156963
 20
194.8428200637722
 30
0.0
 11
-530.3828241156963
 21
193.5440358080722
 31
0.0
  0
LINE
  5
D37F
330
A
100
AcDbEntity
  8
0
  6
Continuous
 62
     7
370
    15
100
AcDbLine
 10
-528.2175549024962
 20
193.1112323542722
 30
0.0
 11
-528.2175549024962
 21
195.2443609106722
 31
0.0
  0
LINE
  5
D380
330
A
100
AcDbEntity
  8
0
  6
Continuous
 62
     7
370
    15
100
AcDbLine
 10
-541.3547008967962
 20
179.6626154336722
 30
0.0
 11
-541.5303783694962
 21
179.7690244525722
 31
0.0
  0
LINE
  5
D381
330
A
100
AcDbEntity
  8
0
  6
Continuous
 62
     7
370
    15
100
AcDbLine
 10
-541.3547008967962
 20
165.8062091215722
 30
0.0
 11
-541.5303783694962
 21
165.9126177371722
 31
0.0
  0
LWPOLYLINE
  5
D382
330
A
100
AcDbEntity
  8
0
  6
Continuous
 62
     7
370
    15
100
AcDbPolyline
 90
       17
 70
   128
 43
0.0
 10
-545.2683134996962
 20
162.4278353781722
 10
-545.1921927803962
 20
161.8309302335722
 10
-544.9754200005963
 20
161.4567439192722
 10
-544.6509965756964
 20
161.3622413783722
 10
-544.2683133357963
 20
161.5618098323722
 10
-543.8856300958962
 20
162.0250681930722
 10
-543.5612066709963
 20
162.6814885889722
 10
-543.3444338911963
 20
163.4311363716722
 10
-543.2683134046963
 20
164.1598862679722
 10
-543.3444338911963
 20
164.7567908075722
 10
-543.5612066709963
 20
165.1309779284722
 10
-543.8856300958962
 20
165.2254804692722
 10
-544.2683133357963
 20
165.0259112087722
 10
-544.6509965756964
 20
164.5626536546722
 10
-544.9754200005963
 20
163.9062332587722
 10
-545.1921927803962
 20
163.1565846694722
 10
-545.2683134996962
 20
162.4278353781722
  0
LWPOLYLINE
  5
D383
330
A
100
AcDbEntity
  8
0
  6
Continuous
 62
     7
370
    15
100
AcDbPolyline
 90
        4
 70
   128
 43
0.0
 10
-545.9460437269963
 20
162.6234792426722
 10
-545.8699230076963
 20
162.0265740981722
 10
-545.6531502277962
 20
161.6523877837722
 10
-545.5007439450962
 20
161.5679662990722
  0
LWPOLYLINE
  5
D384
330
A
100
AcDbEntity
  8
0
  6
Continuous
 62
     7
370
    15
100
AcDbPolyline
 90
        7
 70
   128
 43
0.0
 10
-544.3913431809963
 20
165.4110424712722
 10
-544.5633603231963
 20
165.4211243338722
 10
-544.9460435630963
 20
165.2215550733722
 10
-545.3287268028962
 20
164.7582975191722
 10
-545.6531502277962
 20
164.1018771233722
 10
-545.8699230076963
 20
163.3522285340722
 10
-545.9460437269963
 20
162.6234792426722
  0
LWPOLYLINE
  5
D385
330
A
100
AcDbEntity
  8
0
  6
Continuous
 62
     7
370
    15
100
AcDbPolyline
 90
       17
 70
   128
 43
0.0
 10
-545.2683134996962
 20
179.7483430666722
 10
-545.1921927803962
 20
179.1514387286722
 10
-544.9754200005963
 20
178.7772516077722
 10
-544.6509965756964
 20
178.6827490669722
 10
-544.2683133357963
 20
178.8823183274722
 10
-543.8856300958962
 20
179.3455758816722
 10
-543.5612066709963
 20
180.0019962775722
 10
-543.3444338911963
 20
180.7516448667722
 10
-543.2683134046963
 20
181.4803939564722
 10
-543.3444338911963
 20
182.0772993026722
 10
-543.5612066709963
 20
182.4514856170722
 10
-543.8856300958962
 20
182.5459881578722
 10
-544.2683133357963
 20
182.3464197038722
 10
-544.6509965756964
 20
181.8831613431722
 10
-544.9754200005963
 20
181.2267409472722
 10
-545.1921927803962
 20
180.4770931645722
 10
-545.2683134996962
 20
179.7483430666722
  0
LWPOLYLINE
  5
D386
330
A
100
AcDbEntity
  8
0
  6
Continuous
 62
     7
370
    15
100
AcDbPolyline
 90
        4
 70
   128
 43
0.0
 10
-545.9460437269963
 20
179.9439869312722
 10
-545.8699230076963
 20
179.3470825932722
 10
-545.6531502277962
 20
178.9728954723722
 10
-545.5007439450962
 20
178.8884747941722
  0
LWPOLYLINE
  5
D387
330
A
100
AcDbEntity
  8
0
  6
Continuous
 62
     7
370
    15
100
AcDbPolyline
 90
        7
 70
   128
 43
0.0
 10
-544.3913431809963
 20
182.7315509663722
 10
-544.5633603231963
 20
182.7416320224722
 10
-544.9460435630963
 20
182.5420635684722
 10
-545.3287268028962
 20
182.0788052077722
 10
-545.6531502277962
 20
181.4223848118722
 10
-545.8699230076963
 20
180.6727370291722
 10
-545.9460437269963
 20
179.9439869312722
  0
ARC
  5
D388
330
A
100
AcDbEntity
  8
0
  6
Continuous
 62
     7
370
    15
100
AcDbCircle
 10
-564.7269301212963
 20
209.6408978318722
 30
0.0
 40
2.359874547976564
100
AcDbArc
 50
45.82741565810062
 51
73.0755151725988
  0
LINE
  5
D389
330
A
100
AcDbEntity
  8
0
  6
Continuous
 62
     7
370
    15
100
AcDbLine
 10
-564.0399445576963
 20
211.8985644851722
 30
0.0
 11
-613.8364029523963
 21
226.2735638145722
 31
0.0
  0
ARC
  5
D38A
330
A
100
AcDbEntity
  8
0
  6
Continuous
 62
     7
370
    15
100
AcDbCircle
 10
-618.4482273240963
 20
210.7685050677722
 30
0.0
 40
16.17639548159824
100
AcDbArc
 50
73.43541765829998
 51
90.44416088089982
  0
ARC
  5
D38B
330
A
100
AcDbEntity
  8
0
  6
Continuous
 62
     7
370
    15
100
AcDbCircle
 10
-464.4442717746963
 20
158.7879757623722
 30
0.0
 40
23.40849863839199
100
AcDbArc
 50
2.830894073500002
 51
72.79137304339999
  0
LINE
  5
D38C
330
A
100
AcDbEntity
  8
0
  6
Continuous
 62
     7
370
    15
100
AcDbLine
 10
-457.5188234022963
 20
181.1485654984722
 30
0.0
 11
-507.3152817969963
 21
195.5235648278722
 31
0.0
  0
LINE
  5
D38D
330
A
100
AcDbEntity
  8
0
  6
Continuous
 62
     7
370
    15
100
AcDbLine
 10
-441.0643396463963
 20
151.2838283918722
 30
0.0
 11
-441.0643396463963
 21
159.9440822361722
 31
0.0
  0
LWPOLYLINE
  5
D38E
330
A
100
AcDbEntity
  8
0
  6
Continuous
 62
     7
370
    15
100
AcDbPolyline
 90
        3
 70
   128
 43
0.0
 10
-441.2458841496963
 20
148.8987164300722
 10
-441.2051114841963
 20
149.1767245130722
 10
-441.0643396463963
 20
151.2838283918722
  0
ARC
  5
D38F
330
A
100
AcDbEntity
  8
0
  6
Continuous
 62
     7
370
    15
100
AcDbCircle
 10
-507.7754182101963
 20
194.0703154021722
 30
0.0
 40
1.524355408692609
100
AcDbArc
 50
72.43086391729793
 51
109.040047776199
  0
LINE
  5
D390
330
A
100
AcDbEntity
  8
0
  6
Continuous
 62
     7
370
    15
100
AcDbLine
 10
-606.5113520827963
 20
225.4580418186722
 30
0.0
 11
-554.1117422444963
 21
210.3315773958722
 31
0.0
  0
ARC
  5
D391
330
A
100
AcDbEntity
  8
0
  6
Continuous
 62
     7
370
    15
100
AcDbCircle
 10
-554.8407404651963
 20
207.9778281007722
 30
0.0
 40
2.464056442077448
100
AcDbArc
 50
2.830952463599632
 51
72.79131254210056
  0
LINE
  5
D392
330
A
100
AcDbEntity
  8
0
  6
Continuous
 62
     7
370
    15
100
AcDbLine
 10
-552.3796911529962
 20
208.0995262224722
 30
0.0
 11
-552.3796911529962
 21
207.3778374610722
 31
0.0
  0
ARC
  5
D393
330
A
100
AcDbEntity
  8
0
  6
Continuous
 62
     7
370
    15
100
AcDbCircle
 10
-611.6309386893963
 20
208.5137728537722
 30
0.0
 40
17.70080274388998
100
AcDbArc
 50
73.18819316669958
 51
95.55428191869984
  0
ARC
  5
D394
330
A
100
AcDbEntity
  8
0
  6
Continuous
 62
     7
370
    15
100
AcDbCircle
 10
-554.3407403831962
 20
208.4108408736722
 30
0.0
 40
2.464056442077427
100
AcDbArc
 50
2.830952463600293
 51
72.79131254210056
  0
LINE
  5
D395
330
A
100
AcDbEntity
  8
0
  6
Continuous
 62
     7
370
    15
100
AcDbLine
 10
-606.0113520007963
 20
225.8910545915722
 30
0.0
 11
-553.6117421624963
 21
210.7645901687722
 31
0.0
  0
LINE
  5
D396
330
A
100
AcDbEntity
  8
0
  6
Continuous
 62
     7
370
    15
100
AcDbLine
 10
-551.8796910709963
 20
208.5325389952722
 30
0.0
 11
-551.8796910709963
 21
207.2334998701722
 31
0.0
  0
ARC
  5
D397
330
A
100
AcDbEntity
  8
0
  6
Continuous
 62
     7
370
    15
100
AcDbCircle
 10
-611.0636283465963
 20
209.3329835331722
 30
0.0
 40
17.31170740996886
100
AcDbArc
 50
73.03175800950014
 51
100.3163239619997
  0
LINE
  5
D398
330
A
100
AcDbEntity
  8
0
  6
Continuous
 62
     7
370
    15
100
AcDbLine
 10
-512.9755360808963
 20
194.9876651036722
 30
0.0
 11
-512.9755360808963
 21
196.7245264533722
 31
0.0
  0
ARC
  5
D399
330
A
100
AcDbEntity
  8
0
  6
Continuous
 62
     7
370
    15
100
AcDbCircle
 10
-511.7065452590962
 20
196.7740523238722
 30
0.0
 40
1.269956896016594
100
AcDbArc
 50
68.61538525030049
 51
182.2349916946996
  0
LINE
  5
D39A
330
A
100
AcDbEntity
  8
0
  6
Continuous
 62
     7
370
    15
100
AcDbLine
 10
-511.2434849893962
 20
197.9565774629722
 30
0.0
 11
-458.8438751510963
 21
182.8301130401722
 31
0.0
  0
ARC
  5
D39B
330
A
100
AcDbEntity
  8
0
  6
Continuous
 62
     7
370
    15
100
AcDbCircle
 10
-466.9217451789963
 20
157.2753090494722
 30
0.0
 40
26.80111921520925
100
AcDbArc
 50
31.41512082990001
 51
72.45826175049994
  0
ARC
  5
D39C
330
A
100
AcDbEntity
  8
0
  6
Continuous
 62
     7
370
    15
100
AcDbCircle
 10
-445.9022487823963
 20
170.0418373708722
 30
0.0
 40
2.209283777556095
100
AcDbArc
 50
1.265312265700607
 51
32.99651998280123
  0
LINE
  5
D39D
330
A
100
AcDbEntity
  8
0
  6
Continuous
 62
     7
370
    15
100
AcDbLine
 10
-443.6935037135963
 20
170.0906229301722
 30
0.0
 11
-443.6935037135963
 21
169.6255328966722
 31
0.0
  0
ARC
  5
D39E
330
A
100
AcDbEntity
  8
0
  6
Continuous
 62
     7
370
    15
100
AcDbCircle
 10
-466.4217450969963
 20
157.7083218223722
 30
0.0
 40
26.80111921520928
100
AcDbArc
 50
31.41512082990007
 51
72.45826175049996
  0
ARC
  5
D39F
330
A
100
AcDbEntity
  8
0
  6
Continuous
 62
     7
370
    15
100
AcDbCircle
 10
-445.4022487004963
 20
170.4748501437722
 30
0.0
 40
2.209283777556208
100
AcDbArc
 50
1.265312265699805
 51
32.99651998280086
  0
LINE
  5
D3A0
330
A
100
AcDbEntity
  8
0
  6
Continuous
 62
     7
370
    15
100
AcDbLine
 10
-443.1935036316963
 20
170.5236357029722
 30
0.0
 11
-443.1935036316963
 21
168.6541051067722
 31
0.0
  0
LINE
  5
D3A1
330
A
100
AcDbEntity
  8
0
  6
Continuous
 62
     7
370
    15
100
AcDbLine
 10
-510.7434849074962
 20
198.3895902357722
 30
0.0
 11
-458.3438750690964
 21
183.2631258129722
 31
0.0
  0
ARC
  5
D3A2
330
A
100
AcDbEntity
  8
0
  6
Continuous
 62
     7
370
    15
100
AcDbCircle
 10
-511.1977930379963
 20
197.0882001051722
 30
0.0
 40
1.378409282334512
100
AcDbArc
 50
70.7561865213996
 51
128.3365985862023
  0
ARC
  5
D3A3
330
A
100
AcDbEntity
  8
0
  6
Continuous
 62
     7
370
    15
100
AcDbCircle
 10
-461.4134852534963
 20
161.4229540562722
 30
0.0
 40
24.6405459981944
100
AcDbArc
 50
2.830928211500034
 51
72.79134281089993
  0
ARC
  5
D3A4
330
A
100
AcDbEntity
  8
0
  6
Continuous
 62
     7
370
    15
100
AcDbCircle
 10
-458.4134856930963
 20
164.0210298868722
 30
0.0
 40
24.6405459981944
100
AcDbArc
 50
2.830928211500034
 51
72.79134281089993
  0
LINE
  5
D3A5
330
A
100
AcDbEntity
  8
0
  6
Continuous
 62
     7
370
    15
100
AcDbLine
 10
-517.7763880579962
 20
203.3354332451722
 30
0.0
 11
-517.7763880579962
 21
190.8300062012722
 31
0.0
  0
LINE
  5
D3A6
330
A
100
AcDbEntity
  8
0
  6
Continuous
 62
     7
370
    15
100
AcDbLine
 10
-454.1235209314964
 20
184.9604332600722
 30
0.0
 11
-517.7763880579962
 21
203.3354332451722
 31
0.0
  0
LINE
  5
D3A7
330
A
100
AcDbEntity
  8
0
  6
Continuous
 62
     7
370
    15
100
AcDbLine
 10
-436.8030100166964
 20
153.9796701011722
 30
0.0
 11
-436.8030100166964
 21
162.6399239454722
 31
0.0
  0
ARC
  5
D3A8
330
A
100
AcDbEntity
  8
0
  6
Continuous
 62
     7
370
    15
100
AcDbCircle
 10
-449.4661263467964
 20
153.4154853560722
 30
0.0
 40
12.67567827039834
100
AcDbArc
 50
298.2278818777997
 51
2.551034094999972
  0
LWPOLYLINE
  5
D3A9
330
A
100
AcDbEntity
  8
0
  6
Continuous
 62
     7
370
    15
100
AcDbPolyline
 90
        9
 70
   128
 43
0.0
 10
-441.8059883511963
 20
165.0425356032722
 10
-441.7878764865964
 20
165.0423622042722
 10
-441.1880814769963
 20
165.1238780995722
 10
-440.6705157518963
 20
165.3703687611722
 10
-440.2677445340963
 20
165.7663307421722
 10
-440.0050934624963
 20
166.2868524852722
 10
-439.8990935655963
 20
166.8991942996722
 10
-439.9564101642964
 20
167.5648346877722
 10
-440.1734363715964
 20
168.2419016939722
  0
ARC
  5
D3AA
330
A
100
AcDbEntity
  8
0
  6
Continuous
 62
     7
370
    15
100
AcDbCircle
 10
-466.1892243716964
 20
157.0135509417722
 30
0.0
 40
28.33543869216046
100
AcDbArc
 50
23.34491017740005
 51
72.32823264369993
  0
LINE
  5
D3AB
330
A
100
AcDbEntity
  8
0
  6
Continuous
 62
     7
370
    15
100
AcDbLine
 10
-457.5876166619963
 20
184.0118736801722
 30
0.0
 11
-508.0336018782962
 21
198.5743752522722
 31
0.0
  0
ARC
  5
D3AC
330
A
100
AcDbEntity
  8
0
  6
Continuous
 62
     7
370
    15
100
AcDbCircle
 10
-510.2072351948963
 20
196.5280736233722
 30
0.0
 40
2.985302690130811
100
AcDbArc
 50
43.27169008629935
 51
72.96431757260049
  0
LINE
  5
D3AD
330
A
100
AcDbEntity
  8
0
  6
Continuous
 62
     7
370
    15
100
AcDbLine
 10
-509.3326393903963
 20
199.3823886603722
 30
0.0
 11
-513.6627671189963
 21
200.6323888651722
 31
0.0
  0
ARC
  5
D3AE
330
A
100
AcDbEntity
  8
0
  6
Continuous
 62
     7
370
    15
100
AcDbCircle
 10
-514.2415928673963
 20
199.1542338085722
 30
0.0
 40
1.587444996944685
100
AcDbArc
 50
68.61535343429566
 51
182.2350802027997
  0
LINE
  5
D3AF
330
A
100
AcDbEntity
  8
0
  6
Continuous
 62
     7
370
    15
100
AcDbLine
 10
-515.8278301767962
 20
199.0923240639722
 30
0.0
 11
-515.8278301767962
 21
195.3381594347722
 31
0.0
  0
ARC
  5
D3B0
330
A
100
AcDbEntity
  8
0
  6
Continuous
 62
     7
370
    15
100
AcDbCircle
 10
-512.8496296521962
 20
195.4574428686722
 30
0.0
 40
2.980588348414655
100
AcDbArc
 50
182.2935951539997
 51
226.1427208720994
  0
LINE
  5
D3B1
330
A
100
AcDbEntity
  8
0
  6
Continuous
 62
     7
370
    15
100
AcDbLine
 10
-441.2580576689963
 20
148.7476565803722
 30
0.0
 11
-440.1734363715964
 21
150.3236089159722
 31
0.0
  0
ARC
  5
D3B2
330
A
100
AcDbEntity
  8
0
  6
Continuous
 62
     7
370
    15
100
AcDbCircle
 10
-443.0105940082964
 20
151.5259683041722
 30
0.0
 40
3.081417133993082
100
AcDbArc
 50
337.0332488595999
 51
50.83093136099918
  0
ARC
  5
D3B3
330
A
100
AcDbEntity
  8
0
  6
Continuous
 62
     7
370
    15
100
AcDbCircle
 10
-510.9531677337963
 20
197.3239741675722
 30
0.0
 40
2.624926966825218
100
AcDbArc
 50
180.8132714841
 51
204.5099037140998
  0
LINE
  5
D3B4
330
A
100
AcDbEntity
  8
0
  6
Continuous
 62
     7
370
    15
100
AcDbLine
 10
-513.5778302736962
 20
200.6078691722722
 30
0.0
 11
-513.5778302736962
 21
197.2867165094722
 31
0.0
  0
LINE
  5
D3B5
330
A
100
AcDbEntity
  8
0
  6
Continuous
 62
     7
370
    15
100
AcDbLine
 10
-514.7763884975964
 20
205.9335090758722
 30
0.0
 11
-517.7763880579962
 21
203.3354332451722
 31
0.0
  0
LINE
  5
D3B6
330
A
100
AcDbEntity
  8
0
  6
Continuous
 62
     7
370
    15
100
AcDbLine
 10
-451.1235213710963
 20
187.5585090907722
 30
0.0
 11
-514.7763884975964
 21
205.9335090758722
 31
0.0
  0
ELLIPSE
  5
D3B7
330
A
100
AcDbEntity
  8
0
  6
Continuous
 62
     7
370
    15
100
AcDbEllipse
 10
-442.2952293957964
 20
167.9197794183722
 30
0.0
 11
5.124090257212629
 21
1.910387378446924
 31
0.0
210
0.0
220
0.0
230
1.0
 40
0.4514162296
 41
4.617462941616501
 42
4.998695967363173
  0
LINE
  5
D3B8
330
A
100
AcDbEntity
  8
0
  6
Continuous
 62
     7
370
    15
100
AcDbLine
 10
-433.8030104562963
 20
156.5777459318722
 30
0.0
 11
-433.8030104562963
 21
165.2379997761722
 31
0.0
  0
ARC
  5
D3B9
330
A
100
AcDbEntity
  8
0
  6
Continuous
 62
     7
370
    15
100
AcDbCircle
 10
-446.8368677820963
 20
156.0807800290722
 30
0.0
 40
13.04332825227396
100
AcDbArc
 50
312.4670783572998
 51
2.183564043899862
  0
LINE
  5
D3BA
330
A
100
AcDbEntity
  8
0
  6
Continuous
 62
     7
370
    15
100
AcDbLine
 10
-546.7788394787963
 20
205.7610113878722
 30
0.0
 11
-546.7788394787963
 21
211.7077198126722
 31
0.0
  0
LWPOLYLINE
  5
D3BB
330
A
100
AcDbEntity
  8
0
  6
Continuous
 62
     7
370
    15
100
AcDbPolyline
 90
       10
 70
   128
 43
0.0
 10
-610.4317057987962
 20
230.0827195649722
 10
-612.6924884797963
 20
230.5871721257722
 10
-614.9145826179963
 20
230.7866320755722
 10
-617.0599771716963
 20
230.6776920013722
 10
-619.0919580298962
 20
230.2622114082722
 10
-620.9757661566963
 20
229.5473018456722
 10
-622.6791524963962
 20
228.5451935110722
 10
-624.1729909511962
 20
227.2730363490722
 10
-625.4317042390962
 20
225.7525914827722
 10
-625.4722188088963
 20
225.6937398029722
  0
LINE
  5
D3BC
330
A
100
AcDbEntity
  8
0
  6
Continuous
 62
     7
370
    15
100
AcDbLine
 10
-546.7788394787963
 20
211.7077198126722
 30
0.0
 11
-610.4317057987962
 21
230.0827195649722
 31
0.0
  0
LINE
  5
D3BD
330
A
100
AcDbEntity
  8
0
  6
Continuous
 62
     7
370
    15
100
AcDbLine
 10
-548.7273965533963
 20
206.3235113636722
 30
0.0
 11
-548.7273965533963
 21
208.5896108157722
 31
0.0
  0
ARC
  5
D3BE
330
A
100
AcDbEntity
  8
0
  6
Continuous
 62
     7
370
    15
100
AcDbCircle
 10
-551.8037062996963
 20
208.4374905018722
 30
0.0
 40
3.080068545476177
100
AcDbArc
 50
2.830910762899886
 51
72.79132215430094
  0
LINE
  5
D3BF
330
A
100
AcDbEntity
  8
0
  6
Continuous
 62
     7
370
    15
100
AcDbLine
 10
-550.8924596111963
 20
211.3796753562722
 30
0.0
 11
-555.2225873398963
 21
212.6296755611722
 31
0.0
  0
ARC
  5
D3C0
330
A
100
AcDbEntity
  8
0
  6
Continuous
 62
     7
370
    15
100
AcDbCircle
 10
-555.7941794636963
 20
210.8557441276722
 30
0.0
 40
1.863746304310105
100
AcDbArc
 50
72.140140154899
 51
112.9740091965997
  0
LINE
  5
D3C1
330
A
100
AcDbEntity
  8
0
  6
Continuous
 62
     7
370
    15
100
AcDbLine
 10
-556.5216248518963
 20
212.5716618104722
 30
0.0
 11
-606.9676100681963
 21
227.1341633824722
 31
0.0
  0
ARC
  5
D3C2
330
A
100
AcDbEntity
  8
0
  6
Continuous
 62
     7
370
    15
100
AcDbCircle
 10
-612.1366435408963
 20
211.0028272846722
 30
0.0
 40
16.9392712754059
100
AcDbArc
 50
72.23275878959983
 51
110.2476699970998
  0
LINE
  5
D3C3
330
A
100
AcDbEntity
  8
0
  6
Continuous
 62
     7
370
    15
100
AcDbLine
 10
-543.7788399182963
 20
214.3057956433722
 30
0.0
 11
-546.7788394787963
 21
211.7077198126722
 31
0.0
  0
LINE
  5
D3C4
330
A
100
AcDbEntity
  8
0
  6
Continuous
 62
     7
370
    15
100
AcDbLine
 10
-543.7788399182963
 20
214.3057956433722
 30
0.0
 11
-607.4317062382963
 21
232.6807953955722
 31
0.0
  0
LINE
  5
D3C5
330
A
100
AcDbEntity
  8
0
  6
Continuous
 62
     7
370
    15
100
AcDbLine
 10
-543.7788399182963
 20
204.8949858421722
 30
0.0
 11
-543.7788399182963
 21
214.3057956433722
 31
0.0
  0
ARC
  5
D3C6
330
A
100
AcDbEntity
  8
0
  6
Continuous
 62
     7
370
    15
100
AcDbCircle
 10
-611.9415591580962
 20
219.4693475762722
 30
0.0
 40
13.95998305302643
100
AcDbArc
 50
71.1521747338003
 51
127.9406205488001
  0
LINE
  5
D3C7
330
A
100
AcDbEntity
  8
0
  6
Continuous
 62
     7
370
    15
100
AcDbLine
 10
-550.8886652719963
 20
210.9888689863722
 30
0.0
 11
-551.1357325111962
 21
211.4499027311722
 31
0.0
  0
LINE
  5
D3C8
330
A
100
AcDbEntity
  8
0
  6
Continuous
 62
     7
370
    15
100
AcDbLine
 10
-551.0136655252963
 20
210.8806155915722
 30
0.0
 11
-550.8886652719963
 21
210.9888689863722
 31
0.0
  0
LINE
  5
D3C9
330
A
100
AcDbEntity
  8
0
  6
Continuous
 62
     7
370
    15
100
AcDbLine
 10
-606.0051318948963
 20
226.7552845473722
 30
0.0
 11
-551.0136655252963
 21
210.8806155915722
 31
0.0
  0
LINE
  5
D3CA
330
A
100
AcDbEntity
  8
0
  6
Continuous
 62
     7
370
    15
100
AcDbLine
 10
-551.0136655252963
 20
206.9834998291722
 30
0.0
 11
-551.0136655252963
 21
210.8806155915722
 31
0.0
  0
ARC
  5
D3CB
330
A
100
AcDbEntity
  8
0
  6
Continuous
 62
     7
370
    15
100
AcDbCircle
 10
-611.2019103419963
 20
210.3572922742722
 30
0.0
 40
17.20176318920338
100
AcDbArc
 50
72.41578274930016
 51
107.1381490073
  0
LINE
  5
D3CC
330
A
100
AcDbEntity
  8
0
  6
Continuous
 62
     7
370
    15
100
AcDbLine
 10
-550.8886652719963
 20
206.9474164396722
 30
0.0
 11
-550.8886652719963
 21
210.9888689863722
 31
0.0
  0
LINE
  5
D3CD
330
A
100
AcDbEntity
  8
0
  6
Continuous
 62
     7
370
    15
100
AcDbLine
 10
-548.9886657055963
 20
206.3989332713722
 30
0.0
 11
-548.9886657055963
 21
209.6960846487722
 31
0.0
  0
LINE
  5
D3CE
330
A
100
AcDbEntity
  8
0
  6
Continuous
 62
     7
370
    15
100
AcDbLine
 10
-548.8636654522963
 20
206.3628490752722
 30
0.0
 11
-548.8636654522963
 21
209.3849212674722
 31
0.0
  0
LWPOLYLINE
  5
D3CF
330
A
100
AcDbEntity
  8
0
  6
Continuous
 62
     7
370
    15
100
AcDbPolyline
 90
        3
 70
   128
 43
0.0
 10
-617.1923746352963
 20
227.1876207400722
 10
-617.3366243123962
 20
227.0924422873722
 10
-617.6738972982962
 20
226.8586743032722
  0
ARC
  5
D3D0
330
A
100
AcDbEntity
  8
0
  6
Continuous
 62
     7
370
    15
100
AcDbCircle
 10
-466.8516475305963
 20
157.3096874465722
 30
0.0
 40
28.13638842732074
100
AcDbArc
 50
30.04316465630005
 51
72.4129124251999
  0
ELLIPSE
  5
D3D1
330
A
100
AcDbEntity
  8
0
  6
Continuous
 62
     7
370
    15
100
AcDbEllipse
 10
-474.2047633615963
 20
150.9148293828722
 30
0.0
 11
38.43067692909528
 21
14.3279053383522
 31
0.0
210
0.0
220
0.0
230
1.0
 40
0.4514162295999999
 41
0.4110694218377728
 42
0.4536359414828085
  0
LINE
  5
D3D2
330
A
100
AcDbEntity
  8
0
  6
Continuous
 62
     7
370
    15
100
AcDbLine
 10
-513.3415615446963
 20
200.0056159044722
 30
0.0
 11
-513.3415615446963
 21
194.6706781289722
 31
0.0
  0
LINE
  5
D3D3
330
A
100
AcDbEntity
  8
0
  6
Continuous
 62
     7
370
    15
100
AcDbLine
 10
-458.3500951750964
 20
184.1309469486722
 30
0.0
 11
-513.3415615446963
 21
200.0056159044722
 31
0.0
  0
LINE
  5
D3D4
330
A
100
AcDbEntity
  8
0
  6
Continuous
 62
     7
370
    15
100
AcDbLine
 10
-442.4954257859963
 20
171.3962347900722
 30
0.0
 11
-442.4954257859963
 21
167.0689549858722
 31
0.0
  0
ELLIPSE
  5
D3D5
330
A
100
AcDbEntity
  8
0
  6
Continuous
 62
     7
370
    15
100
AcDbEllipse
 10
-474.2047633615963
 20
150.9148293828722
 30
0.0
 11
38.43067692909528
 21
14.3279053383522
 31
0.0
210
0.0
220
0.0
230
1.0
 40
0.4514162295999999
 41
5.555856798856072
 42
5.621950421852537
  0
LINE
  5
D3D6
330
A
100
AcDbEntity
  8
0
  6
Continuous
 62
     7
370
    15
100
AcDbLine
 10
-513.3415615446963
 20
200.0056159044722
 30
0.0
 11
-513.2165612913964
 21
200.1138692992722
 31
0.0
  0
LINE
  5
D3D7
330
A
100
AcDbEntity
  8
0
  6
Continuous
 62
     7
370
    15
100
AcDbLine
 10
-513.2165612913964
 20
200.1138692992722
 30
0.0
 11
-512.2944938017963
 21
200.2374029188722
 31
0.0
  0
LWPOLYLINE
  5
D3D8
330
A
100
AcDbEntity
  8
0
  6
Continuous
 62
     7
370
    15
100
AcDbPolyline
 90
        3
 70
   128
 43
0.0
 10
-441.2037229060963
 20
149.7365341903722
 10
-441.0409742209963
 20
149.8883678289722
 10
-439.9157222106963
 20
151.1056564516722
  0
LINE
  5
D3D9
330
A
100
AcDbEntity
  8
0
  6
Continuous
 62
     7
370
    15
100
AcDbLine
 10
-637.2596296322963
 20
201.1374059232722
 30
0.0
 11
-637.2596296322963
 21
191.6111265332722
 31
0.0
  0
ARC
  5
D3DA
330
A
100
AcDbEntity
  8
0
  6
Continuous
 62
     7
370
    15
100
AcDbCircle
 10
-630.3930468606964
 20
202.2926601865722
 30
0.0
 40
6.963086339557957
100
AcDbArc
 50
80.53146909930012
 51
189.5501741216
  0
LINE
  5
D3DB
330
A
100
AcDbEntity
  8
0
  6
Continuous
 62
     7
370
    15
100
AcDbLine
 10
-629.2475782560963
 20
209.1608821579722
 30
0.0
 11
-574.0088562223963
 21
197.1671574558722
 31
0.0
  0
LINE
  5
D3DC
330
A
100
AcDbEntity
  8
0
  6
Continuous
 62
     7
370
    15
100
AcDbLine
 10
-574.0088562223963
 20
197.1671574558722
 30
0.0
 11
-574.0088562223963
 21
191.9710049879722
 31
0.0
  0
LINE
  5
D3DD
330
A
100
AcDbEntity
  8
0
  6
Continuous
 62
     7
370
    15
100
AcDbLine
 10
-574.0088562223963
 20
191.9710049879722
 30
0.0
 11
-551.9252088387963
 21
185.5960051071722
 31
0.0
  0
LINE
  5
D3DE
330
A
100
AcDbEntity
  8
0
  6
Continuous
 62
     7
370
    15
100
AcDbLine
 10
-551.9252088387963
 20
185.5960051071722
 30
0.0
 11
-551.9252088387963
 21
159.6152435743722
 31
0.0
  0
LINE
  5
D3DF
330
A
100
AcDbEntity
  8
0
  6
Continuous
 62
     7
370
    15
100
AcDbLine
 10
-551.9252088387963
 20
159.6152435743722
 30
0.0
 11
-574.0088562223963
 21
165.9902434551722
 31
0.0
  0
LINE
  5
D3E0
330
A
100
AcDbEntity
  8
0
  6
Continuous
 62
     7
370
    15
100
AcDbLine
 10
-574.0088562223963
 20
165.9902434551722
 30
0.0
 11
-574.0088562223963
 21
160.7940909872722
 31
0.0
  0
LINE
  5
D3E1
330
A
100
AcDbEntity
  8
0
  6
Continuous
 62
     7
370
    15
100
AcDbLine
 10
-627.5214278770964
 20
180.0706553914722
 30
0.0
 11
-574.0088562223963
 21
160.7940909872722
 31
0.0
  0
ARC
  5
D3E2
330
A
100
AcDbEntity
  8
0
  6
Continuous
 62
     7
370
    15
100
AcDbCircle
 10
-623.5802767166963
 20
193.2752505136722
 30
0.0
 40
13.78020336607741
100
AcDbArc
 50
186.9360778608002
 51
253.3813109423999
  0
LINE
  5
D3E3
330
A
100
AcDbEntity
  8
0
  6
Continuous
 62
     7
370
    15
100
AcDbLine
 10
-573.8213563080963
 20
192.1333846769722
 30
0.0
 11
-574.0088562223963
 21
191.9710049879722
 31
0.0
  0
LINE
  5
D3E4
330
A
100
AcDbEntity
  8
0
  6
Continuous
 62
     7
370
    15
100
AcDbLine
 10
-562.0088561180962
 20
211.0235645745722
 30
0.0
 11
-562.0088561180962
 21
210.1575390288722
 31
0.0
  0
ARC
  5
D3E5
330
A
100
AcDbEntity
  8
0
  6
Continuous
 62
     7
370
    15
100
AcDbCircle
 10
-546.2047960034963
 20
193.0266187321722
 30
0.0
 40
28.11067102684355
100
AcDbArc
 50
162.462329847
 51
171.5298462674
  0
LINE
  5
D3E6
330
A
100
AcDbEntity
  8
0
  6
Continuous
 62
     7
370
    15
100
AcDbLine
 10
-562.0088561180962
 20
211.0235645745722
 30
0.0
 11
-573.0088560584963
 21
201.4972851845722
 31
0.0
  0
ARC
  5
D3E7
330
A
100
AcDbEntity
  8
0
  6
Continuous
 62
     7
370
    15
100
AcDbCircle
 10
-603.2674729701962
 20
205.5272549223722
 30
0.0
 40
26.23297767219287
100
AcDbArc
 50
146.7598950215001
 51
172.0381494421001
  0
SPLINE
  5
D3E8
330
A
100
AcDbEntity
  8
0
  6
Continuous
 62
     7
370
    15
100
AcDbSpline
210
0.0
220
0.0
230
1.0
 70
     8
 71
     3
 72
     9
 73
     5
 74
     0
 42
0.00000001
 43
0.00000001
 40
0.0
 40
0.0
 40
0.0
 40
0.0
 40
0.7674757556439923
 40
0.9999999999999999
 40
0.9999999999999999
 40
0.9999999999999999
 40
0.9999999999999999
 10
-622.8038062748792
 20
219.373590277123
 30
0.0
 10
-623.378503730461
 20
219.578686439399
 30
0.0
 10
-624.1273188576563
 20
219.8459211510727
 30
0.0
 10
-625.0043108206002
 20
219.8953391232869
 30
0.0
 10
-625.20823271409
 20
219.9068299999337
 30
0.0
  0
SPLINE
  5
D3E9
330
A
100
AcDbEntity
  8
0
  6
Continuous
 62
     7
370
    15
100
AcDbSpline
210
0.0
220
0.0
230
1.0
 70
     8
 71
     3
 72
    12
 73
     8
 74
     0
 42
0.00000001
 43
0.00000001
 40
0.0
 40
0.0
 40
0.0
 40
0.0
 40
0.1014880547880107
 40
0.2030095566976617
 40
0.4067497406903752
 40
0.7032946373191057
 40
1.0
 40
1.0
 40
1.0
 40
1.0
 10
-622.8038062748792
 20
219.373590277123
 30
0.0
 10
-621.2393250144992
 20
218.6915129279957
 30
0.0
 10
-618.109846892222
 20
217.3271334395026
 30
0.0
 10
-611.5385888525916
 20
214.7754194682635
 30
0.0
 10
-601.6280939463429
 20
211.1272535897959
 30
0.0
 10
-588.2166265139863
 20
206.4949130605152
 30
0.0
 10
-578.0790269041468
 20
203.1634615138538
 30
0.0
 10
-573.0088560584544
 20
201.4972851845652
 30
0.0
  0
LINE
  5
D3EA
330
A
100
AcDbEntity
  8
0
  6
Continuous
 62
     7
370
    15
100
AcDbLine
 10
-614.8364031162962
 20
226.2735638145722
 30
0.0
 11
-562.0088561180962
 21
211.0235645745722
 31
0.0
  0
SPLINE
  5
D3EB
330
A
100
AcDbEntity
  8
0
  6
Continuous
 62
     7
370
    15
100
AcDbSpline
210
0.0
220
0.0
230
1.0
 70
     8
 71
     3
 72
     9
 73
     5
 74
     0
 42
0.00000001
 43
0.00000001
 40
0.0
 40
0.0
 40
0.0
 40
0.0
 40
0.4918708131196827
 40
1.0
 40
1.0
 40
1.0
 40
1.0
 10
-573.0088560584544
 20
158.1960143501041
 30
0.0
 10
-573.2173726418688
 20
158.54466597864
 30
0.0
 10
-573.6412981480232
 20
159.253493620444
 30
0.0
 10
-573.8850160453635
 20
160.2750223994593
 30
0.0
 10
-574.0088562223671
 20
160.7940909873153
 30
0.0
  0
SPLINE
  5
D3EC
330
A
100
AcDbEntity
  8
0
  6
Continuous
 62
     7
370
    15
100
AcDbSpline
210
0.0
220
0.0
230
1.0
 70
     8
 71
     3
 72
    10
 73
     6
 74
     0
 42
0.00000001
 43
0.00000001
 40
0.0
 40
0.0
 40
0.0
 40
0.0
 40
0.035782284438057
 40
0.5177607383904463
 40
1.0
 40
1.0
 40
1.0
 40
1.0
 10
-604.2128344018754
 20
168.8105328460108
 30
0.0
 10
-603.8509890509148
 20
168.6766114202955
 30
0.0
 10
-598.61517699926
 20
166.7388017652227
 30
0.0
 10
-588.1982691193997
 20
163.2062439908864
 30
0.0
 10
-578.0729066692901
 20
159.8663920250695
 30
0.0
 10
-573.0088560584544
 20
158.1960143501041
 30
0.0
  0
ARC
  5
D3ED
330
A
100
AcDbEntity
  8
0
  6
Continuous
 62
     7
370
    15
100
AcDbCircle
 10
-624.1330591593962
 20
179.5363203633722
 30
0.0
 40
3.430241462251971
100
AcDbArc
 50
171.0384367598003
 51
237.8172787093986
  0
ARC
  5
D3EE
330
A
100
AcDbEntity
  8
0
  6
Continuous
 62
     7
370
    15
100
AcDbCircle
 10
-634.8100351157963
 20
206.5588031328722
 30
0.0
 40
5.949122708352036
100
AcDbArc
 50
187.2885736999998
 51
245.6847284387001
  0
SPLINE
  5
D3EF
330
A
100
AcDbEntity
  8
0
  6
Continuous
 62
     7
370
    15
100
AcDbSpline
210
0.0
220
0.0
230
1.0
 70
     8
 71
     3
 72
    15
 73
    11
 74
     0
 42
0.00000001
 43
0.00000001
 40
0.0
 40
0.0
 40
0.0
 40
0.0
 40
0.1045928156574798
 40
0.2360538199203923
 40
0.371336412679786
 40
0.5026504239387196
 40
0.6377632412259069
 40
0.7692624760742827
 40
0.9045477950425719
 40
1.0
 40
1.0
 40
1.0
 40
1.0
 10
-640.4070794693766
 20
209.5282104365978
 30
0.0
 10
-640.2696528994754
 20
210.2142480126441
 30
0.0
 10
-639.9594971150668
 20
211.7625550298773
 30
0.0
 10
-638.9048193029679
 20
213.9346739670699
 30
0.0
 10
-637.3567764574977
 20
215.9675780634965
 30
0.0
 10
-635.3547556530084
 20
217.6377557190654
 30
0.0
 10
-633.0068089876976
 20
218.8808836068237
 30
0.0
 10
-630.3261172710156
 20
219.6791772162986
 30
0.0
 10
-627.7008222446491
 20
220.0052182221883
 30
0.0
 10
-625.9376338744523
 20
219.9356211356577
 30
0.0
 10
-625.20823271409
 20
219.9068299999337
 30
0.0
  0
ARC
  5
D3F0
330
A
100
AcDbEntity
  8
0
  6
Continuous
 62
     7
370
    15
100
AcDbCircle
 10
-619.3462570427962
 20
213.0620875163722
 30
0.0
 40
13.96001033009444
100
AcDbArc
 50
71.15220858410025
 51
127.9405616090003
  0
ARC
  5
D3F1
330
A
100
AcDbEntity
  8
0
  6
Continuous
 62
     7
370
    15
100
AcDbCircle
 10
-634.8379346522963
 20
196.9997425676722
 30
0.0
 40
5.907773636679414
100
AcDbArc
 50
186.0897053907003
 51
245.8003988608002
  0
ARC
  5
D3F2
330
A
100
AcDbEntity
  8
0
  6
Continuous
 62
     7
370
    15
100
AcDbCircle
 10
-473.7749501743963
 20
150.0609980934722
 30
0.0
 40
13.7802033660772
100
AcDbArc
 50
6.936077860799987
 51
73.38131094240008
  0
ARC
  5
D3F3
330
A
100
AcDbEntity
  8
0
  6
Continuous
 62
     7
370
    15
100
AcDbCircle
 10
-438.9255297964963
 20
154.5769002736722
 30
0.0
 40
32.10629986562557
100
AcDbArc
 50
143.3915510367
 51
164.2986766595999
  0
SPLINE
  5
D3F4
330
A
100
AcDbEntity
  8
0
  6
Continuous
 62
     7
370
    15
100
AcDbSpline
210
0.0
220
0.0
230
1.0
 70
     8
 71
     3
 72
    16
 73
    12
 74
     0
 42
0.00000001
 43
0.00000001
 40
0.0
 40
0.0
 40
0.0
 40
0.0
 40
0.1081837447303958
 40
0.2163660725170638
 40
0.3343559570413248
 40
0.4523437031357241
 40
0.5698707620914601
 40
0.6873969561707194
 40
0.804579614645646
 40
0.921762790076269
 40
1.0
 40
1.0
 40
1.0
 40
1.0
 10
-464.6982053054402
 20
173.7232756009577
 30
0.0
 10
-463.8967393015536
 20
173.2802144399064
 30
0.0
 10
-462.2938177910343
 20
172.3940979208266
 30
0.0
 10
-459.8616509011696
 20
170.5885510380733
 30
0.0
 10
-457.4959306549619
 20
168.4140014586013
 30
0.0
 10
-455.2818194383697
 20
165.8756845449998
 30
0.0
 10
-453.368735420469
 20
163.1023336077132
 30
0.0
 10
-451.7982376121072
 20
160.1796466849343
 30
0.0
 10
-450.6378195843423
 20
157.1851677062049
 30
0.0
 10
-449.954210826484
 20
154.5258220406132
 30
0.0
 10
-449.7795548053948
 20
152.9255330625804
 30
0.0
 10
-449.7096306786891
 20
152.2848519765926
 30
0.0
  0
ARC
  5
D3F5
330
A
100
AcDbEntity
  8
0
  6
Continuous
 62
     7
370
    15
100
AcDbCircle
 10
-456.0166988556963
 20
172.6771868598722
 30
0.0
 40
21.34540772578383
100
AcDbArc
 50
258.9835856746999
 51
287.1861176782999
  0
ARC
  5
D3F6
330
A
100
AcDbEntity
  8
0
  6
Continuous
 62
     7
370
    15
100
AcDbCircle
 10
-465.8087711659963
 20
157.6110992708722
 30
0.0
 40
24.6405286555178
100
AcDbArc
 50
2.830899995399987
 51
72.79137102690005
  0
LINE
  5
D3F7
330
A
100
AcDbEntity
  8
0
  6
Continuous
 62
     7
370
    15
100
AcDbLine
 10
-449.7096306786964
 20
152.2848519765722
 30
0.0
 11
-449.6657279991963
 21
151.4950593882722
 31
0.0
  0
LINE
  5
D3F8
330
A
100
AcDbEntity
  8
0
  6
Continuous
 62
     7
370
    15
100
AcDbLine
 10
-466.4862267247963
 20
174.2485919609722
 30
0.0
 11
-464.6982053053963
 21
173.7232756009722
 31
0.0
  0
LINE
  5
D3F9
330
A
100
AcDbEntity
  8
0
  6
Continuous
 62
     7
370
    15
100
AcDbLine
 10
-460.0955972588963
 20
142.1988426837722
 30
0.0
 11
-460.0955972588963
 21
151.7251220738722
 31
0.0
  0
ARC
  5
D3FA
330
A
100
AcDbEntity
  8
0
  6
Continuous
 62
     7
370
    15
100
AcDbCircle
 10
-466.9621800304964
 20
141.0435884204722
 30
0.0
 40
6.963086339557906
100
AcDbArc
 50
260.5314690993001
 51
9.550174121600017
  0
LINE
  5
D3FB
330
A
100
AcDbEntity
  8
0
  6
Continuous
 62
     7
370
    15
100
AcDbLine
 10
-468.1076486350963
 20
134.1753664491722
 30
0.0
 11
-523.3463706687962
 21
146.1690911512722
 31
0.0
  0
LINE
  5
D3FC
330
A
100
AcDbEntity
  8
0
  6
Continuous
 62
     7
370
    15
100
AcDbLine
 10
-523.3463706687962
 20
146.1690911512722
 30
0.0
 11
-523.3463706687962
 21
151.3652436190722
 31
0.0
  0
LINE
  5
D3FD
330
A
100
AcDbEntity
  8
0
  6
Continuous
 62
     7
370
    15
100
AcDbLine
 10
-523.3463706687962
 20
151.3652436190722
 30
0.0
 11
-538.8473417013963
 21
155.8399885182722
 31
0.0
  0
LINE
  5
D3FE
330
A
100
AcDbEntity
  8
0
  6
Continuous
 62
     7
370
    15
100
AcDbLine
 10
-538.8473417013963
 20
155.8399885182722
 30
0.0
 11
-538.8473417013963
 21
181.8207500510722
 31
0.0
  0
LINE
  5
D3FF
330
A
100
AcDbEntity
  8
0
  6
Continuous
 62
     7
370
    15
100
AcDbLine
 10
-538.8473417013963
 20
181.8207500510722
 30
0.0
 11
-523.3463706687962
 21
177.3460051518722
 31
0.0
  0
LINE
  5
D400
330
A
100
AcDbEntity
  8
0
  6
Continuous
 62
     7
370
    15
100
AcDbLine
 10
-523.3463706687962
 20
177.3460051518722
 30
0.0
 11
-523.3463706687962
 21
182.5421576197722
 31
0.0
  0
LINE
  5
D401
330
A
100
AcDbEntity
  8
0
  6
Continuous
 62
     7
370
    15
100
AcDbLine
 10
-469.8337990139963
 20
163.2655932156722
 30
0.0
 11
-523.3463706687962
 21
182.5421576197722
 31
0.0
  0
SPLINE
  5
D402
330
A
100
AcDbEntity
  8
0
  6
Continuous
 62
     7
370
    15
100
AcDbSpline
210
0.0
220
0.0
230
1.0
 70
     8
 71
     3
 72
     9
 73
     5
 74
     0
 42
0.00000001
 43
0.00000001
 40
0.0
 40
0.0
 40
0.0
 40
0.0
 40
0.4918708131196827
 40
1.0
 40
1.0
 40
1.0
 40
1.0
 10
-522.3463705048753
 20
186.8722853484779
 30
0.0
 10
-522.5548870882897
 20
186.1624724032476
 30
0.0
 10
-522.9788125944442
 20
184.7193842461595
 30
0.0
 10
-523.2225304917843
 20
183.2757236862371
 30
0.0
 10
-523.346370668788
 20
182.5421576197926
 30
0.0
  0
SPLINE
  5
D403
330
A
100
AcDbEntity
  8
0
  6
Continuous
 62
     7
370
    15
100
AcDbSpline
210
0.0
220
0.0
230
1.0
 70
     8
 71
     3
 72
    12
 73
     8
 74
     0
 42
0.00000001
 43
0.00000001
 40
0.0
 40
0.0
 40
0.0
 40
0.0
 40
0.1014880547880107
 40
0.2030095566976617
 40
0.4067497406903752
 40
0.7032946373191057
 40
1.0
 40
1.0
 40
1.0
 40
1.0
 10
-466.4862267247506
 20
174.2485919609539
 30
0.0
 10
-468.449859978321
 20
174.5849935440073
 30
0.0
 10
-472.3777736343346
 20
175.2579075770005
 30
0.0
 10
-480.0831008987191
 20
176.8274887899523
 30
0.0
 10
-491.3571570077884
 20
179.2947760271624
 30
0.0
 10
-506.0863398786412
 20
182.7859415117464
 30
0.0
 10
-516.9253830253326
 20
185.5099251361738
 30
0.0
 10
-522.3463705048753
 20
186.8722853484779
 30
0.0
  0
LINE
  5
D404
330
A
100
AcDbEntity
  8
0
  6
Continuous
 62
     7
370
    15
100
AcDbLine
 10
-511.3463705644962
 20
196.3985647384722
 30
0.0
 11
-522.3463705048962
 21
186.8722853484722
 31
0.0
  0
LINE
  5
D405
330
A
100
AcDbEntity
  8
0
  6
Continuous
 62
     7
370
    15
100
AcDbLine
 10
-511.3463705644962
 20
196.3985647384722
 30
0.0
 11
-458.5188235661964
 21
181.1485654984722
 31
0.0
  0
LINE
  5
D406
330
A
100
AcDbEntity
  8
0
  6
Continuous
 62
     7
370
    15
100
AcDbLine
 10
-449.6657279991963
 20
142.8348055439722
 30
0.0
 11
-449.6657279991963
 21
151.4950593882722
 31
0.0
  0
LINE
  5
D407
330
A
100
AcDbEntity
  8
0
  6
Continuous
 62
     7
370
    15
100
AcDbLine
 10
-449.6657279991963
 20
142.8348055439722
 30
0.0
 11
-449.6659834417964
 21
142.7734898815722
 31
0.0
  0
ARC
  5
D408
330
A
100
AcDbEntity
  8
0
  6
Continuous
 62
     7
370
    15
100
AcDbCircle
 10
-456.0175666540963
 20
163.1181956244722
 30
0.0
 40
21.31313353472508
100
AcDbArc
 50
258.9690713374001
 51
287.3382767671999
  0
SPLINE
  5
D409
330
A
100
AcDbEntity
  8
0
  6
Continuous
 62
     7
370
    15
100
AcDbSpline
210
0.0
220
0.0
230
1.0
 70
     8
 71
     3
 72
    15
 73
    11
 74
     0
 42
0.00000001
 43
0.00000001
 40
0.0
 40
0.0
 40
0.0
 40
0.0
 40
0.1315671337753713
 40
0.2663155136161827
 40
0.4097864539836635
 40
0.5574281132526305
 40
0.7007386317168518
 40
0.8481950052671728
 40
0.9917076688671664
 40
1.0
 40
1.0
 40
1.0
 40
1.0
 10
-449.6659834418074
 20
142.7734898815572
 30
0.0
 10
-449.73496201819
 20
141.8889463190948
 30
0.0
 10
-449.8745870481708
 20
140.0984712483582
 30
0.0
 10
-450.5712848475307
 20
137.5913135173247
 30
0.0
 10
-451.664992683606
 20
135.2647194332807
 30
0.0
 10
-453.1848512877303
 20
133.2760637049482
 30
0.0
 10
-455.0652104361485
 20
131.6912386244217
 30
0.0
 10
-457.23638377533
 20
130.6623970879676
 30
0.0
 10
-458.8524221220863
 20
130.1505665112602
 30
0.0
 10
-459.7349684901988
 20
130.1443511836193
 30
0.0
 10
-459.7831774884424
 20
130.1440116720308
 30
0.0
  0
LWPOLYLINE
  5
D40A
330
A
100
AcDbEntity
  8
0
  6
Continuous
 62
     7
370
    15
100
AcDbPolyline
 90
        8
 70
   128
 43
0.0
 10
-468.1076486350963
 20
134.1753664491722
 10
-467.8525733517963
 20
133.1641403049722
 10
-467.5135044136963
 20
132.2879832938722
 10
-467.0953997166963
 20
131.5597070435722
 10
-466.6043719963964
 20
130.9899584040722
 10
-466.0476003529964
 20
130.5870670104722
 10
-465.4332247783964
 20
130.3569253081722
 10
-465.3467165527964
 20
130.3393711722722
  0
LINE
  5
D40B
330
A
100
AcDbEntity
  8
0
  6
Continuous
 62
     7
370
    15
100
AcDbLine
 10
-441.1983126514963
 20
158.8280561837722
 30
0.0
 11
-441.1983126514963
 21
150.1678023394722
 31
0.0
  0
ARC
  5
D40C
330
A
100
AcDbEntity
  8
0
  6
Continuous
 62
     7
370
    15
100
AcDbCircle
 10
-454.2322228429963
 20
149.6708511365722
 30
0.0
 40
13.0433805195556
100
AcDbArc
 50
312.4672214473997
 51
2.183490670399933
  0
SPLINE
  5
D40D
330
A
100
AcDbEntity
  8
0
  6
Continuous
 62
     7
370
    15
100
AcDbSpline
210
0.0
220
0.0
230
1.0
 70
     8
 71
     3
 72
    10
 73
     6
 74
     0
 42
0.00000001
 43
0.00000001
 40
0.0
 40
0.0
 40
0.0
 40
0.0
 40
0.1559387658139179
 40
0.5778552294178464
 40
1.0
 40
1.0
 40
1.0
 40
1.0
 10
-483.4337929911907
 20
134.2933718806839
 30
0.0
 10
-485.491699327435
 20
134.7373262980785
 30
0.0
 10
-493.1175897328384
 20
136.382468097012
 30
0.0
 10
-506.0793296650555
 20
139.4926108407709
 30
0.0
 10
-516.9230458661382
 20
142.2113015000993
 30
0.0
 10
-522.3463705048753
 20
143.5710145140168
 30
0.0
  0
ARC
  5
D40E
330
A
100
AcDbEntity
  8
0
  6
Continuous
 62
     7
370
    15
100
AcDbCircle
 10
-516.4991114036964
 20
147.3131140312722
 30
0.0
 40
6.94217169144757
100
AcDbArc
 50
189.4852228579001
 51
212.6182260128004
  0
ARC
  5
D40F
330
A
100
AcDbEntity
  8
0
  6
Continuous
 62
     7
370
    15
100
AcDbCircle
 10
-528.6072578437963
 20
200.5527112269722
 30
0.0
 40
20.14655526613584
100
AcDbArc
 50
261.2660685564001
 51
285.4401292928001
  0
LWPOLYLINE
  5
D410
330
A
100
AcDbEntity
  8
0
  6
Continuous
 62
     7
370
    15
100
AcDbPolyline
 90
        3
 70
   128
 43
0.0
 10
-540.0198708426963
 20
182.7654478870722
 10
-539.8336286125963
 20
182.5876280077722
 10
-538.8473417013963
 20
181.8207500510722
  0
ARC
  5
D411
330
A
100
AcDbEntity
  8
0
  6
Continuous
 62
     7
370
    15
100
AcDbCircle
 10
-536.7369937777962
 20
159.9637900770722
 30
0.0
 40
4.632419201111655
100
AcDbArc
 50
184.5675572428999
 51
242.8989864647992
  0
ARC
  5
D412
330
A
100
AcDbEntity
  8
0
  6
Continuous
 62
     7
370
    15
100
AcDbCircle
 10
-529.6939697609962
 20
202.4488587937722
 30
0.0
 40
12.93206209255515
100
AcDbArc
 50
252.3978385146
 51
302.8636357651993
  0
ARC
  5
D413
330
A
100
AcDbEntity
  8
0
  6
Continuous
 62
     7
370
    15
100
AcDbCircle
 10
-529.6528925747963
 20
202.3953692771722
 30
0.0
 40
17.32590670878779
100
AcDbArc
 50
253.3931032738001
 51
295.0859461213999
  0
ELLIPSE
  5
D414
330
A
100
AcDbEntity
  8
0
  6
Continuous
 62
     7
370
    15
100
AcDbEllipse
 10
-529.6047007109962
 20
178.6041470140722
 30
0.0
 11
9.994815631705137
 21
7.517679187993735
 31
0.0
210
0.0
220
0.0
230
1.0
 40
0.0428275111
 41
5.083883508813446
 42
5.364949998960216
  0
ARC
  5
D415
330
A
100
AcDbEntity
  8
0
  6
Continuous
 62
     7
370
    15
100
AcDbCircle
 10
-529.5865704127963
 20
199.5287344330722
 30
0.0
 40
19.00112274387273
100
AcDbArc
 50
254.6867241338
 51
281.8752324938998
  0
LWPOLYLINE
  5
D416
330
A
100
AcDbEntity
  8
0
  6
Continuous
 62
     7
370
    15
100
AcDbPolyline
 90
       28
 70
   128
 43
0.0
 10
-531.7047011871963
 20
191.7677335088722
 10
-530.3828809267962
 20
191.4826448628722
 10
-528.9651986639963
 20
191.3576569905722
 10
-527.5280817588963
 20
191.3995081392722
 10
-526.1490065134963
 20
191.6059424036722
 10
-524.9023175584963
 20
191.9658303321722
 10
-523.8552251283963
 20
192.4597706409722
 10
-523.0641790337963
 20
193.0611349693722
 10
-522.5718222052963
 20
193.7375029201722
 10
-522.4047008272962
 20
194.4524123108722
 10
-522.5718222725964
 20
195.1673214324722
 10
-523.0641776957962
 20
195.8436895624722
 10
-523.8552257923964
 20
196.4450539621722
 10
-524.9023176586963
 20
196.9389940736722
 10
-526.1490069138963
 20
197.2988822622722
 10
-527.5280822159963
 20
197.5053162845722
 10
-528.9651983453963
 20
197.5471674927722
 10
-530.3828808292963
 20
197.4221798126722
 10
-531.7047004732963
 20
197.1370909604722
 10
-532.8593991718963
 20
196.7072705856722
 10
-533.7847252195963
 20
196.1558900824722
 10
-534.4307949363963
 20
195.5126746786722
 10
-534.7627784320963
 20
194.8123002019722
 10
-534.7627781317963
 20
194.0925240849722
 10
-534.4307943368963
 20
193.3921496217722
 10
-533.7847258132963
 20
192.7489346390722
 10
-532.8593993366962
 20
192.1975541481722
 10
-531.7047011871963
 20
191.7677335088722
  0
LWPOLYLINE
  5
D417
330
A
100
AcDbEntity
  8
0
  6
Continuous
 62
     7
370
    15
100
AcDbPolyline
 90
       28
 70
   128
 43
0.0
 10
-562.0155896420963
 20
200.5177333132722
 10
-560.6937701882963
 20
200.2326449001722
 10
-559.2760879254963
 20
200.1076570278722
 10
-557.8389710203962
 20
200.1495081765722
 10
-556.4598949683963
 20
200.3559422080722
 10
-555.2132068199962
 20
200.7158303693722
 10
-554.1661143898963
 20
201.2097706781722
 10
-553.3750674886962
 20
201.8111347737722
 10
-552.8827114667963
 20
202.4875029573722
 10
-552.7155900888963
 20
203.2024123481722
 10
-552.8827115341962
 20
203.9173214696722
 10
-553.3750677638963
 20
204.5936898325722
 10
-554.1661142473963
 20
205.1950537665722
 10
-555.2132069201963
 20
205.6889941109722
 10
-556.4598961753964
 20
206.0488822994722
 10
-557.8389714774962
 20
206.2553163218722
 10
-559.2760876068962
 20
206.2971675299722
 10
-560.6937692842962
 20
206.1721796170722
 10
-562.0155905413963
 20
205.8870912304722
 10
-563.1702876268962
 20
205.4572703900722
 10
-564.0956144810963
 20
204.9058901197722
 10
-564.7416833913962
 20
204.2626744831722
 10
-565.0736668869963
 20
203.5623000063722
 10
-565.0736681998962
 20
202.8425243550722
 10
-564.7416835983963
 20
202.1421496590722
 10
-564.0956134616963
 20
201.4989342106722
 10
-563.1702885982963
 20
200.9475541854722
 10
-562.0155896420963
 20
200.5177333132722
  0
LWPOLYLINE
  5
D418
330
A
100
AcDbEntity
  8
0
  6
Continuous
 62
     7
370
    15
100
AcDbPolyline
 90
        9
 70
   128
 43
0.0
 10
-524.3547008671962
 20
198.1330205037722
 10
-523.0799340046963
 20
197.6762775814722
 10
-522.0078739412963
 20
197.1039644581722
 10
-521.1797191344963
 20
196.4380734420722
 10
-520.6272936401963
 20
195.7041946716722
 10
-520.3718293191962
 20
194.9305311593722
 10
-520.4231412335962
 20
194.1468136034722
 10
-520.7792595924964
 20
193.3831606823722
 10
-521.4264967203962
 20
192.6689183710722
  0
LINE
  5
D419
330
A
100
AcDbEntity
  8
0
  6
Continuous
 62
     7
370
    15
100
AcDbLine
 10
-521.4264967203962
 20
192.6689183710722
 30
0.0
 11
-522.6764967796962
 21
191.5863865649722
 31
0.0
  0
LINE
  5
D41A
330
A
100
AcDbEntity
  8
0
  6
Continuous
 62
     7
370
    15
100
AcDbLine
 10
-573.0088560584963
 20
201.4972851845722
 30
0.0
 11
-533.6047009863962
 21
190.1222854155722
 31
0.0
  0
LINE
  5
D41B
330
A
100
AcDbEntity
  8
0
  6
Continuous
 62
     7
370
    15
100
AcDbLine
 10
-573.0088560584963
 20
201.4972851845722
 30
0.0
 11
-562.7588562409962
 21
210.3740454152722
 31
0.0
  0
LINE
  5
D41C
330
A
100
AcDbEntity
  8
0
  6
Continuous
 62
     7
370
    15
100
AcDbLine
 10
-562.7588562409962
 20
210.3740454152722
 30
0.0
 11
-531.8399822711963
 21
201.4485353105722
 31
0.0
  0
ARC
  5
D41D
330
A
100
AcDbEntity
  8
0
  6
Continuous
 62
     7
370
    15
100
AcDbCircle
 10
-517.1985758805963
 20
224.3964071657722
 30
0.0
 40
27.22086706514818
100
AcDbArc
 50
237.4609459279
 51
254.7583179681
  0
LINE
  5
D41E
330
A
100
AcDbEntity
  8
0
  6
Continuous
 62
     7
370
    15
100
AcDbLine
 10
-574.0088562223963
 20
197.1671574558722
 30
0.0
 11
-534.6047011502963
 21
185.7921576868722
 31
0.0
  0
LWPOLYLINE
  5
D41F
330
A
100
AcDbEntity
  8
0
  6
Continuous
 62
     7
370
    15
100
AcDbPolyline
 90
       15
 70
   128
 43
0.0
 10
-522.4198403496962
 20
194.2359051013722
 10
-522.5718222725964
 20
194.7343078530722
 10
-523.0641776957962
 20
195.4106759830722
 10
-523.8552257923964
 20
196.0120403827722
 10
-524.9023176586963
 20
196.5059804942722
 10
-526.1490069138963
 20
196.8658686827722
 10
-527.5280822159963
 20
197.0723027051722
 10
-528.9651983453963
 20
197.1141539133722
 10
-530.3828808292963
 20
196.9891662331722
 10
-531.7047004732963
 20
196.7040773809722
 10
-532.8593991718963
 20
196.2742570062722
 10
-533.7847252195963
 20
195.7228765030722
 10
-534.4307949363963
 20
195.0796610992722
 10
-534.7627784320963
 20
194.3792866225722
 10
-534.7895611008962
 20
194.2359049727722
  0
LINE
  5
D420
330
A
100
AcDbEntity
  8
0
  6
Continuous
 62
     7
370
    15
100
AcDbLine
 10
-546.2960435980963
 20
184.5772226330722
 30
0.0
 11
-546.2960435980963
 21
157.3840259814722
 31
0.0
  0
LINE
  5
D421
330
A
100
AcDbEntity
  8
0
  6
Continuous
 62
     7
370
    15
100
AcDbLine
 10
-534.6047011502963
 20
154.0090261267722
 30
0.0
 11
-546.2960435980963
 21
157.3840259814722
 31
0.0
  0
LINE
  5
D422
330
A
100
AcDbEntity
  8
0
  6
Continuous
 62
     7
370
    15
100
AcDbLine
 10
-574.0088562223963
 20
160.7940909872722
 30
0.0
 11
-534.6047011502963
 21
149.4190912182722
 31
0.0
  0
LINE
  5
D423
330
A
100
AcDbEntity
  8
0
  6
Continuous
 62
     7
370
    15
100
AcDbLine
 10
-574.0088562223963
 20
160.7940909872722
 30
0.0
 11
-574.0088562223963
 21
165.7737366654722
 31
0.0
  0
LINE
  5
D424
330
A
100
AcDbEntity
  8
0
  6
Continuous
 62
     7
370
    15
100
AcDbLine
 10
-551.9252088387963
 20
159.3987367846722
 30
0.0
 11
-574.0088562223963
 21
165.7737366654722
 31
0.0
  0
LINE
  5
D425
330
A
100
AcDbEntity
  8
0
  6
Continuous
 62
     7
370
    15
100
AcDbLine
 10
-551.9252088387963
 20
185.8125118969722
 30
0.0
 11
-551.9252088387963
 21
159.3987367846722
 31
0.0
  0
LINE
  5
D426
330
A
100
AcDbEntity
  8
0
  6
Continuous
 62
     7
370
    15
100
AcDbLine
 10
-574.0088562223963
 20
192.1875117776722
 30
0.0
 11
-551.9252088387963
 21
185.8125118969722
 31
0.0
  0
LINE
  5
D427
330
A
100
AcDbEntity
  8
0
  6
Continuous
 62
     7
370
    15
100
AcDbLine
 10
-574.0088562223963
 20
192.1875117776722
 30
0.0
 11
-574.0088562223963
 21
197.1671574558722
 31
0.0
  0
LINE
  5
D428
330
A
100
AcDbEntity
  8
0
  6
Continuous
 62
     7
370
    15
100
AcDbLine
 10
-546.2960435980963
 20
184.5772226330722
 30
0.0
 11
-534.6047011502963
 21
181.2022227783722
 31
0.0
  0
ARC
  5
D429
330
A
100
AcDbEntity
  8
0
  6
Continuous
 62
     7
370
    15
100
AcDbCircle
 10
-520.9510528134963
 20
191.2026033449722
 30
0.0
 40
2.59472257078545
100
AcDbArc
 50
335.4536656363002
 51
19.04865375210018
  0
ARC
  5
D42A
330
A
100
AcDbEntity
  8
0
  6
Continuous
 62
     7
370
    15
100
AcDbCircle
 10
-527.4743875436963
 20
180.0737205768722
 30
0.0
 40
15.82260593440069
100
AcDbArc
 50
167.134594153
 51
179.3721713479001
  0
LINE
  5
D42B
330
A
100
AcDbEntity
  8
0
  6
Continuous
 62
     7
370
    15
100
AcDbLine
 10
-543.2960435719963
 20
166.9103049681722
 30
0.0
 11
-543.2960435719963
 21
180.2470961142722
 31
0.0
  0
LWPOLYLINE
  5
D42C
330
A
100
AcDbEntity
  8
0
  6
Continuous
 62
     7
370
    15
100
AcDbPolyline
 90
        7
 70
   128
 43
0.0
 10
-541.3547006174963
 20
162.6513722278722
 10
-541.5183244477962
 20
162.6892641019722
 10
-542.1244706231962
 20
163.0259374186722
 10
-542.6219220244963
 20
163.6450078405722
 10
-542.9915616260962
 20
164.5226851965722
 10
-543.2191847794963
 20
165.6252413209722
 10
-543.2960435719963
 20
166.9103049681722
  0
LINE
  5
D42D
330
A
100
AcDbEntity
  8
0
  6
Continuous
 62
     7
370
    15
100
AcDbLine
 10
-546.2960435980963
 20
157.3840259814722
 30
0.0
 11
-541.3547006174963
 21
161.6633545314722
 31
0.0
  0
LINE
  5
D42E
330
A
100
AcDbEntity
  8
0
  6
Continuous
 62
     7
370
    15
100
AcDbLine
 10
-541.3547006635963
 20
162.7613251692722
 30
0.0
 11
-541.7266509928963
 21
162.7670358386722
 31
0.0
  0
ARC
  5
D42F
330
A
100
AcDbEntity
  8
0
  6
Continuous
 62
     7
370
    15
100
AcDbCircle
 10
-537.4190696403963
 20
182.1648193758722
 30
0.0
 40
4.714314040702357
100
AcDbArc
 50
165.6515217472997
 51
213.4022956218997
  0
LWPOLYLINE
  5
D430
330
A
100
AcDbEntity
  8
0
  6
Continuous
 62
     7
370
    15
100
AcDbPolyline
 90
        8
 70
   128
 43
0.0
 10
-541.3547006635963
 20
171.9503831924722
 10
-541.4823907511962
 20
171.5916985988722
 10
-541.8316066232962
 20
170.3361625596722
 10
-542.0330031509963
 20
169.0881627631722
 10
-542.0739258141963
 20
167.9261156846722
 10
-541.9518032311962
 20
166.9230373994722
 10
-541.6743089179963
 20
166.1419545707722
 10
-541.3547006635963
 20
165.7131162938722
  0
ARC
  5
D431
330
A
100
AcDbEntity
  8
0
  6
Continuous
 62
     7
370
    15
100
AcDbCircle
 10
-529.6247442694962
 20
166.6184641515722
 30
0.0
 40
17.90582027817329
100
AcDbArc
 50
253.8520004015999
 51
290.5260466819996
  0
ARC
  5
D432
330
A
100
AcDbEntity
  8
0
  6
Continuous
 62
     7
370
    15
100
AcDbCircle
 10
-529.7592469278964
 20
171.2935555317722
 30
0.0
 40
17.95086024047029
100
AcDbArc
 50
254.3399697235002
 51
268.5398844389002
  0
LWPOLYLINE
  5
D433
330
A
100
AcDbEntity
  8
0
  6
Continuous
 62
     7
370
    15
100
AcDbPolyline
 90
       15
 70
   128
 43
0.0
 10
-552.7307296111962
 20
202.9859051385722
 10
-552.8827115341962
 20
203.4843078902722
 10
-553.3750677638963
 20
204.1606762531722
 10
-554.1661142473963
 20
204.7620401871722
 10
-555.2132069201963
 20
205.2559805315722
 10
-556.4598961753964
 20
205.6158687200722
 10
-557.8389714774962
 20
205.8223027424722
 10
-559.2760876068962
 20
205.8641539505722
 10
-560.6937692842962
 20
205.7391660376722
 10
-562.0155905413963
 20
205.4540776510722
 10
-563.1702876268962
 20
205.0242568106722
 10
-564.0956144810963
 20
204.4728765403722
 10
-564.7416833913962
 20
203.8296609036722
 10
-565.0736668869963
 20
203.1292864269722
 10
-565.1004511688963
 20
202.9859052428722
  0
ARC
  5
D434
330
A
100
AcDbEntity
  8
0
  6
Continuous
 62
     7
370
    15
100
AcDbCircle
 10
-529.6591097094963
 20
159.7926975979722
 30
0.0
 40
13.55847523926595
100
AcDbArc
 50
253.0818347590001
 51
297.7486419879999
  0
LINE
  5
D435
330
A
100
AcDbEntity
  8
0
  6
Continuous
 62
     7
370
    15
100
AcDbLine
 10
-533.6047009863962
 20
146.8210145810722
 30
0.0
 11
-573.0088560584963
 21
158.1960143500722
 31
0.0
  0
ARC
  5
D436
330
A
100
AcDbEntity
  8
0
  6
Continuous
 62
     7
370
    15
100
AcDbCircle
 10
-567.1615969572963
 20
161.9381138673722
 30
0.0
 40
6.942171691447569
100
AcDbArc
 50
189.4852228578999
 51
212.6182260127999
  0
LINE
  5
D437
330
A
100
AcDbEntity
  8
0
  6
Continuous
 62
     7
370
    15
100
AcDbLine
 10
-574.0088562223963
 20
165.7737366654722
 30
0.0
 11
-573.8213563080963
 21
165.9361163544722
 31
0.0
  0
LINE
  5
D438
330
A
100
AcDbEntity
  8
0
  6
Continuous
 62
     8
370
     0
100
AcDbLine
 10
-564.2899445986963
 20
211.6820580987722
 30
0.0
 11
-564.0399445576963
 21
211.8985644851722
 31
0.0
  0
LINE
  5
D439
330
A
100
AcDbEntity
  8
0
  6
Continuous
 62
     8
370
     0
100
AcDbLine
 10
-614.0864029933963
 20
226.0570574281722
 30
0.0
 11
-613.8364029523963
 21
226.2735638145722
 31
0.0
  0
LINE
  5
D43A
330
A
100
AcDbEntity
  8
0
  6
Continuous
 62
     8
370
     0
100
AcDbLine
 10
-441.2254239928964
 20
159.8045790999722
 30
0.0
 11
-441.0643396463963
 21
159.9440822361722
 31
0.0
  0
LINE
  5
D43B
330
A
100
AcDbEntity
  8
0
  6
Continuous
 62
     8
370
     0
100
AcDbLine
 10
-457.7823881565963
 20
180.9203117256722
 30
0.0
 11
-457.5188234022963
 21
181.1485654984722
 31
0.0
  0
LINE
  5
D43C
330
A
100
AcDbEntity
  8
0
  6
Continuous
 62
     8
370
     0
100
AcDbLine
 10
-507.3152817969963
 20
195.5235648278722
 30
0.0
 11
-507.5652818379962
 21
195.3070584414722
 31
0.0
  0
LINE
  5
D43D
330
A
100
AcDbEntity
  8
0
  6
Continuous
 62
     8
370
     0
100
AcDbLine
 10
-441.1983145896963
 20
151.1678026874722
 30
0.0
 11
-441.0643396463963
 21
151.2838283918722
 31
0.0
  0
LINE
  5
D43E
330
A
100
AcDbEntity
  8
0
  6
Continuous
 62
     8
370
     0
100
AcDbLine
 10
-551.8796910709963
 20
208.5325389952722
 30
0.0
 11
-552.3796911529962
 21
208.0995262224722
 31
0.0
  0
LINE
  5
D43F
330
A
100
AcDbEntity
  8
0
  6
Continuous
 62
     8
370
     0
100
AcDbLine
 10
-554.1117422444963
 20
210.3315773958722
 30
0.0
 11
-553.6117421624963
 21
210.7645901687722
 31
0.0
  0
LINE
  5
D440
330
A
100
AcDbEntity
  8
0
  6
Continuous
 62
     8
370
     0
100
AcDbLine
 10
-606.0113520007963
 20
225.8910545915722
 30
0.0
 11
-606.5113520827963
 21
225.4580418186722
 31
0.0
  0
LINE
  5
D441
330
A
100
AcDbEntity
  8
0
  6
Continuous
 62
     8
370
     0
100
AcDbLine
 10
-458.3438750690964
 20
183.2631258129722
 30
0.0
 11
-458.8438751510963
 21
182.8301130401722
 31
0.0
  0
LINE
  5
D442
330
A
100
AcDbEntity
  8
0
  6
Continuous
 62
     8
370
     0
100
AcDbLine
 10
-444.0493144218964
 20
171.2449870146722
 30
0.0
 11
-443.5493143399964
 21
171.6779997875722
 31
0.0
  0
LINE
  5
D443
330
A
100
AcDbEntity
  8
0
  6
Continuous
 62
     8
370
     0
100
AcDbLine
 10
-443.1935036316963
 20
170.5236357029722
 30
0.0
 11
-443.6935037135963
 21
170.0906229301722
 31
0.0
  0
LINE
  5
D444
330
A
100
AcDbEntity
  8
0
  6
Continuous
 62
     8
370
     0
100
AcDbLine
 10
-510.7434849074962
 20
198.3895902357722
 30
0.0
 11
-511.2434849893962
 21
197.9565774629722
 31
0.0
  0
LINE
  5
D445
330
A
100
AcDbEntity
  8
0
  6
Continuous
 62
     8
370
     0
100
AcDbLine
 10
-433.8030104562963
 20
165.2379997761722
 30
0.0
 11
-436.8030100166964
 21
162.6399239454722
 31
0.0
  0
LINE
  5
D446
330
A
100
AcDbEntity
  8
0
  6
Continuous
 62
     8
370
     0
100
AcDbLine
 10
-454.1235209314964
 20
184.9604332600722
 30
0.0
 11
-451.1235213710963
 21
187.5585090907722
 31
0.0
  0
LINE
  5
D447
330
A
100
AcDbEntity
  8
0
  6
Continuous
 62
     8
370
     0
100
AcDbLine
 10
-436.8030100166964
 20
153.9796701011722
 30
0.0
 11
-433.8030104562963
 21
156.5777459318722
 31
0.0
  0
LINE
  5
D448
330
A
100
AcDbEntity
  8
0
  6
Continuous
 62
     8
370
     0
100
AcDbLine
 10
-513.9720619134962
 20
200.6994665235722
 30
0.0
 11
-515.8278301767962
 21
199.0923240639722
 31
0.0
  0
LINE
  5
D449
330
A
100
AcDbEntity
  8
0
  6
Continuous
 62
     8
370
     0
100
AcDbLine
 10
-513.5778302736962
 20
197.2867165094722
 30
0.0
 11
-515.8278301767962
 21
195.3381594347722
 31
0.0
  0
LINE
  5
D44A
330
A
100
AcDbEntity
  8
0
  6
Continuous
 62
     8
370
     0
100
AcDbLine
 10
-607.4317062382963
 20
232.6807953955722
 30
0.0
 11
-610.4317057987962
 21
230.0827195649722
 31
0.0
  0
LINE
  5
D44B
330
A
100
AcDbEntity
  8
0
  6
Continuous
 62
     8
370
     0
100
AcDbLine
 10
-606.0051318948963
 20
226.7552845473722
 30
0.0
 11
-605.9176313449963
 21
226.8310622463722
 31
0.0
  0
LINE
  5
D44C
330
A
100
AcDbEntity
  8
0
  6
Continuous
 62
     8
370
     0
100
AcDbLine
 10
-458.3500951750964
 20
184.1309469486722
 30
0.0
 11
-458.2625946252963
 21
184.2067246476722
 31
0.0
  0
LINE
  5
D44D
330
A
100
AcDbEntity
  8
0
  6
Continuous
 62
     8
370
     0
100
AcDbLine
 10
-614.8364031162962
 20
226.2735638145722
 30
0.0
 11
-622.8038062748963
 21
219.3735902771722
 31
0.0
  0
LINE
  5
D44E
330
A
100
AcDbEntity
  8
0
  6
Continuous
 62
     8
370
     0
100
AcDbLine
 10
-441.1983126514963
 20
158.8280561837722
 30
0.0
 11
-449.6657279991963
 21
151.4950593882722
 31
0.0
  0
LINE
  5
D44F
330
A
100
AcDbEntity
  8
0
  6
Continuous
 62
     8
370
     0
100
AcDbLine
 10
-466.4862267247963
 20
174.2485919609722
 30
0.0
 11
-458.5188235661964
 21
181.1485654984722
 31
0.0
  0
LINE
  5
D450
330
A
100
AcDbEntity
  8
0
  6
Continuous
 62
     8
370
     0
100
AcDbLine
 10
-449.6657279991963
 20
142.8348055439722
 30
0.0
 11
-441.1983126514963
 21
150.1678023394722
 31
0.0
  0
ARC
  5
D451
330
A
100
AcDbEntity
  8
0
  6
Continuous
 62
     8
370
     0
100
AcDbCircle
 10
-506.8006409313962
 20
181.6516189631722
 30
0.0
 40
28.11067102684316
100
AcDbArc
 50
162.462329847
 51
171.5298462674
  0
ARC
  5
D452
330
A
100
AcDbEntity
  8
0
  6
Continuous
 62
     8
370
     0
100
AcDbCircle
 10
-535.5208835311962
 20
183.6069518107722
 30
0.0
 40
15.12116563025958
100
AcDbArc
 50
16.86829360900005
 51
31.85016501100012
  0
LINE
  5
D453
330
A
100
AcDbEntity
  8
0
  6
Continuous
 62
     8
370
     0
100
AcDbLine
 10
-534.6047011502963
 20
181.2022227783722
 30
0.0
 11
-534.6047011502963
 21
185.7921576868722
 31
0.0
  0
LINE
  5
D454
330
A
100
AcDbEntity
  8
0
  6
Continuous
 62
     8
370
     0
100
AcDbLine
 10
-534.6047011502963
 20
149.4190912182722
 30
0.0
 11
-534.6047011502963
 21
154.0090261267722
 31
0.0
  0
ARC
  5
D455
330
A
100
AcDbEntity
  8
0
  6
Continuous
 62
     8
370
     0
100
AcDbCircle
 10
-534.2708834718962
 20
184.6894836169722
 30
0.0
 40
15.12116563025969
100
AcDbArc
 50
16.86829360900003
 51
31.85016501100008
  0
ARC
  5
D456
330
A
100
AcDbEntity
  8
0
  6
Continuous
 62
     8
370
     0
100
AcDbCircle
 10
-527.7574418851963
 20
150.5631140983722
 30
0.0
 40
6.942171691447566
100
AcDbArc
 50
189.4852228579001
 51
212.6182260127999
  0
TEXT
  5
D457
330
A
100
AcDbEntity
  8
0
  6
Continuous
 62
     7
370
     0
100
AcDbText
 10
-679.7119
 20
413.0073
 30
0.0
 40
10.0
  1
815E50
100
AcDbText
  0
ENDSEC
  0
SECTION
  2
OBJECTS
  0
DICTIONARY
  5
19
330
0
100
AcDbDictionary
281
     1
  3
ACAD_GROUP
350
1A
  3
ACAD_IMAGE_VARS
350
BD14
  3
ACAD_LAYOUT
350
1E
  3
ACAD_MLINESTYLE
350
1B
  3
ACAD_PLOTSETTINGS
350
22
  3
ACAD_PLOTSTYLENAME
350
1F
  3
ACAD_SCALELIST
350
582C
  3
ACAD_WIPEOUT_VARS
350
23
  3
AcDbVariableDictionary
350
AB91
  3
APPDATA
350
BD13
  3
ASE_INDEX_DICTIONARY
350
B929
  3
DWGPROPS
350
D477
  0
DICTIONARY
  5
5858
330
14
100
AcDbDictionary
280
     1
281
     1
  3
ADSK_XREC_LAYER_RECONCILED
360
5859
  0
DICTIONARY
  5
5864
330
A
100
AcDbDictionary
280
     1
281
     1
  3
ACAD_SORTENTS
360
5865
  0
DICTIONARY
  5
1A
102
{ACAD_REACTORS
330
19
102
}
330
19
100
AcDbDictionary
281
     1
  0
RASTERVARIABLES
  5
BD14
102
{ACAD_REACTORS
330
19
102
}
330
19
100
AcDbRasterVariables
 90
        0
 70
     1
 71
     1
 72
     0
  0
DICTIONARY
  5
1E
102
{ACAD_REACTORS
330
19
102
}
330
19
100
AcDbDictionary
281
     1
  3
Layout1
350
21
  3
Model
350
20
  0
DICTIONARY
  5
1B
102
{ACAD_REACTORS
330
19
102
}
330
19
100
AcDbDictionary
281
     1
  3
Standard
350
1C
  0
DICTIONARY
  5
22
102
{ACAD_REACTORS
330
19
102
}
330
19
100
AcDbDictionary
281
     1
  0
ACDBDICTIONARYWDFLT
  5
1F
102
{ACAD_REACTORS
330
19
102
}
330
19
100
AcDbDictionary
281
     1
  3
Normal
350
1D
100
AcDbDictionaryWithDefault
340
1D
  0
DICTIONARY
  5
582C
102
{ACAD_REACTORS
330
19
102
}
330
19
100
AcDbDictionary
281
     1
  3
A0
350
582D
  3
A1
350
582E
  3
A2
350
582F
  3
A3
350
5830
  3
A4
350
5831
  3
A5
350
5832
  3
A6
350
5833
  3
A7
350
5834
  3
A8
350
5835
  3
A9
350
5836
  3
B0
350
5837
  3
B1
350
5838
  3
B2
350
5839
  3
B3
350
583A
  3
B4
350
583B
  3
B5
350
583C
  3
B6
350
583D
  3
B7
350
583E
  3
B8
350
583F
  3
B9
350
5840
  3
C0
350
5841
  3
C1
350
5842
  3
C2
350
5843
  3
C3
350
5844
  3
C4
350
5845
  3
C5
350
5846
  3
C6
350
5847
  3
C7
350
5848
  3
C8
350
5849
  3
C9
350
584A
  3
D0
350
584B
  3
D1
350
584C
  3
D2
350
584D
  0
WIPEOUTVARIABLES
  5
23
330
19
100
AcDbWipeoutVariables
 70
     1
  0
DICTIONARY
  5
AB91
102
{ACAD_REACTORS
330
19
102
}
330
19
100
AcDbDictionary
281
     1
  3
CANNOSCALE
350
D478
  3
DIMASSOC
350
B616
  3
INDEXCTL
350
B615
  3
SORTENTS
350
B614
  0
DICTIONARY
  5
BD13
102
{ACAD_REACTORS
330
19
102
}
330
19
100
AcDbDictionary
281
     1
  0
DICTIONARY
  5
B929
102
{ACAD_REACTORS
330
19
102
}
330
19
100
AcDbDictionary
281
     1
  3
ASEBlockHierarchyIndexRecord
350
B92A
1001
DCO15
1040
1684841593.825
  0
XRECORD
  5
D477
102
{ACAD_REACTORS
330
19
102
}
330
19
100
AcDbXrecord
280
     1
  1
DWGPROPS COOKIE
  2

  3

  4

  6

  7

  8
raffaele
  9

300
=
301
=
302
=
303
=
304
=
305
=
306
=
307
=
308
=
309
=
 40
0.0
 41
2455301.719027778
 42
2456349.656699271
  1

 90
        0
  0
XRECORD
  5
5859
102
{ACAD_REACTORS
330
5858
102
}
330
5858
100
AcDbXrecord
280
     1
290
     1
  0
SORTENTSTABLE
  5
5865
102
{ACAD_REACTORS
330
5864
102
}
330
5864
100
AcDbSortentsTable
330
A
331
0
  5
6CE0
  0
LAYOUT
  5
21
102
{ACAD_REACTORS
330
1E
102
}
330
1E
100
AcDbPlotSettings
  1

  2

  4

  6

 40
0.0
 41
0.0
 42
0.0
 43
0.0
 44
0.0
 45
0.0
 46
0.0
 47
0.0
 48
0.0
 49
0.0
140
0.0
141
0.0
142
1.0
143
1.0
 70
     0
 72
     0
 73
     0
 74
     0
  7

 75
     0
147
1.0
148
0.0
149
0.0
100
AcDbLayout
  1
Layout1
 70
     0
 71
     1
 10
0.0
 20
0.0
 11
12.0
 21
9.0
 12
0.0
 22
0.0
 32
0.0
 14
1.000000000000000E+20
 24
1.000000000000000E+20
 34
1.000000000000000E+20
 15
-1.000000000000000E+20
 25
-1.000000000000000E+20
 35
-1.000000000000000E+20
146
0.0
 13
0.0
 23
0.0
 33
0.0
 16
1.0
 26
0.0
 36
0.0
 17
0.0
 27
1.0
 37
0.0
 76
     0
330
B
  0
LAYOUT
  5
20
102
{ACAD_REACTORS
330
1E
102
}
330
1E
100
AcDbPlotSettings
  1

  2

  4

  6

 40
0.0
 41
0.0
 42
0.0
 43
0.0
 44
0.0
 45
0.0
 46
0.0
 47
0.0
 48
0.0
 49
0.0
140
0.0
141
0.0
142
1.0
143
1.0
 70
  1024
 72
     0
 73
     0
 74
     0
  7

 75
     0
147
1.0
148
0.0
149
0.0
100
AcDbLayout
  1
Model
 70
     0
 71
     0
 10
0.0
 20
0.0
 11
0.0
 21
0.0
 12
0.0
 22
0.0
 32
0.0
 14
0.0
 24
0.0
 34
0.0
 15
0.0
 25
0.0
 35
0.0
146
0.0
 13
0.0
 23
0.0
 33
0.0
 16
0.0
 26
0.0
 36
0.0
 17
0.0
 27
0.0
 37
0.0
 76
     0
330
A
331
15
  0
MLINESTYLE
  5
1C
102
{ACAD_REACTORS
330
1B
102
}
330
1B
100
AcDbMlineStyle
  2
STANDARD
 70
     0
  3

 62
     0
 51
90.0
 52
90.0
 71
     2
 49
0.5
 62
   256
  6
BYLAYER
 49
-0.5
 62
   256
  6
BYLAYER
  0
ACDBPLACEHOLDER
  5
1D
102
{ACAD_REACTORS
330
1F
102
}
330
1F
  0
SCALE
  5
582D
102
{ACAD_REACTORS
330
582C
102
}
330
582C
100
AcDbScale
 70
     0
300
1:1
140
1.0
141
1.0
290
     1
  0
SCALE
  5
582E
102
{ACAD_REACTORS
330
582C
102
}
330
582C
100
AcDbScale
 70
     0
300
1:2
140
1.0
141
2.0
290
     0
  0
SCALE
  5
582F
102
{ACAD_REACTORS
330
582C
102
}
330
582C
100
AcDbScale
 70
     0
300
1:4
140
1.0
141
4.0
290
     0
  0
SCALE
  5
5830
102
{ACAD_REACTORS
330
582C
102
}
330
582C
100
AcDbScale
 70
     0
300
1:5
140
1.0
141
5.0
290
     0
  0
SCALE
  5
5831
102
{ACAD_REACTORS
330
582C
102
}
330
582C
100
AcDbScale
 70
     0
300
1:8
140
1.0
141
8.0
290
     0
  0
SCALE
  5
5832
102
{ACAD_REACTORS
330
582C
102
}
330
582C
100
AcDbScale
 70
     0
300
1:10
140
1.0
141
10.0
290
     0
  0
SCALE
  5
5833
102
{ACAD_REACTORS
330
582C
102
}
330
582C
100
AcDbScale
 70
     0
300
1:16
140
1.0
141
16.0
290
     0
  0
SCALE
  5
5834
102
{ACAD_REACTORS
330
582C
102
}
330
582C
100
AcDbScale
 70
     0
300
1:20
140
1.0
141
20.0
290
     0
  0
SCALE
  5
5835
102
{ACAD_REACTORS
330
582C
102
}
330
582C
100
AcDbScale
 70
     0
300
1:30
140
1.0
141
30.0
290
     0
  0
SCALE
  5
5836
102
{ACAD_REACTORS
330
582C
102
}
330
582C
100
AcDbScale
 70
     0
300
1:40
140
1.0
141
40.0
290
     0
  0
SCALE
  5
5837
102
{ACAD_REACTORS
330
582C
102
}
330
582C
100
AcDbScale
 70
     0
300
1:50
140
1.0
141
50.0
290
     0
  0
SCALE
  5
5838
102
{ACAD_REACTORS
330
582C
102
}
330
582C
100
AcDbScale
 70
     0
300
1:100
140
1.0
141
100.0
290
     0
  0
SCALE
  5
5839
102
{ACAD_REACTORS
330
582C
102
}
330
582C
100
AcDbScale
 70
     0
300
2:1
140
2.0
141
1.0
290
     0
  0
SCALE
  5
583A
102
{ACAD_REACTORS
330
582C
102
}
330
582C
100
AcDbScale
 70
     0
300
4:1
140
4.0
141
1.0
290
     0
  0
SCALE
  5
583B
102
{ACAD_REACTORS
330
582C
102
}
330
582C
100
AcDbScale
 70
     0
300
8:1
140
8.0
141
1.0
290
     0
  0
SCALE
  5
583C
102
{ACAD_REACTORS
330
582C
102
}
330
582C
100
AcDbScale
 70
     0
300
10:1
140
10.0
141
1.0
290
     0
  0
SCALE
  5
583D
102
{ACAD_REACTORS
330
582C
102
}
330
582C
100
AcDbScale
 70
     0
300
100:1
140
100.0
141
1.0
290
     0
  0
SCALE
  5
583E
102
{ACAD_REACTORS
330
582C
102
}
330
582C
100
AcDbScale
 70
     0
300
1/128" = 1'-0"
140
0.0078125
141
12.0
290
     0
  0
SCALE
  5
583F
102
{ACAD_REACTORS
330
582C
102
}
330
582C
100
AcDbScale
 70
     0
300
1/64" = 1'-0"
140
0.015625
141
12.0
290
     0
  0
SCALE
  5
5840
102
{ACAD_REACTORS
330
582C
102
}
330
582C
100
AcDbScale
 70
     0
300
1/32" = 1'-0"
140
0.03125
141
12.0
290
     0
  0
SCALE
  5
5841
102
{ACAD_REACTORS
330
582C
102
}
330
582C
100
AcDbScale
 70
     0
300
1/16" = 1'-0"
140
0.0625
141
12.0
290
     0
  0
SCALE
  5
5842
102
{ACAD_REACTORS
330
582C
102
}
330
582C
100
AcDbScale
 70
     0
300
3/32" = 1'-0"
140
0.09375
141
12.0
290
     0
  0
SCALE
  5
5843
102
{ACAD_REACTORS
330
582C
102
}
330
582C
100
AcDbScale
 70
     0
300
1/8" = 1'-0"
140
0.125
141
12.0
290
     0
  0
SCALE
  5
5844
102
{ACAD_REACTORS
330
582C
102
}
330
582C
100
AcDbScale
 70
     0
300
3/16" = 1'-0"
140
0.1875
141
12.0
290
     0
  0
SCALE
  5
5845
102
{ACAD_REACTORS
330
582C
102
}
330
582C
100
AcDbScale
 70
     0
300
1/4" = 1'-0"
140
0.25
141
12.0
290
     0
  0
SCALE
  5
5846
102
{ACAD_REACTORS
330
582C
102
}
330
582C
100
AcDbScale
 70
     0
300
3/8" = 1'-0"
140
0.375
141
12.0
290
     0
  0
SCALE
  5
5847
102
{ACAD_REACTORS
330
582C
102
}
330
582C
100
AcDbScale
 70
     0
300
1/2" = 1'-0"
140
0.5
141
12.0
290
     0
  0
SCALE
  5
5848
102
{ACAD_REACTORS
330
582C
102
}
330
582C
100
AcDbScale
 70
     0
300
3/4" = 1'-0"
140
0.75
141
12.0
290
     0
  0
SCALE
  5
5849
102
{ACAD_REACTORS
330
582C
102
}
330
582C
100
AcDbScale
 70
     0
300
1" = 1'-0"
140
1.0
141
12.0
290
     0
  0
SCALE
  5
584A
102
{ACAD_REACTORS
330
582C
102
}
330
582C
100
AcDbScale
 70
     0
300
1-1/2" = 1'-0"
140
1.5
141
12.0
290
     0
  0
SCALE
  5
584B
102
{ACAD_REACTORS
330
582C
102
}
330
582C
100
AcDbScale
 70
     0
300
3" = 1'-0"
140
3.0
141
12.0
290
     0
  0
SCALE
  5
584C
102
{ACAD_REACTORS
330
582C
102
}
330
582C
100
AcDbScale
 70
     0
300
6" = 1'-0"
140
6.0
141
12.0
290
     0
  0
SCALE
  5
584D
102
{ACAD_REACTORS
330
582C
102
}
330
582C
100
AcDbScale
 70
     0
300
1'-0" = 1'-0"
140
12.0
141
12.0
290
     0
  0
DICTIONARYVAR
  5
D478
102
{ACAD_REACTORS
330
AB91
102
}
330
AB91
100
DictionaryVariables
280
     0
  1
1:1
  0
DICTIONARYVAR
  5
B616
102
{ACAD_REACTORS
330
AB91
102
}
330
AB91
100
DictionaryVariables
280
     0
  1
1
  0
DICTIONARYVAR
  5
B615
102
{ACAD_REACTORS
330
AB91
102
}
330
AB91
100
DictionaryVariables
280
     0
  1
0
  0
DICTIONARYVAR
  5
B614
102
{ACAD_REACTORS
330
AB91
102
}
330
AB91
100
DictionaryVariables
280
     0
  1
127
  0
XRECORD
  5
B92A
102
{ACAD_REACTORS
330
B929
102
}
330
B929
100
AcDbXrecord
280
     1
  0
ENDSEC
  0
EOF
